  0
SECTION
  2
HEADER
  9
$ACADVER
  1
AC1015
  9
$ACADMAINTVER
 70
     6
  9
$DWGCODEPAGE
  3
ANSI_1252
  9
$INSBASE
 10
0.0
 20
0.0
 30
0.0
  9
$EXTMIN
 10
0.0
 20
0.0
 30
0.0
  9
$EXTMAX
 10
594.0
 20
420.0
 30
0.0
  9
$LIMMIN
 10
0.0
 20
0.0
  9
$LIMMAX
 10
594.0
 20
420.0
  9
$ORTHOMODE
 70
     0
  9
$REGENMODE
 70
     1
  9
$FILLMODE
 70
     1
  9
$QTEXTMODE
 70
     0
  9
$MIRRTEXT
 70
     1
  9
$LTSCALE
 40
1.0
  9
$ATTMODE
 70
     1
  9
$TEXTSIZE
 40
2.5
  9
$TRACEWID
 40
1.0
  9
$TEXTSTYLE
  7
Standard
  9
$CLAYER
  8
0
  9
$CELTYPE
  6
ByLayer
  9
$CECOLOR
 62
   256
  9
$CELTSCALE
 40
1.0
  9
$DISPSILH
 70
     0
  9
$DIMSCALE
 40
1.0
  9
$DIMASZ
 40
2.5
  9
$DIMEXO
 40
0.625
  9
$DIMDLI
 40
3.75
  9
$DIMRND
 40
0.0
  9
$DIMDLE
 40
0.0
  9
$DIMEXE
 40
1.25
  9
$DIMTP
 40
0.0
  9
$DIMTM
 40
0.0
  9
$DIMTXT
 40
2.5
  9
$DIMCEN
 40
2.5
  9
$DIMTSZ
 40
0.0
  9
$DIMTOL
 70
     0
  9
$DIMLIM
 70
     0
  9
$DIMTIH
 70
     0
  9
$DIMTOH
 70
     0
  9
$DIMSE1
 70
     0
  9
$DIMSE2
 70
     0
  9
$DIMTAD
 70
     1
  9
$DIMZIN
 70
     8
  9
$DIMBLK
  1

  9
$DIMASO
 70
     1
  9
$DIMSHO
 70
     1
  9
$DIMPOST
  1

  9
$DIMAPOST
  1

  9
$DIMALT
 70
     0
  9
$DIMALTD
 70
     3
  9
$DIMALTF
 40
0.0393700787
  9
$DIMLFAC
 40
1.0
  9
$DIMTOFL
 70
     1
  9
$DIMTVP
 40
0.0
  9
$DIMTIX
 70
     0
  9
$DIMSOXD
 70
     0
  9
$DIMSAH
 70
     0
  9
$DIMBLK1
  1

  9
$DIMBLK2
  1

  9
$DIMSTYLE
  2
ISO-25
  9
$DIMCLRD
 70
     0
  9
$DIMCLRE
 70
     0
  9
$DIMCLRT
 70
     0
  9
$DIMTFAC
 40
1.0
  9
$DIMGAP
 40
0.625
  9
$DIMJUST
 70
     0
  9
$DIMSD1
 70
     0
  9
$DIMSD2
 70
     0
  9
$DIMTOLJ
 70
     0
  9
$DIMTZIN
 70
     8
  9
$DIMALTZ
 70
     0
  9
$DIMALTTZ
 70
     0
  9
$DIMUPT
 70
     0
  9
$DIMDEC
 70
     2
  9
$DIMTDEC
 70
     2
  9
$DIMALTU
 70
     2
  9
$DIMALTTD
 70
     3
  9
$DIMTXSTY
  7
Standard
  9
$DIMAUNIT
 70
     0
  9
$DIMADEC
 70
     0
  9
$DIMALTRND
 40
0.0
  9
$DIMAZIN
 70
     0
  9
$DIMDSEP
 70
    44
  9
$DIMATFIT
 70
     3
  9
$DIMFRAC
 70
     0
  9
$DIMLDRBLK
  1

  9
$DIMLUNIT
 70
     2
  9
$DIMLWD
 70
    -2
  9
$DIMLWE
 70
    -2
  9
$DIMTMOVE
 70
     0
  9
$LUNITS
 70
     2
  9
$LUPREC
 70
     4
  9
$SKETCHINC
 40
1.0
  9
$FILLETRAD
 40
10.0
  9
$AUNITS
 70
     0
  9
$AUPREC
 70
     0
  9
$MENU
  1
.
  9
$ELEVATION
 40
0.0
  9
$PELEVATION
 40
0.0
  9
$THICKNESS
 40
0.0
  9
$LIMCHECK
 70
     0
  9
$CHAMFERA
 40
10.0
  9
$CHAMFERB
 40
10.0
  9
$CHAMFERC
 40
20.0
  9
$CHAMFERD
 40
0.0
  9
$SKPOLY
 70
     0
  9
$TDCREATE
 40
2455572.624563947
  9
$TDUCREATE
 40
2455572.58289728
  9
$TDUPDATE
 40
2455572.624563958
  9
$TDUUPDATE
 40
2455572.582897292
  9
$TDINDWG
 40
0.0000000116
  9
$TDUSRTIMER
 40
0.0000000116
  9
$USRTIMER
 70
     1
  9
$ANGBASE
 50
0.0
  9
$ANGDIR
 70
     0
  9
$PDMODE
 70
     0
  9
$PDSIZE
 40
0.0
  9
$PLINEWID
 40
0.0
  9
$SPLFRAME
 70
     0
  9
$SPLINETYPE
 70
     6
  9
$SPLINESEGS
 70
     8
  9
$HANDSEED
  5
3E2
  9
$SURFTAB1
 70
     6
  9
$SURFTAB2
 70
     6
  9
$SURFTYPE
 70
     6
  9
$SURFU
 70
     6
  9
$SURFV
 70
     6
  9
$UCSBASE
  2

  9
$UCSNAME
  2

  9
$UCSORG
 10
0.0
 20
0.0
 30
0.0
  9
$UCSXDIR
 10
1.0
 20
0.0
 30
0.0
  9
$UCSYDIR
 10
0.0
 20
1.0
 30
0.0
  9
$UCSORTHOREF
  2

  9
$UCSORTHOVIEW
 70
     0
  9
$UCSORGTOP
 10
0.0
 20
0.0
 30
0.0
  9
$UCSORGBOTTOM
 10
0.0
 20
0.0
 30
0.0
  9
$UCSORGLEFT
 10
0.0
 20
0.0
 30
0.0
  9
$UCSORGRIGHT
 10
0.0
 20
0.0
 30
0.0
  9
$UCSORGFRONT
 10
0.0
 20
0.0
 30
0.0
  9
$UCSORGBACK
 10
0.0
 20
0.0
 30
0.0
  9
$PUCSBASE
  2

  9
$PUCSNAME
  2

  9
$PUCSORG
 10
0.0
 20
0.0
 30
0.0
  9
$PUCSXDIR
 10
1.0
 20
0.0
 30
0.0
  9
$PUCSYDIR
 10
0.0
 20
1.0
 30
0.0
  9
$PUCSORTHOREF
  2

  9
$PUCSORTHOVIEW
 70
     0
  9
$PUCSORGTOP
 10
0.0
 20
0.0
 30
0.0
  9
$PUCSORGBOTTOM
 10
0.0
 20
0.0
 30
0.0
  9
$PUCSORGLEFT
 10
0.0
 20
0.0
 30
0.0
  9
$PUCSORGRIGHT
 10
0.0
 20
0.0
 30
0.0
  9
$PUCSORGFRONT
 10
0.0
 20
0.0
 30
0.0
  9
$PUCSORGBACK
 10
0.0
 20
0.0
 30
0.0
  9
$USERI1
 70
     0
  9
$USERI2
 70
     0
  9
$USERI3
 70
     0
  9
$USERI4
 70
     0
  9
$USERI5
 70
     0
  9
$USERR1
 40
0.0
  9
$USERR2
 40
0.0
  9
$USERR3
 40
0.0
  9
$USERR4
 40
0.0
  9
$USERR5
 40
0.0
  9
$WORLDVIEW
 70
     1
  9
$SHADEDGE
 70
     3
  9
$SHADEDIF
 70
    70
  9
$TILEMODE
 70
     1
  9
$MAXACTVP
 70
    64
  9
$PINSBASE
 10
0.0
 20
0.0
 30
0.0
  9
$PLIMCHECK
 70
     0
  9
$PEXTMIN
 10
0.0
 20
0.0
 30
0.0
  9
$PEXTMAX
 10
594.0
 20
420.0
 30
0.0
  9
$PLIMMIN
 10
0.0
 20
0.0
  9
$PLIMMAX
 10
594.0
 20
420.0
  9
$UNITMODE
 70
     0
  9
$VISRETAIN
 70
     1
  9
$PLINEGEN
 70
     0
  9
$PSLTSCALE
 70
     1
  9
$TREEDEPTH
 70
  3020
  9
$CMLSTYLE
  2
Standard
  9
$CMLJUST
 70
     0
  9
$CMLSCALE
 40
20.0
  9
$PROXYGRAPHICS
 70
     1
  9
$MEASUREMENT
 70
     1
  9
$CELWEIGHT
370
    -1
  9
$ENDCAPS
280
     0
  9
$JOINSTYLE
280
     0
  9
$LWDISPLAY
290
     0
  9
$INSUNITS
 70
     4
  9
$HYPERLINKBASE
  1

  9
$STYLESHEET
  1

  9
$XEDIT
290
     1
  9
$CEPSNTYPE
380
     0
  9
$PSTYLEMODE
290
     1
  9
$FINGERPRINTGUID
  2
{9E579214-0D78-4217-ACB1-A0D2EB503E3C}
  9
$VERSIONGUID
  2
{FAEB1C32-E019-11D5-929B-00C0DF256EC4}
  9
$EXTNAMES
290
     1
  9
$PSVPSCALE
 40
0.0
  9
$OLESTARTUP
290
     0
  0
ENDSEC
  0
SECTION
  2
CLASSES
  0
CLASS
  1
ACDBDICTIONARYWDFLT
  2
AcDbDictionaryWithDefault
  3
ObjectDBX Classes
 90
        0
280
     0
281
     0
  0
CLASS
  1
VISUALSTYLE
  2
AcDbVisualStyle
  3
ObjectDBX Classes
 90
     4095
280
     0
281
     0
  0
CLASS
  1
MATERIAL
  2
AcDbMaterial
  3
ObjectDBX Classes
 90
     1153
280
     0
281
     0
  0
CLASS
  1
DICTIONARYVAR
  2
AcDbDictionaryVar
  3
ObjectDBX Classes
 90
        0
280
     0
281
     0
  0
CLASS
  1
ACDBPLACEHOLDER
  2
AcDbPlaceHolder
  3
ObjectDBX Classes
 90
        0
280
     0
281
     0
  0
CLASS
  1
LAYOUT
  2
AcDbLayout
  3
ObjectDBX Classes
 90
        0
280
     0
281
     0
  0
ENDSEC
  0
SECTION
  2
TABLES
  0
TABLE
  2
VPORT
  5
8
330
0
100
AcDbSymbolTable
 70
     1
  0
VPORT
  5
29
330
8
100
AcDbSymbolTableRecord
100
AcDbViewportTableRecord
  2
*Active
 70
     0
 10
0.0
 20
0.0
 11
1.0
 21
1.0
 12
344.1869158879
 22
148.5
 13
0.0
 23
0.0
 14
10.0
 24
10.0
 15
10.0
 25
10.0
 16
0.0
 26
0.0
 36
1.0
 17
0.0
 27
0.0
 37
0.0
 40
297.0
 41
1.9729729729
 42
50.0
 43
0.0
 44
0.0
 50
0.0
 51
0.0
 71
     0
 72
   100
 73
     1
 74
     3
 75
     0
 76
     0
 77
     0
 78
     0
281
     0
 65
     1
110
0.0
120
0.0
130
0.0
111
1.0
121
0.0
131
0.0
112
0.0
122
1.0
132
0.0
 79
     0
146
0.0
  0
ENDTAB
  0
TABLE
  2
LTYPE
  5
5
330
0
100
AcDbSymbolTable
 70
     1
  0
LTYPE
  5
14
330
5
100
AcDbSymbolTableRecord
100
AcDbLinetypeTableRecord
  2
ByBlock
 70
     0
  3

 72
    65
 73
     0
 40
0.0
  0
LTYPE
  5
15
330
5
100
AcDbSymbolTableRecord
100
AcDbLinetypeTableRecord
  2
ByLayer
 70
     0
  3

 72
    65
 73
     0
 40
0.0
  0
LTYPE
  5
16
330
5
100
AcDbSymbolTableRecord
100
AcDbLinetypeTableRecord
  2
Continuous
 70
     0
  3
Solid line
 72
    65
 73
     0
 40
0.0
  0
ENDTAB
  0
TABLE
  2
LAYER
  5
2
330
0
100
AcDbSymbolTable
 70
     3
  0
LAYER
  5
10
330
2
100
AcDbSymbolTableRecord
100
AcDbLayerTableRecord
  2
0
 70
     0
 62
     7
  6
Continuous
370
    -3
390
F
  0
LAYER
  5
3F
330
2
100
AcDbSymbolTableRecord
100
AcDbLayerTableRecord
  2
Default
 70
     0
 62
     7
  6
Continuous
370
    -3
390
F
  0
LAYER
  5
42
330
2
100
AcDbSymbolTableRecord
100
AcDbLayerTableRecord
  2
0-1MH
 70
     0
 62
     7
  6
Continuous
370
    -3
390
F
  0
ENDTAB
  0
TABLE
  2
STYLE
  5
3
330
0
100
AcDbSymbolTable
 70
     1
  0
STYLE
  5
11
330
3
100
AcDbSymbolTableRecord
100
AcDbTextStyleTableRecord
  2
Standard
 70
     0
 40
0.0
 41
1.0
 50
0.0
 71
     0
 42
2.5
  3
txt
  4

  0
ENDTAB
  0
TABLE
  2
VIEW
  5
6
330
0
100
AcDbSymbolTable
 70
     0
  0
ENDTAB
  0
TABLE
  2
UCS
  5
7
330
0
100
AcDbSymbolTable
 70
     0
  0
ENDTAB
  0
TABLE
  2
APPID
  5
9
330
0
100
AcDbSymbolTable
 70
     1
  0
APPID
  5
12
330
9
100
AcDbSymbolTableRecord
100
AcDbRegAppTableRecord
  2
ACAD
 70
     0
  0
ENDTAB
  0
TABLE
  2
DIMSTYLE
  5
A
330
0
100
AcDbSymbolTable
 70
     1
100
AcDbDimStyleTable
  0
DIMSTYLE
105
27
330
A
100
AcDbSymbolTableRecord
100
AcDbDimStyleTableRecord
  2
ISO-25
 70
     0
 41
2.5
 42
0.625
 43
3.75
 44
1.25
 73
     0
 74
     0
 77
     1
 78
     8
140
2.5
141
2.5
143
0.0393700787
147
0.625
171
     3
172
     1
178
     0
271
     2
272
     2
274
     3
278
    44
283
     0
284
     8
340
11
  0
ENDTAB
  0
TABLE
  2
BLOCK_RECORD
  5
1
330
0
100
AcDbSymbolTable
 70
     7
  0
BLOCK_RECORD
  5
1F
330
1
100
AcDbSymbolTableRecord
100
AcDbBlockTableRecord
  2
*Model_Space
340
22
  0
BLOCK_RECORD
  5
1B
330
1
100
AcDbSymbolTableRecord
100
AcDbBlockTableRecord
  2
*Paper_Space
340
1E
  0
BLOCK_RECORD
  5
40
330
1
100
AcDbSymbolTableRecord
100
AcDbBlockTableRecord
  2
SE
340
0
102
{BLKREFS
331
41
102
}
  0
BLOCK_RECORD
  5
103
330
1
100
AcDbSymbolTableRecord
100
AcDbBlockTableRecord
  2
SE1
340
0
102
{BLKREFS
331
104
102
}
  0
BLOCK_RECORD
  5
13A
330
1
100
AcDbSymbolTableRecord
100
AcDbBlockTableRecord
  2
SE2
340
0
102
{BLKREFS
331
13B
102
}
  0
BLOCK_RECORD
  5
175
330
1
100
AcDbSymbolTableRecord
100
AcDbBlockTableRecord
  2
SE3
340
0
102
{BLKREFS
331
176
102
}
  0
BLOCK_RECORD
  5
1B6
330
1
100
AcDbSymbolTableRecord
100
AcDbBlockTableRecord
  2
SE4
340
0
102
{BLKREFS
331
1B7
102
}
  0
BLOCK_RECORD
  5
294
330
1
100
AcDbSymbolTableRecord
100
AcDbBlockTableRecord
  2
SE5
340
0
102
{BLKREFS
331
295
102
}
  0
ENDTAB
  0
ENDSEC
  0
SECTION
  2
BLOCKS
  0
BLOCK
  5
20
330
1F
100
AcDbEntity
  8
0
100
AcDbBlockBegin
  2
*Model_Space
 70
     0
 10
0.0
 20
0.0
 30
0.0
  3
*Model_Space
  1

  0
ENDBLK
  5
21
330
1F
100
AcDbEntity
  8
0
100
AcDbBlockEnd
  0
BLOCK
  5
1C
330
1B
100
AcDbEntity
 67
     1
  8
0
100
AcDbBlockBegin
  2
*Paper_Space
 70
     0
 10
0.0
 20
0.0
 30
0.0
  3
*Paper_Space
  1

  0
ENDBLK
  5
1D
330
1B
100
AcDbEntity
 67
     1
  8
0
100
AcDbBlockEnd
  0
BLOCK
  5
101
330
40
100
AcDbEntity
  8
0
100
AcDbBlockBegin
  2
SE
 70
     0
 10
0.0
 20
0.0
 30
0.0
  3
SE
  1

  0
ARC
  5
43
330
40
100
AcDbEntity
  8
0-1MH
  6
Continuous
 62
     7
100
AcDbCircle
 10
229.7740725857
 20
202.7283079267
 30
0.0
 40
26.00000000000001
100
AcDbArc
 50
215.2344179846
 51
324.7655820154
  0
ARC
  5
44
330
40
100
AcDbEntity
  8
0-1MH
  6
Continuous
 62
     7
100
AcDbCircle
 10
229.7740725857
 20
202.7283079267
 30
0.0
 40
26.0
100
AcDbArc
 50
0.0
 51
35.2344179846
  0
ARC
  5
45
330
40
100
AcDbEntity
  8
0-1MH
  6
Continuous
 62
     7
100
AcDbCircle
 10
229.7740725857
 20
202.7283079267
 30
0.0
 40
25.99999999999999
100
AcDbArc
 50
35.2344179846
 51
144.7655820154
  0
ARC
  5
46
330
40
100
AcDbEntity
  8
0-1MH
  6
Continuous
 62
     7
100
AcDbCircle
 10
229.7740725857
 20
202.7283079267
 30
0.0
 40
26.0
100
AcDbArc
 50
180.0
 51
215.2344179846
  0
CIRCLE
  5
47
330
40
100
AcDbEntity
  8
0-1MH
  6
Continuous
 62
     7
100
AcDbCircle
 10
209.7740725857
 20
251.7283079267
 30
0.0
 40
2.6
  0
CIRCLE
  5
48
330
40
100
AcDbEntity
  8
0-1MH
  6
Continuous
 62
     7
100
AcDbCircle
 10
249.7740725857
 20
251.7283079267
 30
0.0
 40
2.6
  0
LINE
  5
49
330
40
100
AcDbEntity
  8
0-1MH
  6
Continuous
 62
     7
100
AcDbLine
 10
205.7740725857
 20
255.7283079267
 30
0.0
 11
205.7740725857
 21
217.7283079267
 31
0.0
  0
LINE
  5
4A
330
40
100
AcDbEntity
  8
0-1MH
  6
Continuous
 62
     7
100
AcDbLine
 10
255.7740725857
 20
255.7283079267
 30
0.0
 11
205.7740725857
 21
255.7283079267
 31
0.0
  0
LINE
  5
4B
330
40
100
AcDbEntity
  8
0-1MH
  6
Continuous
 62
     7
100
AcDbLine
 10
255.7740725857
 20
255.7283079267
 30
0.0
 11
255.7740725857
 21
217.7283079267
 31
0.0
  0
LINE
  5
4C
330
40
100
AcDbEntity
  8
0-1MH
  6
Continuous
 62
     7
100
AcDbLine
 10
255.7740725857
 20
217.7283079267
 30
0.0
 11
251.0108331673
 21
217.7283079267
 31
0.0
  0
LINE
  5
4D
330
40
100
AcDbEntity
  8
0-1MH
  6
Continuous
 62
     7
100
AcDbLine
 10
208.5373120041
 20
217.7283079267
 30
0.0
 11
205.7740725857
 21
217.7283079267
 31
0.0
  0
ARC
  5
4E
330
40
100
AcDbEntity
  8
0-1MH
  6
Continuous
 62
     7
100
AcDbCircle
 10
229.7740725857
 20
202.7283079267
 30
0.0
 40
26.00000000000001
100
AcDbArc
 50
324.7655820154
 51
0.0
  0
LINE
  5
4F
330
40
100
AcDbEntity
  8
0-1MH
  6
Continuous
 62
     7
100
AcDbLine
 10
251.0108331673
 20
187.7283079267
 30
0.0
 11
255.7740725857
 21
187.7283079267
 31
0.0
  0
CIRCLE
  5
50
330
40
100
AcDbEntity
  8
0-1MH
  6
Continuous
 62
     7
100
AcDbCircle
 10
209.7740725857
 20
178.7283079267
 30
0.0
 40
2.6
  0
CIRCLE
  5
51
330
40
100
AcDbEntity
  8
0-1MH
  6
Continuous
 62
     7
100
AcDbCircle
 10
249.7740725857
 20
178.7283079267
 30
0.0
 40
2.6
  0
LINE
  5
52
330
40
100
AcDbEntity
  8
0-1MH
  6
Continuous
 62
     7
100
AcDbLine
 10
255.7740725857
 20
174.7283079267
 30
0.0
 11
205.7740725857
 21
174.7283079267
 31
0.0
  0
LINE
  5
53
330
40
100
AcDbEntity
  8
0-1MH
  6
Continuous
 62
     7
100
AcDbLine
 10
205.7740725857
 20
187.7283079267
 30
0.0
 11
205.7740725857
 21
174.7283079267
 31
0.0
  0
LINE
  5
54
330
40
100
AcDbEntity
  8
0-1MH
  6
Continuous
 62
     7
100
AcDbLine
 10
205.7740725857
 20
187.7283079267
 30
0.0
 11
208.5373120041
 21
187.7283079267
 31
0.0
  0
LINE
  5
55
330
40
100
AcDbEntity
  8
0-1MH
  6
Continuous
 62
     7
100
AcDbLine
 10
255.7740725857
 20
187.7283079267
 30
0.0
 11
255.7740725857
 21
174.7283079267
 31
0.0
  0
LINE
  5
56
330
40
100
AcDbEntity
  8
0-1MH
  6
Continuous
 62
     7
100
AcDbLine
 10
205.7740725857
 20
187.7283079267
 30
0.0
 11
203.7740725857
 21
187.7283079267
 31
0.0
  0
ARC
  5
57
330
40
100
AcDbEntity
  8
0-1MH
  6
Continuous
 62
     7
100
AcDbCircle
 10
229.7740725857
 20
202.7283079267
 30
0.0
 40
26.0
100
AcDbArc
 50
144.7655820154
 51
180.0
  0
LINE
  5
58
330
40
100
AcDbEntity
  8
0-1MH
  6
Continuous
 62
     7
100
AcDbLine
 10
203.7740725857
 20
217.7283079267
 30
0.0
 11
203.7740725857
 21
202.7283079267
 31
0.0
  0
LINE
  5
59
330
40
100
AcDbEntity
  8
0-1MH
  6
Continuous
 62
     7
100
AcDbLine
 10
203.7740725857
 20
202.7283079267
 30
0.0
 11
203.7740725857
 21
187.7283079267
 31
0.0
  0
LINE
  5
5A
330
40
100
AcDbEntity
  8
0-1MH
  6
Continuous
 62
     7
100
AcDbLine
 10
203.7740725857
 20
217.7283079267
 30
0.0
 11
205.7740725857
 21
217.7283079267
 31
0.0
  0
CIRCLE
  5
5B
330
40
100
AcDbEntity
  8
0-1MH
  6
Continuous
 62
     7
100
AcDbCircle
 10
209.7740725857
 20
251.7283079267
 30
0.0
 40
2.1
  0
CIRCLE
  5
5C
330
40
100
AcDbEntity
  8
0-1MH
  6
Continuous
 62
     7
100
AcDbCircle
 10
249.7740725857
 20
251.7283079267
 30
0.0
 40
2.1
  0
LINE
  5
5D
330
40
100
AcDbEntity
  8
0-1MH
  6
Continuous
 62
     7
100
AcDbLine
 10
203.7740725857
 20
255.7283079267
 30
0.0
 11
204.7740725857
 21
256.7283079267
 31
0.0
  0
LINE
  5
5E
330
40
100
AcDbEntity
  8
0-1MH
  6
Continuous
 62
     7
100
AcDbLine
 10
205.7740725857
 20
255.7283079267
 30
0.0
 11
204.7740725857
 21
256.7283079267
 31
0.0
  0
LINE
  5
5F
330
40
100
AcDbEntity
  8
0-1MH
  6
Continuous
 62
     7
100
AcDbLine
 10
203.7740725857
 20
255.7283079267
 30
0.0
 11
203.7740725857
 21
217.7283079267
 31
0.0
  0
LINE
  5
60
330
40
100
AcDbEntity
  8
0-1MH
  6
Continuous
 62
     7
100
AcDbLine
 10
255.7740725857
 20
257.7283079267
 30
0.0
 11
255.7740725857
 21
255.7283079267
 31
0.0
  0
LINE
  5
61
330
40
100
AcDbEntity
  8
0-1MH
  6
Continuous
 62
     7
100
AcDbLine
 10
204.7740725857
 20
256.7283079267
 30
0.0
 11
205.7740725857
 21
257.7283079267
 31
0.0
  0
LINE
  5
62
330
40
100
AcDbEntity
  8
0-1MH
  6
Continuous
 62
     7
100
AcDbLine
 10
205.7740725857
 20
257.7283079267
 30
0.0
 11
255.7740725857
 21
257.7283079267
 31
0.0
  0
LINE
  5
63
330
40
100
AcDbEntity
  8
0-1MH
  6
Continuous
 62
     7
100
AcDbLine
 10
255.7740725857
 20
172.7283079267
 30
0.0
 11
255.7740725857
 21
174.7283079267
 31
0.0
  0
CIRCLE
  5
64
330
40
100
AcDbEntity
  8
0-1MH
  6
Continuous
 62
     7
100
AcDbCircle
 10
209.7740725857
 20
178.7283079267
 30
0.0
 40
2.1
  0
CIRCLE
  5
65
330
40
100
AcDbEntity
  8
0-1MH
  6
Continuous
 62
     7
100
AcDbCircle
 10
249.7740725857
 20
178.7283079267
 30
0.0
 40
2.1
  0
LINE
  5
66
330
40
100
AcDbEntity
  8
0-1MH
  6
Continuous
 62
     7
100
AcDbLine
 10
205.7740725857
 20
172.7283079267
 30
0.0
 11
204.7740725857
 21
173.7283079267
 31
0.0
  0
LINE
  5
67
330
40
100
AcDbEntity
  8
0-1MH
  6
Continuous
 62
     7
100
AcDbLine
 10
205.7740725857
 20
174.7283079267
 30
0.0
 11
204.7740725857
 21
173.7283079267
 31
0.0
  0
LINE
  5
68
330
40
100
AcDbEntity
  8
0-1MH
  6
Continuous
 62
     7
100
AcDbLine
 10
205.7740725857
 20
172.7283079267
 30
0.0
 11
255.7740725857
 21
172.7283079267
 31
0.0
  0
LINE
  5
69
330
40
100
AcDbEntity
  8
0-1MH
  6
Continuous
 62
     7
100
AcDbLine
 10
203.7740725857
 20
174.7283079267
 30
0.0
 11
204.7740725857
 21
173.7283079267
 31
0.0
  0
LINE
  5
6A
330
40
100
AcDbEntity
  8
0-1MH
  6
Continuous
 62
     7
100
AcDbLine
 10
203.7740725857
 20
187.7283079267
 30
0.0
 11
203.7740725857
 21
174.7283079267
 31
0.0
  0
CIRCLE
  5
6B
330
40
100
AcDbEntity
  8
0-1MH
  6
Continuous
 62
     7
100
AcDbCircle
 10
209.7740727238
 20
202.7283080035
 30
0.0
 40
4.500000000000001
  0
CIRCLE
  5
6C
330
40
100
AcDbEntity
  8
0-1MH
  6
Continuous
 62
     7
100
AcDbCircle
 10
229.7740727238
 20
222.7283080035
 30
0.0
 40
4.500000000000001
  0
CIRCLE
  5
6D
330
40
100
AcDbEntity
  8
0-1MH
  6
Continuous
 62
     7
100
AcDbCircle
 10
249.7740727238
 20
202.7283080035
 30
0.0
 40
4.500000000000001
  0
CIRCLE
  5
6E
330
40
100
AcDbEntity
  8
0-1MH
  6
Continuous
 62
     7
100
AcDbCircle
 10
229.7740727238
 20
182.7283080035
 30
0.0
 40
4.500000000000001
  0
CIRCLE
  5
6F
330
40
100
AcDbEntity
  8
0-1MH
  6
Continuous
 62
     7
100
AcDbCircle
 10
229.7740727238
 20
202.7283080035
 30
0.0
 40
25.0
  0
CIRCLE
  5
70
330
40
100
AcDbEntity
  8
0-1MH
  6
Continuous
 62
     7
100
AcDbCircle
 10
229.7740727238
 20
202.7283080035
 30
0.0
 40
7.5
  0
LINE
  5
71
330
40
100
AcDbEntity
  8
0-1MH
  6
Continuous
 62
     7
100
AcDbLine
 10
229.7887089646
 20
221.293382571
 30
0.0
 11
231.0094362069
 21
221.9981697729
 31
0.0
  0
LINE
  5
72
330
40
100
AcDbEntity
  8
0-1MH
  6
Continuous
 62
     7
100
AcDbLine
 10
228.5387089646
 20
221.9981697729
 30
0.0
 11
229.7594362069
 21
221.293382571
 31
0.0
  0
LINE
  5
73
330
40
100
AcDbEntity
  8
0-1MH
  6
Continuous
 62
     7
100
AcDbLine
 10
228.5240725857
 20
223.4330951286
 30
0.0
 11
228.5240725857
 21
222.0235207247
 31
0.0
  0
LINE
  5
74
330
40
100
AcDbEntity
  8
0-1MH
  6
Continuous
 62
     7
100
AcDbLine
 10
229.7594362069
 20
224.1632332824
 30
0.0
 11
228.5387089646
 21
223.4584460804
 31
0.0
  0
LINE
  5
75
330
40
100
AcDbEntity
  8
0-1MH
  6
Continuous
 62
     7
100
AcDbLine
 10
231.0094362069
 20
223.4584460804
 30
0.0
 11
229.7887089646
 21
224.1632332824
 31
0.0
  0
LINE
  5
76
330
40
100
AcDbEntity
  8
0-1MH
  6
Continuous
 62
     7
100
AcDbLine
 10
231.0240725857
 20
222.0235207247
 30
0.0
 11
231.0240725857
 21
223.4330951286
 31
0.0
  0
ARC
  5
77
330
40
100
AcDbEntity
  8
0-1MH
  6
Continuous
 62
     7
100
AcDbCircle
 10
229.7740725857
 20
222.7283079267
 30
0.0
 40
1.250000000000001
100
AcDbArc
 50
300.0
 51
0.0
  0
ARC
  5
78
330
40
100
AcDbEntity
  8
0-1MH
  6
Continuous
 62
     7
100
AcDbCircle
 10
229.7740725857
 20
222.7283079267
 30
0.0
 40
1.25
100
AcDbArc
 50
240.0
 51
300.0
  0
ARC
  5
79
330
40
100
AcDbEntity
  8
0-1MH
  6
Continuous
 62
     7
100
AcDbCircle
 10
229.7740725857
 20
222.7283079267
 30
0.0
 40
1.250000000000002
100
AcDbArc
 50
180.0
 51
240.0
  0
ARC
  5
7A
330
40
100
AcDbEntity
  8
0-1MH
  6
Continuous
 62
     7
100
AcDbCircle
 10
229.7740725857
 20
222.7283079267
 30
0.0
 40
1.250000000000001
100
AcDbArc
 50
120.0
 51
180.0
  0
ARC
  5
7B
330
40
100
AcDbEntity
  8
0-1MH
  6
Continuous
 62
     7
100
AcDbCircle
 10
229.7740725857
 20
222.7283079267
 30
0.0
 40
1.25
100
AcDbArc
 50
60.0
 51
120.0
  0
ARC
  5
7C
330
40
100
AcDbEntity
  8
0-1MH
  6
Continuous
 62
     7
100
AcDbCircle
 10
229.7740725857
 20
222.7283079267
 30
0.0
 40
1.250000000000002
100
AcDbArc
 50
0.0
 51
60.0
  0
CIRCLE
  5
7D
330
40
100
AcDbEntity
  8
0-1MH
  6
Continuous
 62
     7
100
AcDbCircle
 10
229.7740725857
 20
222.7283079267
 30
0.0
 40
4.0
  0
LINE
  5
7E
330
40
100
AcDbEntity
  8
0-1MH
  6
Continuous
 62
     7
100
AcDbLine
 10
231.0240725857
 20
222.0066200902
 30
0.0
 11
231.0094362069
 21
221.9981697729
 31
0.0
  0
ARC
  5
7F
330
40
100
AcDbEntity
  8
0-1MH
  6
Continuous
 62
     7
100
AcDbCircle
 10
229.7740725857
 20
222.7283079267
 30
0.0
 40
1.435000000000006
100
AcDbArc
 50
270.5844022839
 51
329.4155977161
  0
LINE
  5
80
330
40
100
AcDbEntity
  8
0-1MH
  6
Continuous
 62
     7
100
AcDbLine
 10
229.7887089646
 20
221.293382571
 30
0.0
 11
229.7740725857
 21
221.2849322537
 31
0.0
  0
LINE
  5
81
330
40
100
AcDbEntity
  8
0-1MH
  6
Continuous
 62
     7
100
AcDbLine
 10
229.7740725857
 20
221.2849322537
 30
0.0
 11
229.7594362069
 21
221.293382571
 31
0.0
  0
ARC
  5
82
330
40
100
AcDbEntity
  8
0-1MH
  6
Continuous
 62
     7
100
AcDbCircle
 10
229.7740725857
 20
222.7283079267
 30
0.0
 40
1.435000000000006
100
AcDbArc
 50
210.5844022839
 51
269.4155977161
  0
LINE
  5
83
330
40
100
AcDbEntity
  8
0-1MH
  6
Continuous
 62
     7
100
AcDbLine
 10
228.5387089646
 20
221.9981697729
 30
0.0
 11
228.5240725857
 21
222.0066200902
 31
0.0
  0
LINE
  5
84
330
40
100
AcDbEntity
  8
0-1MH
  6
Continuous
 62
     7
100
AcDbLine
 10
228.5240725857
 20
222.0066200902
 30
0.0
 11
228.5240725857
 21
222.0235207247
 31
0.0
  0
ARC
  5
85
330
40
100
AcDbEntity
  8
0-1MH
  6
Continuous
 62
     7
100
AcDbCircle
 10
229.7740725857
 20
222.7283079267
 30
0.0
 40
1.435000000000005
100
AcDbArc
 50
150.5844022839
 51
209.4155977161
  0
LINE
  5
86
330
40
100
AcDbEntity
  8
0-1MH
  6
Continuous
 62
     7
100
AcDbLine
 10
228.5240725857
 20
223.4330951286
 30
0.0
 11
228.5240725857
 21
223.4499957632
 31
0.0
  0
LINE
  5
87
330
40
100
AcDbEntity
  8
0-1MH
  6
Continuous
 62
     7
100
AcDbLine
 10
228.5240725857
 20
223.4499957632
 30
0.0
 11
228.5387089646
 21
223.4584460804
 31
0.0
  0
ARC
  5
88
330
40
100
AcDbEntity
  8
0-1MH
  6
Continuous
 62
     7
100
AcDbCircle
 10
229.7740725857
 20
222.7283079267
 30
0.0
 40
1.435000000000004
100
AcDbArc
 50
90.5844022839
 51
149.4155977161
  0
LINE
  5
89
330
40
100
AcDbEntity
  8
0-1MH
  6
Continuous
 62
     7
100
AcDbLine
 10
229.7594362069
 20
224.1632332824
 30
0.0
 11
229.7740725857
 21
224.1716835996
 31
0.0
  0
LINE
  5
8A
330
40
100
AcDbEntity
  8
0-1MH
  6
Continuous
 62
     7
100
AcDbLine
 10
229.7740725857
 20
224.1716835996
 30
0.0
 11
229.7887089646
 21
224.1632332824
 31
0.0
  0
ARC
  5
8B
330
40
100
AcDbEntity
  8
0-1MH
  6
Continuous
 62
     7
100
AcDbCircle
 10
229.7740725857
 20
222.7283079267
 30
0.0
 40
1.435000000000003
100
AcDbArc
 50
30.5844022839
 51
89.4155977161
  0
LINE
  5
8C
330
40
100
AcDbEntity
  8
0-1MH
  6
Continuous
 62
     7
100
AcDbLine
 10
231.0094362069
 20
223.4584460804
 30
0.0
 11
231.0240725857
 21
223.4499957632
 31
0.0
  0
LINE
  5
8D
330
40
100
AcDbEntity
  8
0-1MH
  6
Continuous
 62
     7
100
AcDbLine
 10
231.0240725857
 20
223.4499957632
 30
0.0
 11
231.0240725857
 21
223.4330951286
 31
0.0
  0
ARC
  5
8E
330
40
100
AcDbEntity
  8
0-1MH
  6
Continuous
 62
     7
100
AcDbCircle
 10
229.7740725857
 20
222.7283079267
 30
0.0
 40
1.435000000000005
100
AcDbArc
 50
330.5844022839
 51
29.4155977161
  0
LINE
  5
8F
330
40
100
AcDbEntity
  8
0-1MH
  6
Continuous
 62
     7
100
AcDbLine
 10
231.0240725857
 20
222.0235207247
 30
0.0
 11
231.0240725857
 21
222.0066200902
 31
0.0
  0
LINE
  5
90
330
40
100
AcDbEntity
  8
0-1MH
  6
Continuous
 62
     7
100
AcDbLine
 10
255.7740725857
 20
217.7283079267
 30
0.0
 11
255.7740725857
 21
187.7283079267
 31
0.0
  0
LINE
  5
91
330
40
100
AcDbEntity
  8
0-1MH
  6
Continuous
 62
     7
100
AcDbLine
 10
265.7740725857
 20
257.2283079267
 30
0.0
 11
255.7740725857
 21
257.2283079267
 31
0.0
  0
LINE
  5
92
330
40
100
AcDbEntity
  8
0-1MH
  6
Continuous
 62
     7
100
AcDbLine
 10
255.7740725857
 20
255.2283079267
 30
0.0
 11
265.7740725857
 21
255.2283079267
 31
0.0
  0
LINE
  5
93
330
40
100
AcDbEntity
  8
0-1MH
  6
Continuous
 62
     7
100
AcDbLine
 10
265.7740725857
 20
255.2283079267
 30
0.0
 11
266.7740725857
 21
256.2283079267
 31
0.0
  0
LINE
  5
94
330
40
100
AcDbEntity
  8
0-1MH
  6
Continuous
 62
     7
100
AcDbLine
 10
266.7740725857
 20
256.2283079267
 30
0.0
 11
265.7740725857
 21
257.2283079267
 31
0.0
  0
LINE
  5
95
330
40
100
AcDbEntity
  8
0-1MH
  6
Continuous
 62
     7
100
AcDbLine
 10
265.7740725857
 20
175.2283079267
 30
0.0
 11
255.7740725857
 21
175.2283079267
 31
0.0
  0
LINE
  5
96
330
40
100
AcDbEntity
  8
0-1MH
  6
Continuous
 62
     7
100
AcDbLine
 10
255.7740725857
 20
173.2283079267
 30
0.0
 11
265.7740725857
 21
173.2283079267
 31
0.0
  0
LINE
  5
97
330
40
100
AcDbEntity
  8
0-1MH
  6
Continuous
 62
     7
100
AcDbLine
 10
267.7740725857
 20
255.2283079267
 30
0.0
 11
267.7740725857
 21
175.2283079267
 31
0.0
  0
LINE
  5
98
330
40
100
AcDbEntity
  8
0-1MH
  6
Continuous
 62
     7
100
AcDbLine
 10
267.7740725857
 20
175.2283079267
 30
0.0
 11
266.7740725857
 21
174.2283079267
 31
0.0
  0
LINE
  5
99
330
40
100
AcDbEntity
  8
0-1MH
  6
Continuous
 62
     7
100
AcDbLine
 10
266.7740725857
 20
174.2283079267
 30
0.0
 11
265.7740725857
 21
173.2283079267
 31
0.0
  0
LINE
  5
9A
330
40
100
AcDbEntity
  8
0-1MH
  6
Continuous
 62
     7
100
AcDbLine
 10
267.7740725857
 20
255.2283079267
 30
0.0
 11
266.7740725857
 21
256.2283079267
 31
0.0
  0
LINE
  5
9B
330
40
100
AcDbEntity
  8
0-1MH
  6
Continuous
 62
     7
100
AcDbLine
 10
265.7740725857
 20
255.2283079267
 30
0.0
 11
265.7740725857
 21
175.2283079267
 31
0.0
  0
LINE
  5
9C
330
40
100
AcDbEntity
  8
0-1MH
  6
Continuous
 62
     7
100
AcDbLine
 10
265.7740725857
 20
175.2283079267
 30
0.0
 11
266.7740725857
 21
174.2283079267
 31
0.0
  0
CIRCLE
  5
9D
330
40
100
AcDbEntity
  8
0-1MH
  6
Continuous
 62
     7
100
AcDbCircle
 10
229.7740725857
 20
202.7283079267
 30
0.0
 40
5.0
  0
CIRCLE
  5
9E
330
40
100
AcDbEntity
  8
0-1MH
  6
Continuous
 62
     7
100
AcDbCircle
 10
229.7740725857
 20
202.7283079267
 30
0.0
 40
4.2
  0
CIRCLE
  5
9F
330
40
100
AcDbEntity
  8
0-1MH
  6
Continuous
 62
     7
100
AcDbCircle
 10
229.7740725857
 20
202.7283079267
 30
0.0
 40
1.65
  0
CIRCLE
  5
A0
330
40
100
AcDbEntity
  8
0-1MH
  6
Continuous
 62
     7
100
AcDbCircle
 10
229.7740725857
 20
202.7283079267
 30
0.0
 40
2.15
  0
CIRCLE
  5
A1
330
40
100
AcDbEntity
  8
0-1MH
  6
Continuous
 62
     7
100
AcDbCircle
 10
229.7740725857
 20
202.7283079267
 30
0.0
 40
7.0
  0
CIRCLE
  5
A2
330
40
100
AcDbEntity
  8
0-1MH
  6
Continuous
 62
     7
100
AcDbCircle
 10
229.7740725857
 20
202.7283079267
 30
0.0
 40
6.73205080756888
  0
CIRCLE
  5
A3
330
40
100
AcDbEntity
  8
0-1MH
  6
Continuous
 62
     7
100
AcDbCircle
 10
229.7740725857
 20
202.7283079267
 30
0.0
 40
5.5
  0
ARC
  5
A4
330
40
100
AcDbEntity
  8
0-1MH
  6
Continuous
 62
     7
100
AcDbCircle
 10
209.7740725857
 20
202.7283079267
 30
0.0
 40
1.435000000000005
100
AcDbArc
 50
60.5844022839
 51
119.4155977161
  0
LINE
  5
A5
330
40
100
AcDbEntity
  8
0-1MH
  6
Continuous
 62
     7
100
AcDbLine
 10
210.4788597877
 20
203.9783079267
 30
0.0
 11
209.0692853838
 21
203.9783079267
 31
0.0
  0
ARC
  5
A6
330
40
100
AcDbEntity
  8
0-1MH
  6
Continuous
 62
     7
100
AcDbCircle
 10
209.7740725857
 20
202.7283079267
 30
0.0
 40
1.435000000000003
100
AcDbArc
 50
120.5844022839
 51
179.4155977161
  0
LINE
  5
A7
330
40
100
AcDbEntity
  8
0-1MH
  6
Continuous
 62
     7
100
AcDbLine
 10
209.043934432
 20
203.9636715478
 30
0.0
 11
208.33914723
 21
202.7429443055
 31
0.0
  0
ARC
  5
A8
330
40
100
AcDbEntity
  8
0-1MH
  6
Continuous
 62
     7
100
AcDbCircle
 10
209.7740725857
 20
202.7283079267
 30
0.0
 40
1.435000000000004
100
AcDbArc
 50
180.5844022839
 51
239.4155977161
  0
LINE
  5
A9
330
40
100
AcDbEntity
  8
0-1MH
  6
Continuous
 62
     7
100
AcDbLine
 10
208.33914723
 20
202.7136715478
 30
0.0
 11
209.043934432
 21
201.4929443055
 31
0.0
  0
ARC
  5
AA
330
40
100
AcDbEntity
  8
0-1MH
  6
Continuous
 62
     7
100
AcDbCircle
 10
209.7740725857
 20
202.7283079267
 30
0.0
 40
1.435000000000005
100
AcDbArc
 50
240.5844022839
 51
299.4155977161
  0
LINE
  5
AB
330
40
100
AcDbEntity
  8
0-1MH
  6
Continuous
 62
     7
100
AcDbLine
 10
209.0692853838
 20
201.4783079267
 30
0.0
 11
210.4788597877
 21
201.4783079267
 31
0.0
  0
ARC
  5
AC
330
40
100
AcDbEntity
  8
0-1MH
  6
Continuous
 62
     7
100
AcDbCircle
 10
209.7740725857
 20
202.7283079267
 30
0.0
 40
1.435000000000006
100
AcDbArc
 50
300.5844022839
 51
359.4155977161
  0
LINE
  5
AD
330
40
100
AcDbEntity
  8
0-1MH
  6
Continuous
 62
     7
100
AcDbLine
 10
210.5042107395
 20
201.4929443055
 30
0.0
 11
211.2089979414
 21
202.7136715478
 31
0.0
  0
ARC
  5
AE
330
40
100
AcDbEntity
  8
0-1MH
  6
Continuous
 62
     7
100
AcDbCircle
 10
209.7740725857
 20
202.7283079267
 30
0.0
 40
1.435000000000006
100
AcDbArc
 50
0.5844022839
 51
59.4155977161
  0
LINE
  5
AF
330
40
100
AcDbEntity
  8
0-1MH
  6
Continuous
 62
     7
100
AcDbLine
 10
211.2089979414
 20
202.7429443055
 30
0.0
 11
210.5042107395
 21
203.9636715478
 31
0.0
  0
CIRCLE
  5
B0
330
40
100
AcDbEntity
  8
0-1MH
  6
Continuous
 62
     7
100
AcDbCircle
 10
209.7740725857
 20
202.7283079267
 30
0.0
 40
4.0
  0
LINE
  5
B1
330
40
100
AcDbEntity
  8
0-1MH
  6
Continuous
 62
     7
100
AcDbLine
 10
210.4957604222
 20
203.9783079267
 30
0.0
 11
210.5042107395
 21
203.9636715478
 31
0.0
  0
LINE
  5
B2
330
40
100
AcDbEntity
  8
0-1MH
  6
Continuous
 62
     7
100
AcDbLine
 10
211.2089979414
 20
202.7429443055
 30
0.0
 11
211.2174482587
 21
202.7283079267
 31
0.0
  0
LINE
  5
B3
330
40
100
AcDbEntity
  8
0-1MH
  6
Continuous
 62
     7
100
AcDbLine
 10
211.2174482587
 20
202.7283079267
 30
0.0
 11
211.2089979414
 21
202.7136715478
 31
0.0
  0
LINE
  5
B4
330
40
100
AcDbEntity
  8
0-1MH
  6
Continuous
 62
     7
100
AcDbLine
 10
210.5042107395
 20
201.4929443055
 30
0.0
 11
210.4957604222
 21
201.4783079267
 31
0.0
  0
LINE
  5
B5
330
40
100
AcDbEntity
  8
0-1MH
  6
Continuous
 62
     7
100
AcDbLine
 10
210.4957604222
 20
201.4783079267
 30
0.0
 11
210.4788597877
 21
201.4783079267
 31
0.0
  0
LINE
  5
B6
330
40
100
AcDbEntity
  8
0-1MH
  6
Continuous
 62
     7
100
AcDbLine
 10
209.0692853838
 20
201.4783079267
 30
0.0
 11
209.0523847493
 21
201.4783079267
 31
0.0
  0
LINE
  5
B7
330
40
100
AcDbEntity
  8
0-1MH
  6
Continuous
 62
     7
100
AcDbLine
 10
209.0523847493
 20
201.4783079267
 30
0.0
 11
209.043934432
 21
201.4929443055
 31
0.0
  0
LINE
  5
B8
330
40
100
AcDbEntity
  8
0-1MH
  6
Continuous
 62
     7
100
AcDbLine
 10
208.33914723
 20
202.7136715478
 30
0.0
 11
208.3306969128
 21
202.7283079267
 31
0.0
  0
LINE
  5
B9
330
40
100
AcDbEntity
  8
0-1MH
  6
Continuous
 62
     7
100
AcDbLine
 10
208.3306969128
 20
202.7283079267
 30
0.0
 11
208.33914723
 21
202.7429443055
 31
0.0
  0
LINE
  5
BA
330
40
100
AcDbEntity
  8
0-1MH
  6
Continuous
 62
     7
100
AcDbLine
 10
209.043934432
 20
203.9636715478
 30
0.0
 11
209.0523847493
 21
203.9783079267
 31
0.0
  0
LINE
  5
BB
330
40
100
AcDbEntity
  8
0-1MH
  6
Continuous
 62
     7
100
AcDbLine
 10
209.0523847493
 20
203.9783079267
 30
0.0
 11
209.0692853838
 21
203.9783079267
 31
0.0
  0
LINE
  5
BC
330
40
100
AcDbEntity
  8
0-1MH
  6
Continuous
 62
     7
100
AcDbLine
 10
210.4788597877
 20
203.9783079267
 30
0.0
 11
210.4957604222
 21
203.9783079267
 31
0.0
  0
ARC
  5
BD
330
40
100
AcDbEntity
  8
0-1MH
  6
Continuous
 62
     7
100
AcDbCircle
 10
209.7740725857
 20
202.7283079267
 30
0.0
 40
1.250000000000002
100
AcDbArc
 50
90.0
 51
150.0
  0
ARC
  5
BE
330
40
100
AcDbEntity
  8
0-1MH
  6
Continuous
 62
     7
100
AcDbCircle
 10
209.7740725857
 20
202.7283079267
 30
0.0
 40
1.25
100
AcDbArc
 50
150.0
 51
210.0
  0
ARC
  5
BF
330
40
100
AcDbEntity
  8
0-1MH
  6
Continuous
 62
     7
100
AcDbCircle
 10
209.7740725857
 20
202.7283079267
 30
0.0
 40
1.250000000000001
100
AcDbArc
 50
210.0
 51
270.0
  0
ARC
  5
C0
330
40
100
AcDbEntity
  8
0-1MH
  6
Continuous
 62
     7
100
AcDbCircle
 10
209.7740725857
 20
202.7283079267
 30
0.0
 40
1.250000000000002
100
AcDbArc
 50
270.0
 51
330.0
  0
ARC
  5
C1
330
40
100
AcDbEntity
  8
0-1MH
  6
Continuous
 62
     7
100
AcDbCircle
 10
209.7740725857
 20
202.7283079267
 30
0.0
 40
1.25
100
AcDbArc
 50
330.0
 51
30.0
  0
ARC
  5
C2
330
40
100
AcDbEntity
  8
0-1MH
  6
Continuous
 62
     7
100
AcDbCircle
 10
209.7740725857
 20
202.7283079267
 30
0.0
 40
1.250000000000001
100
AcDbArc
 50
30.0
 51
90.0
  0
ARC
  5
C3
330
40
100
AcDbEntity
  8
0-1MH
  6
Continuous
 62
     7
100
AcDbCircle
 10
229.7740725857
 20
182.7283079267
 30
0.0
 40
1.435000000000005
100
AcDbArc
 50
150.5844022839
 51
209.4155977161
  0
LINE
  5
C4
330
40
100
AcDbEntity
  8
0-1MH
  6
Continuous
 62
     7
100
AcDbLine
 10
228.5240725857
 20
183.4330951286
 30
0.0
 11
228.5240725857
 21
182.0235207247
 31
0.0
  0
ARC
  5
C5
330
40
100
AcDbEntity
  8
0-1MH
  6
Continuous
 62
     7
100
AcDbCircle
 10
229.7740725857
 20
182.7283079267
 30
0.0
 40
1.435000000000003
100
AcDbArc
 50
210.5844022839
 51
269.4155977161
  0
LINE
  5
C6
330
40
100
AcDbEntity
  8
0-1MH
  6
Continuous
 62
     7
100
AcDbLine
 10
228.5387089646
 20
181.9981697729
 30
0.0
 11
229.7594362069
 21
181.293382571
 31
0.0
  0
ARC
  5
C7
330
40
100
AcDbEntity
  8
0-1MH
  6
Continuous
 62
     7
100
AcDbCircle
 10
229.7740725857
 20
182.7283079267
 30
0.0
 40
1.435000000000004
100
AcDbArc
 50
270.5844022839
 51
329.4155977161
  0
LINE
  5
C8
330
40
100
AcDbEntity
  8
0-1MH
  6
Continuous
 62
     7
100
AcDbLine
 10
229.7887089646
 20
181.293382571
 30
0.0
 11
231.0094362069
 21
181.9981697729
 31
0.0
  0
ARC
  5
C9
330
40
100
AcDbEntity
  8
0-1MH
  6
Continuous
 62
     7
100
AcDbCircle
 10
229.7740725857
 20
182.7283079267
 30
0.0
 40
1.435000000000005
100
AcDbArc
 50
330.5844022839
 51
29.4155977161
  0
LINE
  5
CA
330
40
100
AcDbEntity
  8
0-1MH
  6
Continuous
 62
     7
100
AcDbLine
 10
231.0240725857
 20
182.0235207247
 30
0.0
 11
231.0240725857
 21
183.4330951286
 31
0.0
  0
ARC
  5
CB
330
40
100
AcDbEntity
  8
0-1MH
  6
Continuous
 62
     7
100
AcDbCircle
 10
229.7740725857
 20
182.7283079267
 30
0.0
 40
1.435000000000006
100
AcDbArc
 50
30.5844022839
 51
89.4155977161
  0
LINE
  5
CC
330
40
100
AcDbEntity
  8
0-1MH
  6
Continuous
 62
     7
100
AcDbLine
 10
231.0094362069
 20
183.4584460804
 30
0.0
 11
229.7887089646
 21
184.1632332824
 31
0.0
  0
ARC
  5
CD
330
40
100
AcDbEntity
  8
0-1MH
  6
Continuous
 62
     7
100
AcDbCircle
 10
229.7740725857
 20
182.7283079267
 30
0.0
 40
1.435000000000006
100
AcDbArc
 50
90.5844022839
 51
149.4155977161
  0
LINE
  5
CE
330
40
100
AcDbEntity
  8
0-1MH
  6
Continuous
 62
     7
100
AcDbLine
 10
229.7594362069
 20
184.1632332824
 30
0.0
 11
228.5387089646
 21
183.4584460804
 31
0.0
  0
CIRCLE
  5
CF
330
40
100
AcDbEntity
  8
0-1MH
  6
Continuous
 62
     7
100
AcDbCircle
 10
229.7740725857
 20
182.7283079267
 30
0.0
 40
4.0
  0
LINE
  5
D0
330
40
100
AcDbEntity
  8
0-1MH
  6
Continuous
 62
     7
100
AcDbLine
 10
228.5240725857
 20
183.4499957632
 30
0.0
 11
228.5387089646
 21
183.4584460804
 31
0.0
  0
LINE
  5
D1
330
40
100
AcDbEntity
  8
0-1MH
  6
Continuous
 62
     7
100
AcDbLine
 10
229.7594362069
 20
184.1632332824
 30
0.0
 11
229.7740725857
 21
184.1716835996
 31
0.0
  0
LINE
  5
D2
330
40
100
AcDbEntity
  8
0-1MH
  6
Continuous
 62
     7
100
AcDbLine
 10
229.7740725857
 20
184.1716835996
 30
0.0
 11
229.7887089646
 21
184.1632332824
 31
0.0
  0
LINE
  5
D3
330
40
100
AcDbEntity
  8
0-1MH
  6
Continuous
 62
     7
100
AcDbLine
 10
231.0094362069
 20
183.4584460804
 30
0.0
 11
231.0240725857
 21
183.4499957632
 31
0.0
  0
LINE
  5
D4
330
40
100
AcDbEntity
  8
0-1MH
  6
Continuous
 62
     7
100
AcDbLine
 10
231.0240725857
 20
183.4499957632
 30
0.0
 11
231.0240725857
 21
183.4330951286
 31
0.0
  0
LINE
  5
D5
330
40
100
AcDbEntity
  8
0-1MH
  6
Continuous
 62
     7
100
AcDbLine
 10
231.0240725857
 20
182.0235207247
 30
0.0
 11
231.0240725857
 21
182.0066200902
 31
0.0
  0
LINE
  5
D6
330
40
100
AcDbEntity
  8
0-1MH
  6
Continuous
 62
     7
100
AcDbLine
 10
231.0240725857
 20
182.0066200902
 30
0.0
 11
231.0094362069
 21
181.9981697729
 31
0.0
  0
LINE
  5
D7
330
40
100
AcDbEntity
  8
0-1MH
  6
Continuous
 62
     7
100
AcDbLine
 10
229.7887089646
 20
181.293382571
 30
0.0
 11
229.7740725857
 21
181.2849322537
 31
0.0
  0
LINE
  5
D8
330
40
100
AcDbEntity
  8
0-1MH
  6
Continuous
 62
     7
100
AcDbLine
 10
229.7740725857
 20
181.2849322537
 30
0.0
 11
229.7594362069
 21
181.293382571
 31
0.0
  0
LINE
  5
D9
330
40
100
AcDbEntity
  8
0-1MH
  6
Continuous
 62
     7
100
AcDbLine
 10
228.5387089646
 20
181.9981697729
 30
0.0
 11
228.5240725857
 21
182.0066200902
 31
0.0
  0
LINE
  5
DA
330
40
100
AcDbEntity
  8
0-1MH
  6
Continuous
 62
     7
100
AcDbLine
 10
228.5240725857
 20
182.0066200902
 30
0.0
 11
228.5240725857
 21
182.0235207247
 31
0.0
  0
LINE
  5
DB
330
40
100
AcDbEntity
  8
0-1MH
  6
Continuous
 62
     7
100
AcDbLine
 10
228.5240725857
 20
183.4330951286
 30
0.0
 11
228.5240725857
 21
183.4499957632
 31
0.0
  0
ARC
  5
DC
330
40
100
AcDbEntity
  8
0-1MH
  6
Continuous
 62
     7
100
AcDbCircle
 10
229.7740725857
 20
182.7283079267
 30
0.0
 40
1.250000000000002
100
AcDbArc
 50
180.0
 51
240.0
  0
ARC
  5
DD
330
40
100
AcDbEntity
  8
0-1MH
  6
Continuous
 62
     7
100
AcDbCircle
 10
229.7740725857
 20
182.7283079267
 30
0.0
 40
1.25
100
AcDbArc
 50
240.0
 51
300.0
  0
ARC
  5
DE
330
40
100
AcDbEntity
  8
0-1MH
  6
Continuous
 62
     7
100
AcDbCircle
 10
229.7740725857
 20
182.7283079267
 30
0.0
 40
1.250000000000001
100
AcDbArc
 50
300.0
 51
0.0
  0
ARC
  5
DF
330
40
100
AcDbEntity
  8
0-1MH
  6
Continuous
 62
     7
100
AcDbCircle
 10
229.7740725857
 20
182.7283079267
 30
0.0
 40
1.250000000000002
100
AcDbArc
 50
0.0
 51
60.0
  0
ARC
  5
E0
330
40
100
AcDbEntity
  8
0-1MH
  6
Continuous
 62
     7
100
AcDbCircle
 10
229.7740725857
 20
182.7283079267
 30
0.0
 40
1.25
100
AcDbArc
 50
60.0
 51
120.0
  0
ARC
  5
E1
330
40
100
AcDbEntity
  8
0-1MH
  6
Continuous
 62
     7
100
AcDbCircle
 10
229.7740725857
 20
182.7283079267
 30
0.0
 40
1.250000000000001
100
AcDbArc
 50
120.0
 51
180.0
  0
ARC
  5
E2
330
40
100
AcDbEntity
  8
0-1MH
  6
Continuous
 62
     7
100
AcDbCircle
 10
249.7740725857
 20
202.7283079267
 30
0.0
 40
1.435000000000005
100
AcDbArc
 50
240.5844022839
 51
299.4155977161
  0
LINE
  5
E3
330
40
100
AcDbEntity
  8
0-1MH
  6
Continuous
 62
     7
100
AcDbLine
 10
249.0692853838
 20
201.4783079267
 30
0.0
 11
250.4788597877
 21
201.4783079267
 31
0.0
  0
ARC
  5
E4
330
40
100
AcDbEntity
  8
0-1MH
  6
Continuous
 62
     7
100
AcDbCircle
 10
249.7740725857
 20
202.7283079267
 30
0.0
 40
1.435000000000003
100
AcDbArc
 50
300.5844022839
 51
359.4155977161
  0
LINE
  5
E5
330
40
100
AcDbEntity
  8
0-1MH
  6
Continuous
 62
     7
100
AcDbLine
 10
250.5042107395
 20
201.4929443055
 30
0.0
 11
251.2089979414
 21
202.7136715478
 31
0.0
  0
ARC
  5
E6
330
40
100
AcDbEntity
  8
0-1MH
  6
Continuous
 62
     7
100
AcDbCircle
 10
249.7740725857
 20
202.7283079267
 30
0.0
 40
1.435000000000004
100
AcDbArc
 50
0.5844022839
 51
59.4155977161
  0
LINE
  5
E7
330
40
100
AcDbEntity
  8
0-1MH
  6
Continuous
 62
     7
100
AcDbLine
 10
251.2089979414
 20
202.7429443055
 30
0.0
 11
250.5042107395
 21
203.9636715478
 31
0.0
  0
ARC
  5
E8
330
40
100
AcDbEntity
  8
0-1MH
  6
Continuous
 62
     7
100
AcDbCircle
 10
249.7740725857
 20
202.7283079267
 30
0.0
 40
1.435000000000005
100
AcDbArc
 50
60.5844022839
 51
119.4155977161
  0
LINE
  5
E9
330
40
100
AcDbEntity
  8
0-1MH
  6
Continuous
 62
     7
100
AcDbLine
 10
250.4788597877
 20
203.9783079267
 30
0.0
 11
249.0692853838
 21
203.9783079267
 31
0.0
  0
ARC
  5
EA
330
40
100
AcDbEntity
  8
0-1MH
  6
Continuous
 62
     7
100
AcDbCircle
 10
249.7740725857
 20
202.7283079267
 30
0.0
 40
1.435000000000006
100
AcDbArc
 50
120.5844022839
 51
179.4155977161
  0
LINE
  5
EB
330
40
100
AcDbEntity
  8
0-1MH
  6
Continuous
 62
     7
100
AcDbLine
 10
249.043934432
 20
203.9636715478
 30
0.0
 11
248.33914723
 21
202.7429443055
 31
0.0
  0
ARC
  5
EC
330
40
100
AcDbEntity
  8
0-1MH
  6
Continuous
 62
     7
100
AcDbCircle
 10
249.7740725857
 20
202.7283079267
 30
0.0
 40
1.435000000000006
100
AcDbArc
 50
180.5844022839
 51
239.4155977161
  0
LINE
  5
ED
330
40
100
AcDbEntity
  8
0-1MH
  6
Continuous
 62
     7
100
AcDbLine
 10
248.33914723
 20
202.7136715478
 30
0.0
 11
249.043934432
 21
201.4929443055
 31
0.0
  0
CIRCLE
  5
EE
330
40
100
AcDbEntity
  8
0-1MH
  6
Continuous
 62
     7
100
AcDbCircle
 10
249.7740725857
 20
202.7283079267
 30
0.0
 40
4.0
  0
LINE
  5
EF
330
40
100
AcDbEntity
  8
0-1MH
  6
Continuous
 62
     7
100
AcDbLine
 10
249.0523847493
 20
201.4783079267
 30
0.0
 11
249.043934432
 21
201.4929443055
 31
0.0
  0
LINE
  5
F0
330
40
100
AcDbEntity
  8
0-1MH
  6
Continuous
 62
     7
100
AcDbLine
 10
248.33914723
 20
202.7136715478
 30
0.0
 11
248.3306969128
 21
202.7283079267
 31
0.0
  0
LINE
  5
F1
330
40
100
AcDbEntity
  8
0-1MH
  6
Continuous
 62
     7
100
AcDbLine
 10
248.3306969128
 20
202.7283079267
 30
0.0
 11
248.33914723
 21
202.7429443055
 31
0.0
  0
LINE
  5
F2
330
40
100
AcDbEntity
  8
0-1MH
  6
Continuous
 62
     7
100
AcDbLine
 10
249.043934432
 20
203.9636715478
 30
0.0
 11
249.0523847493
 21
203.9783079267
 31
0.0
  0
LINE
  5
F3
330
40
100
AcDbEntity
  8
0-1MH
  6
Continuous
 62
     7
100
AcDbLine
 10
249.0523847493
 20
203.9783079267
 30
0.0
 11
249.0692853838
 21
203.9783079267
 31
0.0
  0
LINE
  5
F4
330
40
100
AcDbEntity
  8
0-1MH
  6
Continuous
 62
     7
100
AcDbLine
 10
250.4788597877
 20
203.9783079267
 30
0.0
 11
250.4957604222
 21
203.9783079267
 31
0.0
  0
LINE
  5
F5
330
40
100
AcDbEntity
  8
0-1MH
  6
Continuous
 62
     7
100
AcDbLine
 10
250.4957604222
 20
203.9783079267
 30
0.0
 11
250.5042107395
 21
203.9636715478
 31
0.0
  0
LINE
  5
F6
330
40
100
AcDbEntity
  8
0-1MH
  6
Continuous
 62
     7
100
AcDbLine
 10
251.2089979414
 20
202.7429443055
 30
0.0
 11
251.2174482587
 21
202.7283079267
 31
0.0
  0
LINE
  5
F7
330
40
100
AcDbEntity
  8
0-1MH
  6
Continuous
 62
     7
100
AcDbLine
 10
251.2174482587
 20
202.7283079267
 30
0.0
 11
251.2089979414
 21
202.7136715478
 31
0.0
  0
LINE
  5
F8
330
40
100
AcDbEntity
  8
0-1MH
  6
Continuous
 62
     7
100
AcDbLine
 10
250.5042107395
 20
201.4929443055
 30
0.0
 11
250.4957604222
 21
201.4783079267
 31
0.0
  0
LINE
  5
F9
330
40
100
AcDbEntity
  8
0-1MH
  6
Continuous
 62
     7
100
AcDbLine
 10
250.4957604222
 20
201.4783079267
 30
0.0
 11
250.4788597877
 21
201.4783079267
 31
0.0
  0
LINE
  5
FA
330
40
100
AcDbEntity
  8
0-1MH
  6
Continuous
 62
     7
100
AcDbLine
 10
249.0692853838
 20
201.4783079267
 30
0.0
 11
249.0523847493
 21
201.4783079267
 31
0.0
  0
ARC
  5
FB
330
40
100
AcDbEntity
  8
0-1MH
  6
Continuous
 62
     7
100
AcDbCircle
 10
249.7740725857
 20
202.7283079267
 30
0.0
 40
1.250000000000002
100
AcDbArc
 50
270.0
 51
330.0
  0
ARC
  5
FC
330
40
100
AcDbEntity
  8
0-1MH
  6
Continuous
 62
     7
100
AcDbCircle
 10
249.7740725857
 20
202.7283079267
 30
0.0
 40
1.25
100
AcDbArc
 50
330.0
 51
30.0
  0
ARC
  5
FD
330
40
100
AcDbEntity
  8
0-1MH
  6
Continuous
 62
     7
100
AcDbCircle
 10
249.7740725857
 20
202.7283079267
 30
0.0
 40
1.250000000000001
100
AcDbArc
 50
30.0
 51
90.0
  0
ARC
  5
FE
330
40
100
AcDbEntity
  8
0-1MH
  6
Continuous
 62
     7
100
AcDbCircle
 10
249.7740725857
 20
202.7283079267
 30
0.0
 40
1.250000000000002
100
AcDbArc
 50
90.0
 51
150.0
  0
ARC
  5
FF
330
40
100
AcDbEntity
  8
0-1MH
  6
Continuous
 62
     7
100
AcDbCircle
 10
249.7740725857
 20
202.7283079267
 30
0.0
 40
1.25
100
AcDbArc
 50
150.0
 51
210.0
  0
ARC
  5
100
330
40
100
AcDbEntity
  8
0-1MH
  6
Continuous
 62
     7
100
AcDbCircle
 10
249.7740725857
 20
202.7283079267
 30
0.0
 40
1.250000000000001
100
AcDbArc
 50
210.0
 51
270.0
  0
ENDBLK
  5
102
330
40
100
AcDbEntity
  8
0
100
AcDbBlockEnd
  0
BLOCK
  5
138
330
103
100
AcDbEntity
  8
0
100
AcDbBlockBegin
  2
SE1
 70
     0
 10
0.0
 20
0.0
 30
0.0
  3
SE1
  1

  0
LINE
  5
105
330
103
100
AcDbEntity
  8
0-1MH
  6
Continuous
 62
     7
100
AcDbLine
 10
255.7740725857
 20
377.2539049627
 30
0.0
 11
205.7740725857
 21
377.2539049627
 31
0.0
  0
LINE
  5
106
330
103
100
AcDbEntity
  8
0-1MH
  6
Continuous
 62
     7
100
AcDbLine
 10
255.7740725857
 20
375.2539049627
 30
0.0
 11
255.7740725857
 21
377.2539049627
 31
0.0
  0
LINE
  5
107
330
103
100
AcDbEntity
  8
0-1MH
  6
Continuous
 62
     7
100
AcDbLine
 10
255.7740725857
 20
304.2539049627
 30
0.0
 11
255.7740725857
 21
302.2539049627
 31
0.0
  0
LINE
  5
108
330
103
100
AcDbEntity
  8
0-1MH
  6
Continuous
 62
     7
100
AcDbLine
 10
255.7740725857
 20
375.2539049627
 30
0.0
 11
255.7740725857
 21
304.2539049627
 31
0.0
  0
LINE
  5
109
330
103
100
AcDbEntity
  8
0-1MH
  6
Continuous
 62
     7
100
AcDbLine
 10
205.7740725857
 20
375.2539049627
 30
0.0
 11
204.7740725857
 21
376.2539049627
 31
0.0
  0
LINE
  5
10A
330
103
100
AcDbEntity
  8
0-1MH
  6
Continuous
 62
     7
100
AcDbLine
 10
205.7740725857
 20
377.2539049627
 30
0.0
 11
204.7740725857
 21
376.2539049627
 31
0.0
  0
LINE
  5
10B
330
103
100
AcDbEntity
  8
0-1MH
  6
Continuous
 62
     7
100
AcDbLine
 10
205.7740725857
 20
375.2539049627
 30
0.0
 11
255.7740725857
 21
375.2539049627
 31
0.0
  0
LINE
  5
10C
330
103
100
AcDbEntity
  8
0-1MH
  6
Continuous
 62
     7
100
AcDbLine
 10
203.7740725857
 20
375.2539049627
 30
0.0
 11
204.7740725857
 21
376.2539049627
 31
0.0
  0
LINE
  5
10D
330
103
100
AcDbEntity
  8
0-1MH
  6
Continuous
 62
     7
100
AcDbLine
 10
203.7740725857
 20
375.2539049627
 30
0.0
 11
203.7740725857
 21
304.2539049627
 31
0.0
  0
LINE
  5
10E
330
103
100
AcDbEntity
  8
0-1MH
  6
Continuous
 62
     7
100
AcDbLine
 10
205.7740725857
 20
302.2539049627
 30
0.0
 11
255.7740725857
 21
302.2539049627
 31
0.0
  0
LINE
  5
10F
330
103
100
AcDbEntity
  8
0-1MH
  6
Continuous
 62
     7
100
AcDbLine
 10
205.7740725857
 20
302.2539049627
 30
0.0
 11
204.7740725857
 21
303.2539049627
 31
0.0
  0
LINE
  5
110
330
103
100
AcDbEntity
  8
0-1MH
  6
Continuous
 62
     7
100
AcDbLine
 10
205.7740725857
 20
304.2539049627
 30
0.0
 11
204.7740725857
 21
303.2539049627
 31
0.0
  0
LINE
  5
111
330
103
100
AcDbEntity
  8
0-1MH
  6
Continuous
 62
     7
100
AcDbLine
 10
205.7740725857
 20
304.2539049627
 30
0.0
 11
255.7740725857
 21
304.2539049627
 31
0.0
  0
CIRCLE
  5
112
330
103
100
AcDbEntity
  8
0-1MH
  6
Continuous
 62
     7
100
AcDbCircle
 10
242.7740725857
 20
309.7539049627
 30
0.0
 40
2.6
  0
CIRCLE
  5
113
330
103
100
AcDbEntity
  8
0-1MH
  6
Continuous
 62
     7
100
AcDbCircle
 10
216.7740725857
 20
369.7539049627
 30
0.0
 40
2.6
  0
CIRCLE
  5
114
330
103
100
AcDbEntity
  8
0-1MH
  6
Continuous
 62
     7
100
AcDbCircle
 10
216.7740725857
 20
309.7539049627
 30
0.0
 40
2.6
  0
CIRCLE
  5
115
330
103
100
AcDbEntity
  8
0-1MH
  6
Continuous
 62
     7
100
AcDbCircle
 10
242.7740725857
 20
369.7539049627
 30
0.0
 40
2.6
  0
LINE
  5
116
330
103
100
AcDbEntity
  8
0-1MH
  6
Continuous
 62
     7
100
AcDbLine
 10
205.7740725857
 20
375.2539049627
 30
0.0
 11
205.7740725857
 21
304.2539049627
 31
0.0
  0
LINE
  5
117
330
103
100
AcDbEntity
  8
0-1MH
  6
Continuous
 62
     7
100
AcDbLine
 10
204.7740725857
 20
303.2539049627
 30
0.0
 11
203.7740725857
 21
304.2539049627
 31
0.0
  0
CIRCLE
  5
118
330
103
100
AcDbEntity
  8
0-1MH
  6
Continuous
 62
     7
100
AcDbCircle
 10
242.7740725857
 20
309.7539049627
 30
0.0
 40
2.1
  0
CIRCLE
  5
119
330
103
100
AcDbEntity
  8
0-1MH
  6
Continuous
 62
     7
100
AcDbCircle
 10
216.7740725857
 20
369.7539049627
 30
0.0
 40
2.1
  0
CIRCLE
  5
11A
330
103
100
AcDbEntity
  8
0-1MH
  6
Continuous
 62
     7
100
AcDbCircle
 10
216.7740725857
 20
309.7539049627
 30
0.0
 40
2.1
  0
CIRCLE
  5
11B
330
103
100
AcDbEntity
  8
0-1MH
  6
Continuous
 62
     7
100
AcDbCircle
 10
242.7740725857
 20
369.7539049627
 30
0.0
 40
2.1
  0
LINE
  5
11C
330
103
100
AcDbEntity
  8
0-1MH
  6
Continuous
 62
     7
100
AcDbLine
 10
205.2740725857
 20
376.7539049627
 30
0.0
 11
204.7740727238
 21
376.7539049627
 31
0.0
  0
LINE
  5
11D
330
103
100
AcDbEntity
  8
0-1MH
  6
Continuous
 62
     7
100
AcDbLine
 10
265.7740725857
 20
302.7539049627
 30
0.0
 11
255.7740725857
 21
302.7539049627
 31
0.0
  0
LINE
  5
11E
330
103
100
AcDbEntity
  8
0-1MH
  6
Continuous
 62
     7
100
AcDbLine
 10
255.7740725857
 20
304.7539049627
 30
0.0
 11
265.7740725857
 21
304.7539049627
 31
0.0
  0
LINE
  5
11F
330
103
100
AcDbEntity
  8
0-1MH
  6
Continuous
 62
     7
100
AcDbLine
 10
265.7740725857
 20
376.7539049627
 30
0.0
 11
255.7740725857
 21
376.7539049627
 31
0.0
  0
LINE
  5
120
330
103
100
AcDbEntity
  8
0-1MH
  6
Continuous
 62
     7
100
AcDbLine
 10
255.7740725857
 20
374.7539049627
 30
0.0
 11
265.7740725857
 21
374.7539049627
 31
0.0
  0
LINE
  5
121
330
103
100
AcDbEntity
  8
0-1MH
  6
Continuous
 62
     7
100
AcDbLine
 10
266.7740725857
 20
303.7539049627
 30
0.0
 11
265.7740725857
 21
304.7539049627
 31
0.0
  0
LINE
  5
122
330
103
100
AcDbEntity
  8
0-1MH
  6
Continuous
 62
     7
100
AcDbLine
 10
267.7740725857
 20
374.7539049627
 30
0.0
 11
267.7740725857
 21
304.7539049627
 31
0.0
  0
LINE
  5
123
330
103
100
AcDbEntity
  8
0-1MH
  6
Continuous
 62
     7
100
AcDbLine
 10
266.7740725857
 20
303.7539049627
 30
0.0
 11
265.7740725857
 21
302.7539049627
 31
0.0
  0
LINE
  5
124
330
103
100
AcDbEntity
  8
0-1MH
  6
Continuous
 62
     7
100
AcDbLine
 10
267.7740725857
 20
374.7539049627
 30
0.0
 11
266.7740725857
 21
375.7539049627
 31
0.0
  0
LINE
  5
125
330
103
100
AcDbEntity
  8
0-1MH
  6
Continuous
 62
     7
100
AcDbLine
 10
266.7740725857
 20
375.7539049627
 30
0.0
 11
265.7740725857
 21
374.7539049627
 31
0.0
  0
LINE
  5
126
330
103
100
AcDbEntity
  8
0-1MH
  6
Continuous
 62
     7
100
AcDbLine
 10
265.7740725857
 20
374.7539049627
 30
0.0
 11
265.7740725857
 21
304.7539049627
 31
0.0
  0
LINE
  5
127
330
103
100
AcDbEntity
  8
0-1MH
  6
Continuous
 62
     7
100
AcDbLine
 10
266.7740725857
 20
303.7539049627
 30
0.0
 11
267.7740725857
 21
304.7539049627
 31
0.0
  0
LINE
  5
128
330
103
100
AcDbEntity
  8
0-1MH
  6
Continuous
 62
     7
100
AcDbLine
 10
265.7740725857
 20
376.7539049627
 30
0.0
 11
266.7740725857
 21
375.7539049627
 31
0.0
  0
LINE
  5
129
330
103
100
AcDbEntity
  8
0-1MH
  6
Continuous
 62
     7
100
AcDbLine
 10
204.7740725857
 20
302.7539049627
 30
0.0
 11
205.2740725857
 21
302.7539049627
 31
0.0
  0
LINE
  5
12A
330
103
100
AcDbEntity
  8
0-1MH
  6
Continuous
 62
     7
100
AcDbLine
 10
224.7740725857
 20
409.4539049627
 30
0.0
 11
234.7740725857
 21
409.4539049627
 31
0.0
  0
LINE
  5
12B
330
103
100
AcDbEntity
  8
0-1MH
  6
Continuous
 62
     7
100
AcDbLine
 10
225.5740725857
 20
410.2539049627
 30
0.0
 11
233.9740725857
 21
410.2539049627
 31
0.0
  0
LINE
  5
12C
330
103
100
AcDbEntity
  8
0-1MH
  6
Continuous
 62
     7
100
AcDbLine
 10
222.7740725857
 20
383.2539049627
 30
0.0
 11
236.7740725857
 21
383.2539049627
 31
0.0
  0
LINE
  5
12D
330
103
100
AcDbEntity
  8
0-1MH
  6
Continuous
 62
     7
100
AcDbLine
 10
223.0420217782
 20
384.2539049627
 30
0.0
 11
236.5061233933
 21
384.2539049627
 31
0.0
  0
LINE
  5
12E
330
103
100
AcDbEntity
  8
0-1MH
  6
Continuous
 62
     7
100
AcDbLine
 10
204.7740727238
 20
376.7539049627
 30
0.0
 11
204.7740727238
 21
376.2539048247
 31
0.0
  0
LINE
  5
12F
330
103
100
AcDbEntity
  8
0-1MH
  6
Continuous
 62
     7
100
AcDbLine
 10
204.7740725857
 20
303.2539049627
 30
0.0
 11
204.7740725857
 21
302.7539049627
 31
0.0
  0
LINE
  5
130
330
103
100
AcDbEntity
  8
0-1MH
  6
Continuous
 62
     7
100
AcDbLine
 10
224.7740725857
 20
409.4539049627
 30
0.0
 11
224.7740725857
 21
384.2539049627
 31
0.0
  0
LINE
  5
131
330
103
100
AcDbEntity
  8
0-1MH
  6
Continuous
 62
     7
100
AcDbLine
 10
234.7740725857
 20
384.2539049627
 30
0.0
 11
234.7740725857
 21
409.4539049627
 31
0.0
  0
LINE
  5
132
330
103
100
AcDbEntity
  8
0-1MH
  6
Continuous
 62
     7
100
AcDbLine
 10
234.7740725857
 20
409.4539049627
 30
0.0
 11
233.9740725857
 21
410.2539049627
 31
0.0
  0
LINE
  5
133
330
103
100
AcDbEntity
  8
0-1MH
  6
Continuous
 62
     7
100
AcDbLine
 10
225.5740725857
 20
410.2539049627
 30
0.0
 11
224.7740725857
 21
409.4539049627
 31
0.0
  0
LINE
  5
134
330
103
100
AcDbEntity
  8
0-1MH
  6
Continuous
 62
     7
100
AcDbLine
 10
222.7740725857
 20
383.2539049627
 30
0.0
 11
222.7740725857
 21
377.2539049627
 31
0.0
  0
LINE
  5
135
330
103
100
AcDbEntity
  8
0-1MH
  6
Continuous
 62
     7
100
AcDbLine
 10
236.7740725857
 20
377.2539049627
 30
0.0
 11
236.7740725857
 21
383.2539049627
 31
0.0
  0
LINE
  5
136
330
103
100
AcDbEntity
  8
0-1MH
  6
Continuous
 62
     7
100
AcDbLine
 10
236.7740725857
 20
383.2539049627
 30
0.0
 11
236.5061233933
 21
384.2539049627
 31
0.0
  0
LINE
  5
137
330
103
100
AcDbEntity
  8
0-1MH
  6
Continuous
 62
     7
100
AcDbLine
 10
223.0420217782
 20
384.2539049627
 30
0.0
 11
222.7740725857
 21
383.2539049627
 31
0.0
  0
ENDBLK
  5
139
330
103
100
AcDbEntity
  8
0
100
AcDbBlockEnd
  0
BLOCK
  5
173
330
13A
100
AcDbEntity
  8
0
100
AcDbBlockBegin
  2
SE2
 70
     0
 10
0.0
 20
0.0
 30
0.0
  3
SE2
  1

  0
LINE
  5
13C
330
13A
100
AcDbEntity
  8
0-1MH
  6
Continuous
 62
     7
100
AcDbLine
 10
255.7740725857
 20
61.7208101353
 30
0.0
 11
205.7740725857
 21
61.7208101353
 31
0.0
  0
LINE
  5
13D
330
13A
100
AcDbEntity
  8
0-1MH
  6
Continuous
 62
     7
100
AcDbLine
 10
203.7740725857
 20
63.7208101353
 30
0.0
 11
204.7740725857
 21
62.7208101353
 31
0.0
  0
LINE
  5
13E
330
13A
100
AcDbEntity
  8
0-1MH
  6
Continuous
 62
     7
100
AcDbLine
 10
205.7740725857
 20
61.7208101353
 30
0.0
 11
204.7740725857
 21
62.7208101353
 31
0.0
  0
LINE
  5
13F
330
13A
100
AcDbEntity
  8
0-1MH
  6
Continuous
 62
     7
100
AcDbLine
 10
255.7740725857
 20
63.7208101353
 30
0.0
 11
255.7740725857
 21
61.7208101353
 31
0.0
  0
LINE
  5
140
330
13A
100
AcDbEntity
  8
0-1MH
  6
Continuous
 62
     7
100
AcDbLine
 10
204.7740725857
 20
62.7208101353
 30
0.0
 11
205.7740725857
 21
63.7208101353
 31
0.0
  0
LINE
  5
141
330
13A
100
AcDbEntity
  8
0-1MH
  6
Continuous
 62
     7
100
AcDbLine
 10
205.7740725857
 20
63.7208101353
 30
0.0
 11
255.7740725857
 21
63.7208101353
 31
0.0
  0
LINE
  5
142
330
13A
100
AcDbEntity
  8
0-1MH
  6
Continuous
 62
     7
100
AcDbLine
 10
255.7740725857
 20
134.7208101353
 30
0.0
 11
255.7740725857
 21
63.7208101353
 31
0.0
  0
LINE
  5
143
330
13A
100
AcDbEntity
  8
0-1MH
  6
Continuous
 62
     7
100
AcDbLine
 10
255.7740725857
 20
134.7208101353
 30
0.0
 11
255.7740725857
 21
136.7208101353
 31
0.0
  0
LINE
  5
144
330
13A
100
AcDbEntity
  8
0-1MH
  6
Continuous
 62
     7
100
AcDbLine
 10
203.7740725857
 20
134.7208101353
 30
0.0
 11
203.7740725857
 21
63.7208101353
 31
0.0
  0
LINE
  5
145
330
13A
100
AcDbEntity
  8
0-1MH
  6
Continuous
 62
     7
100
AcDbLine
 10
203.7740725857
 20
134.7208101353
 30
0.0
 11
204.7740725857
 21
135.7208101353
 31
0.0
  0
LINE
  5
146
330
13A
100
AcDbEntity
  8
0-1MH
  6
Continuous
 62
     7
100
AcDbLine
 10
205.7740725857
 20
134.7208101353
 30
0.0
 11
204.7740725857
 21
135.7208101353
 31
0.0
  0
LINE
  5
147
330
13A
100
AcDbEntity
  8
0-1MH
  6
Continuous
 62
     7
100
AcDbLine
 10
205.7740725857
 20
134.7208101353
 30
0.0
 11
205.7740725857
 21
63.7208101353
 31
0.0
  0
CIRCLE
  5
148
330
13A
100
AcDbEntity
  8
0-1MH
  6
Continuous
 62
     7
100
AcDbCircle
 10
242.7740725857
 20
69.2208101353
 30
0.0
 40
2.6
  0
CIRCLE
  5
149
330
13A
100
AcDbEntity
  8
0-1MH
  6
Continuous
 62
     7
100
AcDbCircle
 10
216.7740725857
 20
129.2208101353
 30
0.0
 40
2.6
  0
CIRCLE
  5
14A
330
13A
100
AcDbEntity
  8
0-1MH
  6
Continuous
 62
     7
100
AcDbCircle
 10
216.7740725857
 20
69.2208101353
 30
0.0
 40
2.6
  0
CIRCLE
  5
14B
330
13A
100
AcDbEntity
  8
0-1MH
  6
Continuous
 62
     7
100
AcDbCircle
 10
242.7740725857
 20
129.2208101353
 30
0.0
 40
2.6
  0
LINE
  5
14C
330
13A
100
AcDbEntity
  8
0-1MH
  6
Continuous
 62
     7
100
AcDbLine
 10
205.7740725857
 20
134.7208101353
 30
0.0
 11
255.7740725857
 21
134.7208101353
 31
0.0
  0
LINE
  5
14D
330
13A
100
AcDbEntity
  8
0-1MH
  6
Continuous
 62
     7
100
AcDbLine
 10
205.7740725857
 20
136.7208101353
 30
0.0
 11
204.7740725857
 21
135.7208101353
 31
0.0
  0
LINE
  5
14E
330
13A
100
AcDbEntity
  8
0-1MH
  6
Continuous
 62
     7
100
AcDbLine
 10
205.7740725857
 20
136.7208101353
 30
0.0
 11
255.7740725857
 21
136.7208101353
 31
0.0
  0
CIRCLE
  5
14F
330
13A
100
AcDbEntity
  8
0-1MH
  6
Continuous
 62
     7
100
AcDbCircle
 10
242.7740725857
 20
69.2208101353
 30
0.0
 40
2.1
  0
CIRCLE
  5
150
330
13A
100
AcDbEntity
  8
0-1MH
  6
Continuous
 62
     7
100
AcDbCircle
 10
216.7740725857
 20
129.2208101353
 30
0.0
 40
2.1
  0
CIRCLE
  5
151
330
13A
100
AcDbEntity
  8
0-1MH
  6
Continuous
 62
     7
100
AcDbCircle
 10
216.7740725857
 20
69.2208101353
 30
0.0
 40
2.1
  0
CIRCLE
  5
152
330
13A
100
AcDbEntity
  8
0-1MH
  6
Continuous
 62
     7
100
AcDbCircle
 10
242.7740725857
 20
129.2208101353
 30
0.0
 40
2.1
  0
LINE
  5
153
330
13A
100
AcDbEntity
  8
0-1MH
  6
Continuous
 62
     7
100
AcDbLine
 10
205.2740725857
 20
62.2208101353
 30
0.0
 11
204.7740727238
 21
62.2208101353
 31
0.0
  0
LINE
  5
154
330
13A
100
AcDbEntity
  8
0-1MH
  6
Continuous
 62
     7
100
AcDbLine
 10
265.7740725857
 20
64.2208101353
 30
0.0
 11
255.7740725857
 21
64.2208101353
 31
0.0
  0
LINE
  5
155
330
13A
100
AcDbEntity
  8
0-1MH
  6
Continuous
 62
     7
100
AcDbLine
 10
255.7740725857
 20
62.2208101353
 30
0.0
 11
265.7740725857
 21
62.2208101353
 31
0.0
  0
LINE
  5
156
330
13A
100
AcDbEntity
  8
0-1MH
  6
Continuous
 62
     7
100
AcDbLine
 10
265.7740725857
 20
62.2208101353
 30
0.0
 11
266.7740725857
 21
63.2208101353
 31
0.0
  0
LINE
  5
157
330
13A
100
AcDbEntity
  8
0-1MH
  6
Continuous
 62
     7
100
AcDbLine
 10
266.7740725857
 20
63.2208101353
 30
0.0
 11
265.7740725857
 21
64.2208101353
 31
0.0
  0
LINE
  5
158
330
13A
100
AcDbEntity
  8
0-1MH
  6
Continuous
 62
     7
100
AcDbLine
 10
265.7740725857
 20
136.2208101353
 30
0.0
 11
255.7740725857
 21
136.2208101353
 31
0.0
  0
LINE
  5
159
330
13A
100
AcDbEntity
  8
0-1MH
  6
Continuous
 62
     7
100
AcDbLine
 10
255.7740725857
 20
134.2208101353
 30
0.0
 11
265.7740725857
 21
134.2208101353
 31
0.0
  0
LINE
  5
15A
330
13A
100
AcDbEntity
  8
0-1MH
  6
Continuous
 62
     7
100
AcDbLine
 10
265.7740725857
 20
134.2208101353
 30
0.0
 11
266.7740725857
 21
135.2208101353
 31
0.0
  0
LINE
  5
15B
330
13A
100
AcDbEntity
  8
0-1MH
  6
Continuous
 62
     7
100
AcDbLine
 10
266.7740725857
 20
135.2208101353
 30
0.0
 11
265.7740725857
 21
136.2208101353
 31
0.0
  0
LINE
  5
15C
330
13A
100
AcDbEntity
  8
0-1MH
  6
Continuous
 62
     7
100
AcDbLine
 10
267.7740725857
 20
134.2208101353
 30
0.0
 11
267.7740725857
 21
64.2208101353
 31
0.0
  0
LINE
  5
15D
330
13A
100
AcDbEntity
  8
0-1MH
  6
Continuous
 62
     7
100
AcDbLine
 10
265.7740725857
 20
134.2208101353
 30
0.0
 11
265.7740725857
 21
64.2208101353
 31
0.0
  0
LINE
  5
15E
330
13A
100
AcDbEntity
  8
0-1MH
  6
Continuous
 62
     7
100
AcDbLine
 10
266.7740725857
 20
135.2208101353
 30
0.0
 11
267.7740725857
 21
134.2208101353
 31
0.0
  0
LINE
  5
15F
330
13A
100
AcDbEntity
  8
0-1MH
  6
Continuous
 62
     7
100
AcDbLine
 10
267.7740725857
 20
64.2208101353
 30
0.0
 11
266.7740725857
 21
63.2208101353
 31
0.0
  0
LINE
  5
160
330
13A
100
AcDbEntity
  8
0-1MH
  6
Continuous
 62
     7
100
AcDbLine
 10
204.7740725857
 20
136.2208101353
 30
0.0
 11
205.2740725857
 21
136.2208101353
 31
0.0
  0
LINE
  5
161
330
13A
100
AcDbEntity
  8
0-1MH
  6
Continuous
 62
     7
100
AcDbLine
 10
224.7740725857
 20
29.5208101353
 30
0.0
 11
234.7740725857
 21
29.5208101353
 31
0.0
  0
LINE
  5
162
330
13A
100
AcDbEntity
  8
0-1MH
  6
Continuous
 62
     7
100
AcDbLine
 10
231.2740725857
 20
49.7208101353
 30
0.0
 11
231.2740725857
 21
32.7208101353
 31
0.0
  0
LINE
  5
163
330
13A
100
AcDbEntity
  8
0-1MH
  6
Continuous
 62
     7
100
AcDbLine
 10
225.5740725857
 20
28.7208101353
 30
0.0
 11
233.9740725857
 21
28.7208101353
 31
0.0
  0
ARC
  5
164
330
13A
100
AcDbEntity
  8
0-1MH
  6
Continuous
 62
     7
100
AcDbCircle
 10
229.7740725857
 20
32.7208101353
 30
0.0
 40
1.5
100
AcDbArc
 50
179.9999999998
 51
0.0
  0
LINE
  5
165
330
13A
100
AcDbEntity
  8
0-1MH
  6
Continuous
 62
     7
100
AcDbLine
 10
228.2740725857
 20
49.7208101353
 30
0.0
 11
228.2740725857
 21
32.7208101353
 31
0.0
  0
ARC
  5
166
330
13A
100
AcDbEntity
  8
0-1MH
  6
Continuous
 62
     7
100
AcDbCircle
 10
229.7740725857
 20
49.7208101353
 30
0.0
 40
1.5
100
AcDbArc
 50
0.0
 51
180.0000000002
  0
LINE
  5
167
330
13A
100
AcDbEntity
  8
0-1MH
  6
Continuous
 62
     7
100
AcDbLine
 10
222.7740725857
 20
55.7208101353
 30
0.0
 11
236.7740725857
 21
55.7208101353
 31
0.0
  0
LINE
  5
168
330
13A
100
AcDbEntity
  8
0-1MH
  6
Continuous
 62
     7
100
AcDbLine
 10
223.0420217782
 20
54.7208101353
 30
0.0
 11
236.5061233933
 21
54.7208101353
 31
0.0
  0
LINE
  5
169
330
13A
100
AcDbEntity
  8
0-1MH
  6
Continuous
 62
     7
100
AcDbLine
 10
204.7740727238
 20
62.7208102734
 30
0.0
 11
204.7740727238
 21
62.2208101353
 31
0.0
  0
LINE
  5
16A
330
13A
100
AcDbEntity
  8
0-1MH
  6
Continuous
 62
     7
100
AcDbLine
 10
204.7740725857
 20
136.2208101353
 30
0.0
 11
204.7740725857
 21
135.7208101353
 31
0.0
  0
LINE
  5
16B
330
13A
100
AcDbEntity
  8
0-1MH
  6
Continuous
 62
     7
100
AcDbLine
 10
234.7740725857
 20
29.5208101353
 30
0.0
 11
234.7740725857
 21
54.7208101353
 31
0.0
  0
LINE
  5
16C
330
13A
100
AcDbEntity
  8
0-1MH
  6
Continuous
 62
     7
100
AcDbLine
 10
224.7740725857
 20
54.7208101353
 30
0.0
 11
224.7740725857
 21
29.5208101353
 31
0.0
  0
LINE
  5
16D
330
13A
100
AcDbEntity
  8
0-1MH
  6
Continuous
 62
     7
100
AcDbLine
 10
224.7740725857
 20
29.5208101353
 30
0.0
 11
225.5740725857
 21
28.7208101353
 31
0.0
  0
LINE
  5
16E
330
13A
100
AcDbEntity
  8
0-1MH
  6
Continuous
 62
     7
100
AcDbLine
 10
233.9740725857
 20
28.7208101353
 30
0.0
 11
234.7740725857
 21
29.5208101353
 31
0.0
  0
LINE
  5
16F
330
13A
100
AcDbEntity
  8
0-1MH
  6
Continuous
 62
     7
100
AcDbLine
 10
236.7740725857
 20
55.7208101353
 30
0.0
 11
236.7740725857
 21
61.7208101353
 31
0.0
  0
LINE
  5
170
330
13A
100
AcDbEntity
  8
0-1MH
  6
Continuous
 62
     7
100
AcDbLine
 10
222.7740725857
 20
61.7208101353
 30
0.0
 11
222.7740725857
 21
55.7208101353
 31
0.0
  0
LINE
  5
171
330
13A
100
AcDbEntity
  8
0-1MH
  6
Continuous
 62
     7
100
AcDbLine
 10
222.7740725857
 20
55.7208101353
 30
0.0
 11
223.0420217782
 21
54.7208101353
 31
0.0
  0
LINE
  5
172
330
13A
100
AcDbEntity
  8
0-1MH
  6
Continuous
 62
     7
100
AcDbLine
 10
236.5061233933
 20
54.7208101353
 30
0.0
 11
236.7740725857
 21
55.7208101353
 31
0.0
  0
ENDBLK
  5
174
330
13A
100
AcDbEntity
  8
0
100
AcDbBlockEnd
  0
BLOCK
  5
1B4
330
175
100
AcDbEntity
  8
0
100
AcDbBlockBegin
  2
SE3
 70
     0
 10
0.0
 20
0.0
 30
0.0
  3
SE3
  1

  0
LINE
  5
177
330
175
100
AcDbEntity
  8
0-1MH
  6
Continuous
 62
     7
100
AcDbLine
 10
384.4325971516
 20
255.7283079267
 30
0.0
 11
384.4325971516
 21
217.7283079267
 31
0.0
  0
LINE
  5
178
330
175
100
AcDbEntity
  8
0-1MH
  6
Continuous
 62
     7
100
AcDbLine
 10
384.4325971516
 20
187.7283079267
 30
0.0
 11
384.4325971516
 21
174.7283079267
 31
0.0
  0
LINE
  5
179
330
175
100
AcDbEntity
  8
0-1MH
  6
Continuous
 62
     7
100
AcDbLine
 10
384.4325971516
 20
187.7283079267
 30
0.0
 11
382.4325971516
 21
187.7283079267
 31
0.0
  0
LINE
  5
17A
330
175
100
AcDbEntity
  8
0-1MH
  6
Continuous
 62
     7
100
AcDbLine
 10
382.4325971516
 20
187.7283079267
 30
0.0
 11
380.8325971516
 21
187.7283079267
 31
0.0
  0
LINE
  5
17B
330
175
100
AcDbEntity
  8
0-1MH
  6
Continuous
 62
     7
100
AcDbLine
 10
380.8325971516
 20
217.7283079267
 30
0.0
 11
380.8325971516
 21
202.7283079267
 31
0.0
  0
LINE
  5
17C
330
175
100
AcDbEntity
  8
0-1MH
  6
Continuous
 62
     7
100
AcDbLine
 10
380.8325971516
 20
202.7283079267
 30
0.0
 11
380.8325971516
 21
187.7283079267
 31
0.0
  0
LINE
  5
17D
330
175
100
AcDbEntity
  8
0-1MH
  6
Continuous
 62
     7
100
AcDbLine
 10
380.8325971516
 20
217.7283079267
 30
0.0
 11
382.4325971516
 21
217.7283079267
 31
0.0
  0
LINE
  5
17E
330
175
100
AcDbEntity
  8
0-1MH
  6
Continuous
 62
     7
100
AcDbLine
 10
382.4325971516
 20
217.7283079267
 30
0.0
 11
384.4325971516
 21
217.7283079267
 31
0.0
  0
LINE
  5
17F
330
175
100
AcDbEntity
  8
0-1MH
  6
Continuous
 62
     7
100
AcDbLine
 10
382.4325971516
 20
255.7283079267
 30
0.0
 11
383.4325971516
 21
256.7283079267
 31
0.0
  0
LINE
  5
180
330
175
100
AcDbEntity
  8
0-1MH
  6
Continuous
 62
     7
100
AcDbLine
 10
384.4325971516
 20
255.7283079267
 30
0.0
 11
383.4325971516
 21
256.7283079267
 31
0.0
  0
LINE
  5
181
330
175
100
AcDbEntity
  8
0-1MH
  6
Continuous
 62
     7
100
AcDbLine
 10
382.4325971516
 20
255.7283079267
 30
0.0
 11
382.4325971516
 21
217.7283079267
 31
0.0
  0
LINE
  5
182
330
175
100
AcDbEntity
  8
0-1MH
  6
Continuous
 62
     7
100
AcDbLine
 10
383.4325971516
 20
256.7283079267
 30
0.0
 11
382.4325971516
 21
257.7283079267
 31
0.0
  0
LINE
  5
183
330
175
100
AcDbEntity
  8
0-1MH
  6
Continuous
 62
     7
100
AcDbLine
 10
382.4325971516
 20
172.7283079267
 30
0.0
 11
383.4325971516
 21
173.7283079267
 31
0.0
  0
LINE
  5
184
330
175
100
AcDbEntity
  8
0-1MH
  6
Continuous
 62
     7
100
AcDbLine
 10
384.4325971516
 20
174.7283079267
 30
0.0
 11
383.4325971516
 21
173.7283079267
 31
0.0
  0
LINE
  5
185
330
175
100
AcDbEntity
  8
0-1MH
  6
Continuous
 62
     7
100
AcDbLine
 10
382.4325971516
 20
174.7283079267
 30
0.0
 11
383.4325971516
 21
173.7283079267
 31
0.0
  0
LINE
  5
186
330
175
100
AcDbEntity
  8
0-1MH
  6
Continuous
 62
     7
100
AcDbLine
 10
382.4325971516
 20
187.7283079267
 30
0.0
 11
382.4325971516
 21
174.7283079267
 31
0.0
  0
LINE
  5
187
330
175
100
AcDbEntity
  8
0-1MH
  6
Continuous
 62
     7
100
AcDbLine
 10
311.4325971516
 20
187.7283079267
 30
0.0
 11
311.4325971516
 21
174.7283079267
 31
0.0
  0
LINE
  5
188
330
175
100
AcDbEntity
  8
0-1MH
  6
Continuous
 62
     7
100
AcDbLine
 10
313.0325971516
 20
187.7283079267
 30
0.0
 11
311.4325971516
 21
187.7283079267
 31
0.0
  0
LINE
  5
189
330
175
100
AcDbEntity
  8
0-1MH
  6
Continuous
 62
     7
100
AcDbLine
 10
313.0325971516
 20
202.7283079267
 30
0.0
 11
313.0325971516
 21
217.7283079267
 31
0.0
  0
LINE
  5
18A
330
175
100
AcDbEntity
  8
0-1MH
  6
Continuous
 62
     7
100
AcDbLine
 10
311.4325971516
 20
217.7283079267
 30
0.0
 11
313.0325971516
 21
217.7283079267
 31
0.0
  0
LINE
  5
18B
330
175
100
AcDbEntity
  8
0-1MH
  6
Continuous
 62
     7
100
AcDbLine
 10
311.4325971516
 20
255.7283079267
 30
0.0
 11
311.4325971516
 21
217.7283079267
 31
0.0
  0
LINE
  5
18C
330
175
100
AcDbEntity
  8
0-1MH
  6
Continuous
 62
     7
100
AcDbLine
 10
311.4325971516
 20
255.7283079267
 30
0.0
 11
382.4325971516
 21
255.7283079267
 31
0.0
  0
LINE
  5
18D
330
175
100
AcDbEntity
  8
0-1MH
  6
Continuous
 62
     7
100
AcDbLine
 10
382.4325971516
 20
174.7283079267
 30
0.0
 11
311.4325971516
 21
174.7283079267
 31
0.0
  0
LINE
  5
18E
330
175
100
AcDbEntity
  8
0-1MH
  6
Continuous
 62
     7
100
AcDbLine
 10
311.4325971516
 20
255.7283079267
 30
0.0
 11
310.4325971516
 21
256.7283079267
 31
0.0
  0
LINE
  5
18F
330
175
100
AcDbEntity
  8
0-1MH
  6
Continuous
 62
     7
100
AcDbLine
 10
311.4325971516
 20
257.7283079267
 30
0.0
 11
310.4325971516
 21
256.7283079267
 31
0.0
  0
LINE
  5
190
330
175
100
AcDbEntity
  8
0-1MH
  6
Continuous
 62
     7
100
AcDbLine
 10
311.4325971516
 20
257.7283079267
 30
0.0
 11
382.4325971516
 21
257.7283079267
 31
0.0
  0
LINE
  5
191
330
175
100
AcDbEntity
  8
0-1MH
  6
Continuous
 62
     7
100
AcDbLine
 10
309.4325971516
 20
255.7283079267
 30
0.0
 11
310.4325971516
 21
256.7283079267
 31
0.0
  0
LINE
  5
192
330
175
100
AcDbEntity
  8
0-1MH
  6
Continuous
 62
     7
100
AcDbLine
 10
309.4325971516
 20
217.7283079267
 30
0.0
 11
309.4325971516
 21
255.7283079267
 31
0.0
  0
LINE
  5
193
330
175
100
AcDbEntity
  8
0-1MH
  6
Continuous
 62
     7
100
AcDbLine
 10
309.4325971516
 20
174.7283079267
 30
0.0
 11
309.4325971516
 21
187.7283079267
 31
0.0
  0
LINE
  5
194
330
175
100
AcDbEntity
  8
0-1MH
  6
Continuous
 62
     7
100
AcDbLine
 10
309.4325971516
 20
174.7283079267
 30
0.0
 11
310.4325971516
 21
173.7283079267
 31
0.0
  0
LINE
  5
195
330
175
100
AcDbEntity
  8
0-1MH
  6
Continuous
 62
     7
100
AcDbLine
 10
311.4325971516
 20
172.7283079267
 30
0.0
 11
310.4325971516
 21
173.7283079267
 31
0.0
  0
LINE
  5
196
330
175
100
AcDbEntity
  8
0-1MH
  6
Continuous
 62
     7
100
AcDbLine
 10
382.4325971516
 20
172.7283079267
 30
0.0
 11
311.4325971516
 21
172.7283079267
 31
0.0
  0
LINE
  5
197
330
175
100
AcDbEntity
  8
0-1MH
  6
Continuous
 62
     7
100
AcDbLine
 10
310.4325971516
 20
173.7283079267
 30
0.0
 11
311.4325971516
 21
174.7283079267
 31
0.0
  0
LINE
  5
198
330
175
100
AcDbEntity
  8
0-1MH
  6
Continuous
 62
     7
100
AcDbLine
 10
309.4325971516
 20
187.7283079267
 30
0.0
 11
311.4325971516
 21
187.7283079267
 31
0.0
  0
LINE
  5
199
330
175
100
AcDbEntity
  8
0-1MH
  6
Continuous
 62
     7
100
AcDbLine
 10
313.0325971516
 20
187.7283079267
 30
0.0
 11
313.0325971516
 21
202.7283079267
 31
0.0
  0
LINE
  5
19A
330
175
100
AcDbEntity
  8
0-1MH
  6
Continuous
 62
     7
100
AcDbLine
 10
311.4325971516
 20
217.7283079267
 30
0.0
 11
309.4325971516
 21
217.7283079267
 31
0.0
  0
LINE
  5
19B
330
175
100
AcDbEntity
  8
0-1MH
  6
Continuous
 62
     7
100
AcDbLine
 10
383.9325971516
 20
187.7283079267
 30
0.0
 11
383.9325971516
 21
217.7283079267
 31
0.0
  0
LINE
  5
19C
330
175
100
AcDbEntity
  8
0-1MH
  6
Continuous
 62
     7
100
AcDbLine
 10
309.9325971516
 20
217.7283079267
 30
0.0
 11
309.9325971516
 21
187.7283079267
 31
0.0
  0
LINE
  5
19D
330
175
100
AcDbEntity
  8
0-1MH
  6
Continuous
 62
     7
100
AcDbLine
 10
416.6325971516
 20
207.7283079267
 30
0.0
 11
416.6325971516
 21
197.7283079267
 31
0.0
  0
LINE
  5
19E
330
175
100
AcDbEntity
  8
0-1MH
  6
Continuous
 62
     7
100
AcDbLine
 10
417.4325971516
 20
206.9283079267
 30
0.0
 11
417.4325971516
 21
198.5283079267
 31
0.0
  0
ARC
  5
19F
330
175
100
AcDbEntity
  8
0-1MH
  6
Continuous
 62
     7
100
AcDbCircle
 10
413.4013018069
 20
212.7018346025
 30
0.0
 40
5.203924771484018
100
AcDbArc
 50
270.344567236
 51
287.1130358643
  0
LINE
  5
1A0
330
175
100
AcDbEntity
  8
0-1MH
  6
Continuous
 62
     7
100
AcDbLine
 10
396.4325971516
 20
207.4980039337
 30
0.0
 11
413.4325971516
 21
207.4980039337
 31
0.0
  0
ARC
  5
1A1
330
175
100
AcDbEntity
  8
0-1MH
  6
Continuous
 62
     7
100
AcDbCircle
 10
396.4638924962
 20
212.7018346025
 30
0.0
 40
5.20392477148485
100
AcDbArc
 50
252.8869641357
 51
269.655432764
  0
LINE
  5
1A2
330
175
100
AcDbEntity
  8
0-1MH
  6
Continuous
 62
     7
100
AcDbLine
 10
390.4325971516
 20
209.7283079267
 30
0.0
 11
390.4325971516
 21
195.7283079267
 31
0.0
  0
LINE
  5
1A3
330
175
100
AcDbEntity
  8
0-1MH
  6
Continuous
 62
     7
100
AcDbLine
 10
391.4325971516
 20
209.4603587342
 30
0.0
 11
391.4325971516
 21
195.9962571191
 31
0.0
  0
CIRCLE
  5
1A4
330
175
100
AcDbEntity
  8
0-1MH
  6
Continuous
 62
     7
100
AcDbCircle
 10
331.0226945749
 20
242.1382105034
 30
0.0
 40
2.299999999999962
  0
CIRCLE
  5
1A5
330
175
100
AcDbEntity
  8
0-1MH
  6
Continuous
 62
     7
100
AcDbCircle
 10
362.8424997283
 20
242.1382105034
 30
0.0
 40
2.299999999999962
  0
CIRCLE
  5
1A6
330
175
100
AcDbEntity
  8
0-1MH
  6
Continuous
 62
     7
100
AcDbCircle
 10
362.8424997283
 20
210.31840535
 30
0.0
 40
2.3
  0
CIRCLE
  5
1A7
330
175
100
AcDbEntity
  8
0-1MH
  6
Continuous
 62
     7
100
AcDbCircle
 10
331.0226945749
 20
210.31840535
 30
0.0
 40
2.3
  0
CIRCLE
  5
1A8
330
175
100
AcDbEntity
  8
0-1MH
  6
Continuous
 62
     7
100
AcDbCircle
 10
346.9325971516
 20
226.2283079267
 30
0.0
 40
3.500000000000001
  0
CIRCLE
  5
1A9
330
175
100
AcDbEntity
  8
0-1MH
  6
Continuous
 62
     7
100
AcDbCircle
 10
346.9325971516
 20
226.2283079267
 30
0.0
 40
15.5
  0
CIRCLE
  5
1AA
330
175
100
AcDbEntity
  8
0-1MH
  6
Continuous
 62
     7
100
AcDbCircle
 10
346.9325971516
 20
226.2283079267
 30
0.0
 40
15.0
  0
LINE
  5
1AB
330
175
100
AcDbEntity
  8
0-1MH
  6
Continuous
 62
     7
100
AcDbLine
 10
394.9325971516
 20
207.7283079267
 30
0.0
 11
391.4325971516
 21
207.7283079267
 31
0.0
  0
LINE
  5
1AC
330
175
100
AcDbEntity
  8
0-1MH
  6
Continuous
 62
     7
100
AcDbLine
 10
416.6325971516
 20
207.7283079267
 30
0.0
 11
414.9325971516
 21
207.7283079267
 31
0.0
  0
LINE
  5
1AD
330
175
100
AcDbEntity
  8
0-1MH
  6
Continuous
 62
     7
100
AcDbLine
 10
391.4325971516
 20
197.7283079267
 30
0.0
 11
416.6325971516
 21
197.7283079267
 31
0.0
  0
LINE
  5
1AE
330
175
100
AcDbEntity
  8
0-1MH
  6
Continuous
 62
     7
100
AcDbLine
 10
416.6325971516
 20
197.7283079267
 30
0.0
 11
417.4325971516
 21
198.5283079267
 31
0.0
  0
LINE
  5
1AF
330
175
100
AcDbEntity
  8
0-1MH
  6
Continuous
 62
     7
100
AcDbLine
 10
417.4325971516
 20
206.9283079267
 30
0.0
 11
416.6325971516
 21
207.7283079267
 31
0.0
  0
LINE
  5
1B0
330
175
100
AcDbEntity
  8
0-1MH
  6
Continuous
 62
     7
100
AcDbLine
 10
390.4325971516
 20
209.7283079267
 30
0.0
 11
383.9325971516
 21
209.7283079267
 31
0.0
  0
LINE
  5
1B1
330
175
100
AcDbEntity
  8
0-1MH
  6
Continuous
 62
     7
100
AcDbLine
 10
383.9325971516
 20
195.7283079267
 30
0.0
 11
390.4325971516
 21
195.7283079267
 31
0.0
  0
LINE
  5
1B2
330
175
100
AcDbEntity
  8
0-1MH
  6
Continuous
 62
     7
100
AcDbLine
 10
390.4325971516
 20
195.7283079267
 30
0.0
 11
391.4325971516
 21
195.9962571191
 31
0.0
  0
LINE
  5
1B3
330
175
100
AcDbEntity
  8
0-1MH
  6
Continuous
 62
     7
100
AcDbLine
 10
391.4325971516
 20
209.4603587342
 30
0.0
 11
390.4325971516
 21
209.7283079267
 31
0.0
  0
ENDBLK
  5
1B5
330
175
100
AcDbEntity
  8
0
100
AcDbBlockEnd
  0
BLOCK
  5
292
330
1B6
100
AcDbEntity
  8
0
100
AcDbBlockBegin
  2
SE4
 70
     0
 10
0.0
 20
0.0
 30
0.0
  3
SE4
  1

  0
LINE
  5
1B8
330
1B6
100
AcDbEntity
  8
0-1MH
  6
Continuous
 62
     7
100
AcDbLine
 10
79.9478668443
 20
255.7283079267
 30
0.0
 11
79.9478668443
 21
217.7283079267
 31
0.0
  0
LINE
  5
1B9
330
1B6
100
AcDbEntity
  8
0-1MH
  6
Continuous
 62
     7
100
AcDbLine
 10
79.9478668443
 20
187.7283079267
 30
0.0
 11
80.4478668443
 21
187.7283079267
 31
0.0
  0
LINE
  5
1BA
330
1B6
100
AcDbEntity
  8
0-1MH
  6
Continuous
 62
     7
100
AcDbLine
 10
79.9478668443
 20
187.7283079267
 30
0.0
 11
79.9478668443
 21
174.7283079267
 31
0.0
  0
LINE
  5
1BB
330
1B6
100
AcDbEntity
  8
0-1MH
  6
Continuous
 62
     7
100
AcDbLine
 10
81.9478668443
 20
257.7283079267
 30
0.0
 11
79.9478668443
 21
255.7283079267
 31
0.0
  0
LINE
  5
1BC
330
1B6
100
AcDbEntity
  8
0-1MH
  6
Continuous
 62
     7
100
AcDbLine
 10
81.9478668443
 20
172.7283079267
 30
0.0
 11
79.9478668443
 21
174.7283079267
 31
0.0
  0
LINE
  5
1BD
330
1B6
100
AcDbEntity
  8
0-1MH
  6
Continuous
 62
     7
100
AcDbLine
 10
152.9478668443
 20
257.7283079267
 30
0.0
 11
81.9478668443
 21
257.7283079267
 31
0.0
  0
LINE
  5
1BE
330
1B6
100
AcDbEntity
  8
0-1MH
  6
Continuous
 62
     7
100
AcDbLine
 10
152.9478668443
 20
257.7283079267
 30
0.0
 11
154.9478668443
 21
255.7283079267
 31
0.0
  0
LINE
  5
1BF
330
1B6
100
AcDbEntity
  8
0-1MH
  6
Continuous
 62
     7
100
AcDbLine
 10
154.9478668443
 20
255.7283079267
 30
0.0
 11
154.9478668443
 21
217.7283079267
 31
0.0
  0
LINE
  5
1C0
330
1B6
100
AcDbEntity
  8
0-1MH
  6
Continuous
 62
     7
100
AcDbLine
 10
154.9478668443
 20
217.7283079267
 30
0.0
 11
154.4478668443
 21
217.7283079267
 31
0.0
  0
LINE
  5
1C1
330
1B6
100
AcDbEntity
  8
0-1MH
  6
Continuous
 62
     7
100
AcDbLine
 10
154.9478668443
 20
187.7283079267
 30
0.0
 11
154.9478668443
 21
174.7283079267
 31
0.0
  0
LINE
  5
1C2
330
1B6
100
AcDbEntity
  8
0-1MH
  6
Continuous
 62
     7
100
AcDbLine
 10
152.9478668443
 20
172.7283079267
 30
0.0
 11
154.9478668443
 21
174.7283079267
 31
0.0
  0
LINE
  5
1C3
330
1B6
100
AcDbEntity
  8
0-1MH
  6
Continuous
 62
     7
100
AcDbLine
 10
81.9478668443
 20
172.7283079267
 30
0.0
 11
152.9478668443
 21
172.7283079267
 31
0.0
  0
LINE
  5
1C4
330
1B6
100
AcDbEntity
  8
0-1MH
  6
Continuous
 62
     7
100
AcDbLine
 10
80.4478668443
 20
217.7283079267
 30
0.0
 11
79.9478668443
 21
217.7283079267
 31
0.0
  0
LINE
  5
1C5
330
1B6
100
AcDbEntity
  8
0-1MH
  6
Continuous
 62
     7
100
AcDbLine
 10
154.4478668443
 20
187.7283079267
 30
0.0
 11
154.9478668443
 21
187.7283079267
 31
0.0
  0
LINE
  5
1C6
330
1B6
100
AcDbEntity
  8
0-1MH
  6
Continuous
 62
     7
100
AcDbLine
 10
80.4478668443
 20
255.2283079267
 30
0.0
 11
81.4478668443
 21
256.2283079267
 31
0.0
  0
LINE
  5
1C7
330
1B6
100
AcDbEntity
  8
0-1MH
  6
Continuous
 62
     7
100
AcDbLine
 10
81.4478668443
 20
256.2283079267
 30
0.0
 11
82.4478668443
 21
257.2283079267
 31
0.0
  0
LINE
  5
1C8
330
1B6
100
AcDbEntity
  8
0-1MH
  6
Continuous
 62
     7
100
AcDbLine
 10
152.4478668443
 20
257.2283079267
 30
0.0
 11
153.4478668443
 21
256.2283079267
 31
0.0
  0
LINE
  5
1C9
330
1B6
100
AcDbEntity
  8
0-1MH
  6
Continuous
 62
     7
100
AcDbLine
 10
153.4478668443
 20
256.2283079267
 30
0.0
 11
154.4478668443
 21
255.2283079267
 31
0.0
  0
LINE
  5
1CA
330
1B6
100
AcDbEntity
  8
0-1MH
  6
Continuous
 62
     7
100
AcDbLine
 10
153.4478668443
 20
174.2283079267
 30
0.0
 11
152.4478668443
 21
173.2283079267
 31
0.0
  0
CIRCLE
  5
1CB
330
1B6
100
AcDbEntity
  8
0-1MH
  6
Continuous
 62
     7
100
AcDbCircle
 10
142.9478668443
 20
183.7283079267
 30
0.0
 40
4.0
  0
CIRCLE
  5
1CC
330
1B6
100
AcDbEntity
  8
0-1MH
  6
Continuous
 62
     7
100
AcDbCircle
 10
91.9478668443
 20
183.7283079267
 30
0.0
 40
4.22698500169636
  0
CIRCLE
  5
1CD
330
1B6
100
AcDbEntity
  8
0-1MH
  6
Continuous
 62
     7
100
AcDbCircle
 10
91.9478668443
 20
246.7283079267
 30
0.0
 40
4.0
  0
CIRCLE
  5
1CE
330
1B6
100
AcDbEntity
  8
0-1MH
  6
Continuous
 62
     7
100
AcDbCircle
 10
142.9478668443
 20
246.7283079267
 30
0.0
 40
4.22698500169636
  0
CIRCLE
  5
1CF
330
1B6
100
AcDbEntity
  8
0-1MH
  6
Continuous
 62
     7
100
AcDbCircle
 10
91.9478668443
 20
215.2283079267
 30
0.0
 40
4.0
  0
CIRCLE
  5
1D0
330
1B6
100
AcDbEntity
  8
0-1MH
  6
Continuous
 62
     7
100
AcDbCircle
 10
91.9478668443
 20
215.2283079267
 30
0.0
 40
4.22698500169636
  0
LINE
  5
1D1
330
1B6
100
AcDbEntity
  8
0-1MH
  6
Continuous
 62
     7
100
AcDbLine
 10
82.4478668443
 20
255.2283079267
 30
0.0
 11
82.4478668443
 21
175.2283079267
 31
0.0
  0
LINE
  5
1D2
330
1B6
100
AcDbEntity
  8
0-1MH
  6
Continuous
 62
     7
100
AcDbLine
 10
82.4478668443
 20
175.2283079267
 30
0.0
 11
152.4478668443
 21
175.2283079267
 31
0.0
  0
LINE
  5
1D3
330
1B6
100
AcDbEntity
  8
0-1MH
  6
Continuous
 62
     7
100
AcDbLine
 10
152.4478668443
 20
175.2283079267
 30
0.0
 11
152.4478668443
 21
255.2283079267
 31
0.0
  0
LINE
  5
1D4
330
1B6
100
AcDbEntity
  8
0-1MH
  6
Continuous
 62
     7
100
AcDbLine
 10
152.4478668443
 20
255.2283079267
 30
0.0
 11
82.4478668443
 21
255.2283079267
 31
0.0
  0
CIRCLE
  5
1D5
330
1B6
100
AcDbEntity
  8
0-1MH
  6
Continuous
 62
     7
100
AcDbCircle
 10
142.9478668443
 20
215.2283079267
 30
0.0
 40
4.22698500169636
  0
CIRCLE
  5
1D6
330
1B6
100
AcDbEntity
  8
0-1MH
  6
Continuous
 62
     7
100
AcDbCircle
 10
142.9478668443
 20
246.7283079267
 30
0.0
 40
4.0
  0
CIRCLE
  5
1D7
330
1B6
100
AcDbEntity
  8
0-1MH
  6
Continuous
 62
     7
100
AcDbCircle
 10
142.9478668443
 20
183.7283079267
 30
0.0
 40
4.22698500169636
  0
CIRCLE
  5
1D8
330
1B6
100
AcDbEntity
  8
0-1MH
  6
Continuous
 62
     7
100
AcDbCircle
 10
91.9478668443
 20
183.7283079267
 30
0.0
 40
4.0
  0
CIRCLE
  5
1D9
330
1B6
100
AcDbEntity
  8
0-1MH
  6
Continuous
 62
     7
100
AcDbCircle
 10
91.9478668443
 20
246.7283079267
 30
0.0
 40
4.22698500169636
  0
CIRCLE
  5
1DA
330
1B6
100
AcDbEntity
  8
0-1MH
  6
Continuous
 62
     7
100
AcDbCircle
 10
142.9478668443
 20
215.2283079267
 30
0.0
 40
4.0
  0
LINE
  5
1DB
330
1B6
100
AcDbEntity
  8
0-1MH
  6
Continuous
 62
     7
100
AcDbLine
 10
152.4478668443
 20
257.2283079267
 30
0.0
 11
82.4478668443
 21
257.2283079267
 31
0.0
  0
LINE
  5
1DC
330
1B6
100
AcDbEntity
  8
0-1MH
  6
Continuous
 62
     7
100
AcDbLine
 10
153.4478668443
 20
174.2283079267
 30
0.0
 11
154.4478668443
 21
175.2283079267
 31
0.0
  0
LINE
  5
1DD
330
1B6
100
AcDbEntity
  8
0-1MH
  6
Continuous
 62
     7
100
AcDbLine
 10
154.4478668443
 20
175.2283079267
 30
0.0
 11
154.4478668443
 21
255.2283079267
 31
0.0
  0
LINE
  5
1DE
330
1B6
100
AcDbEntity
  8
0-1MH
  6
Continuous
 62
     7
100
AcDbLine
 10
153.4478668443
 20
256.2283079267
 30
0.0
 11
152.4478668443
 21
255.2283079267
 31
0.0
  0
LINE
  5
1DF
330
1B6
100
AcDbEntity
  8
0-1MH
  6
Continuous
 62
     7
100
AcDbLine
 10
82.4478668443
 20
175.2283079267
 30
0.0
 11
81.4478668443
 21
174.2283079267
 31
0.0
  0
LINE
  5
1E0
330
1B6
100
AcDbEntity
  8
0-1MH
  6
Continuous
 62
     7
100
AcDbLine
 10
81.4478668443
 20
174.2283079267
 30
0.0
 11
82.4478668443
 21
173.2283079267
 31
0.0
  0
LINE
  5
1E1
330
1B6
100
AcDbEntity
  8
0-1MH
  6
Continuous
 62
     7
100
AcDbLine
 10
82.4478668443
 20
173.2283079267
 30
0.0
 11
152.4478668443
 21
173.2283079267
 31
0.0
  0
LINE
  5
1E2
330
1B6
100
AcDbEntity
  8
0-1MH
  6
Continuous
 62
     7
100
AcDbLine
 10
153.4478668443
 20
174.2283079267
 30
0.0
 11
152.4478668443
 21
175.2283079267
 31
0.0
  0
LINE
  5
1E3
330
1B6
100
AcDbEntity
  8
0-1MH
  6
Continuous
 62
     7
100
AcDbLine
 10
82.4478668443
 20
255.2283079267
 30
0.0
 11
81.4478668443
 21
256.2283079267
 31
0.0
  0
LINE
  5
1E4
330
1B6
100
AcDbEntity
  8
0-1MH
  6
Continuous
 62
     7
100
AcDbLine
 10
80.4478668443
 20
255.2283079267
 30
0.0
 11
80.4478668443
 21
175.2283079267
 31
0.0
  0
LINE
  5
1E5
330
1B6
100
AcDbEntity
  8
0-1MH
  6
Continuous
 62
     7
100
AcDbLine
 10
80.4478668443
 20
175.2283079267
 30
0.0
 11
81.4478668443
 21
174.2283079267
 31
0.0
  0
LINE
  5
1E6
330
1B6
100
AcDbEntity
  8
0-1MH
  6
Continuous
 62
     7
100
AcDbLine
 10
93.4267701301
 20
247.6065135241
 30
0.0
 11
91.9689635585
 21
248.4481785406
 31
0.0
  0
LINE
  5
1E7
330
1B6
100
AcDbEntity
  8
0-1MH
  6
Continuous
 62
     7
100
AcDbLine
 10
91.9267701301
 20
248.4481785406
 30
0.0
 11
90.4689635585
 21
247.6065135241
 31
0.0
  0
LINE
  5
1E8
330
1B6
100
AcDbEntity
  8
0-1MH
  6
Continuous
 62
     7
100
AcDbLine
 10
90.4478668443
 20
247.5699729432
 30
0.0
 11
90.4478668443
 21
245.8866429102
 31
0.0
  0
LINE
  5
1E9
330
1B6
100
AcDbEntity
  8
0-1MH
  6
Continuous
 62
     7
100
AcDbLine
 10
90.4689635585
 20
245.8501023292
 30
0.0
 11
91.9267701301
 21
245.0084373127
 31
0.0
  0
LINE
  5
1EA
330
1B6
100
AcDbEntity
  8
0-1MH
  6
Continuous
 62
     7
100
AcDbLine
 10
91.9689635585
 20
245.0084373127
 30
0.0
 11
93.4267701301
 21
245.8501023292
 31
0.0
  0
LINE
  5
1EB
330
1B6
100
AcDbEntity
  8
0-1MH
  6
Continuous
 62
     7
100
AcDbLine
 10
93.4478668443
 20
245.8866429102
 30
0.0
 11
93.4478668443
 21
247.5699729432
 31
0.0
  0
CIRCLE
  5
1EC
330
1B6
100
AcDbEntity
  8
0-1MH
  6
Continuous
 62
     7
100
AcDbCircle
 10
91.9478668443
 20
246.7283079267
 30
0.0
 40
3.5
  0
CIRCLE
  5
1ED
330
1B6
100
AcDbEntity
  8
0-1MH
  6
Continuous
 62
     7
100
AcDbCircle
 10
91.9478668443
 20
246.7283079267
 30
0.0
 40
3.1
  0
LINE
  5
1EE
330
1B6
100
AcDbEntity
  8
0-1MH
  6
Continuous
 62
     7
100
AcDbLine
 10
91.9478668443
 20
248.4603587342
 30
0.0
 11
91.9689635585
 21
248.4481785406
 31
0.0
  0
ARC
  5
1EF
330
1B6
100
AcDbEntity
  8
0-1MH
  6
Continuous
 62
     7
100
AcDbCircle
 10
91.9478668443
 20
246.7283079267
 30
0.0
 40
1.719999999999998
100
AcDbArc
 50
30.7027808124
 51
89.2972191876
  0
LINE
  5
1F0
330
1B6
100
AcDbEntity
  8
0-1MH
  6
Continuous
 62
     7
100
AcDbLine
 10
93.4267701301
 20
247.6065135241
 30
0.0
 11
93.4478668443
 21
247.5943333304
 31
0.0
  0
LINE
  5
1F1
330
1B6
100
AcDbEntity
  8
0-1MH
  6
Continuous
 62
     7
100
AcDbLine
 10
93.4478668443
 20
247.5943333304
 30
0.0
 11
93.4478668443
 21
247.5699729432
 31
0.0
  0
ARC
  5
1F2
330
1B6
100
AcDbEntity
  8
0-1MH
  6
Continuous
 62
     7
100
AcDbCircle
 10
91.9478668443
 20
246.7283079267
 30
0.0
 40
1.719999999999998
100
AcDbArc
 50
330.7027808124
 51
29.2972191876
  0
LINE
  5
1F3
330
1B6
100
AcDbEntity
  8
0-1MH
  6
Continuous
 62
     7
100
AcDbLine
 10
93.4478668443
 20
245.8866429102
 30
0.0
 11
93.4478668443
 21
245.8622825229
 31
0.0
  0
LINE
  5
1F4
330
1B6
100
AcDbEntity
  8
0-1MH
  6
Continuous
 62
     7
100
AcDbLine
 10
93.4478668443
 20
245.8622825229
 30
0.0
 11
93.4267701301
 21
245.8501023292
 31
0.0
  0
LINE
  5
1F5
330
1B6
100
AcDbEntity
  8
0-1MH
  6
Continuous
 62
     7
100
AcDbLine
 10
91.9689635585
 20
245.0084373127
 30
0.0
 11
91.9478668443
 21
244.9962571191
 31
0.0
  0
LINE
  5
1F6
330
1B6
100
AcDbEntity
  8
0-1MH
  6
Continuous
 62
     7
100
AcDbLine
 10
91.9478668443
 20
244.9962571191
 30
0.0
 11
91.9267701301
 21
245.0084373127
 31
0.0
  0
ARC
  5
1F7
330
1B6
100
AcDbEntity
  8
0-1MH
  6
Continuous
 62
     7
100
AcDbCircle
 10
91.9478668443
 20
246.7283079267
 30
0.0
 40
1.719999999999997
100
AcDbArc
 50
210.7027808124
 51
269.2972191876
  0
LINE
  5
1F8
330
1B6
100
AcDbEntity
  8
0-1MH
  6
Continuous
 62
     7
100
AcDbLine
 10
90.4689635585
 20
245.8501023292
 30
0.0
 11
90.4478668443
 21
245.8622825229
 31
0.0
  0
LINE
  5
1F9
330
1B6
100
AcDbEntity
  8
0-1MH
  6
Continuous
 62
     7
100
AcDbLine
 10
90.4478668443
 20
245.8622825229
 30
0.0
 11
90.4478668443
 21
245.8866429102
 31
0.0
  0
ARC
  5
1FA
330
1B6
100
AcDbEntity
  8
0-1MH
  6
Continuous
 62
     7
100
AcDbCircle
 10
91.9478668443
 20
246.7283079267
 30
0.0
 40
1.720000000000001
100
AcDbArc
 50
150.7027808124
 51
209.2972191876
  0
LINE
  5
1FB
330
1B6
100
AcDbEntity
  8
0-1MH
  6
Continuous
 62
     7
100
AcDbLine
 10
90.4478668443
 20
247.5699729432
 30
0.0
 11
90.4478668443
 21
247.5943333304
 31
0.0
  0
LINE
  5
1FC
330
1B6
100
AcDbEntity
  8
0-1MH
  6
Continuous
 62
     7
100
AcDbLine
 10
90.4478668443
 20
247.5943333304
 30
0.0
 11
90.4689635585
 21
247.6065135241
 31
0.0
  0
ARC
  5
1FD
330
1B6
100
AcDbEntity
  8
0-1MH
  6
Continuous
 62
     7
100
AcDbCircle
 10
91.9478668443
 20
246.7283079267
 30
0.0
 40
1.719999999999999
100
AcDbArc
 50
90.7027808124
 51
149.2972191876
  0
LINE
  5
1FE
330
1B6
100
AcDbEntity
  8
0-1MH
  6
Continuous
 62
     7
100
AcDbLine
 10
91.9267701301
 20
248.4481785406
 30
0.0
 11
91.9478668443
 21
248.4603587342
 31
0.0
  0
ARC
  5
1FF
330
1B6
100
AcDbEntity
  8
0-1MH
  6
Continuous
 62
     7
100
AcDbCircle
 10
91.9478668443
 20
246.7283079267
 30
0.0
 40
1.719999999999998
100
AcDbArc
 50
270.7027808124
 51
329.2972191876
  0
LINE
  5
200
330
1B6
100
AcDbEntity
  8
0-1MH
  6
Continuous
 62
     7
100
AcDbLine
 10
47.7478668443
 20
207.7283079267
 30
0.0
 11
47.7478668443
 21
197.7283079267
 31
0.0
  0
LINE
  5
201
330
1B6
100
AcDbEntity
  8
0-1MH
  6
Continuous
 62
     7
100
AcDbLine
 10
67.9478668443
 20
207.4980039337
 30
0.0
 11
50.9478668443
 21
207.4980039337
 31
0.0
  0
LINE
  5
202
330
1B6
100
AcDbEntity
  8
0-1MH
  6
Continuous
 62
     7
100
AcDbLine
 10
46.9478668443
 20
206.9283079267
 30
0.0
 11
46.9478668443
 21
198.5283079267
 31
0.0
  0
ARC
  5
203
330
1B6
100
AcDbEntity
  8
0-1MH
  6
Continuous
 62
     7
100
AcDbCircle
 10
50.9791621889
 20
212.7018346025
 30
0.0
 40
5.203924771484018
100
AcDbArc
 50
252.8869641357
 51
269.655432764
  0
ARC
  5
204
330
1B6
100
AcDbEntity
  8
0-1MH
  6
Continuous
 62
     7
100
AcDbCircle
 10
67.9165714996
 20
212.7018346025
 30
0.0
 40
5.203924771484849
100
AcDbArc
 50
270.344567236
 51
287.1130358643
  0
LINE
  5
205
330
1B6
100
AcDbEntity
  8
0-1MH
  6
Continuous
 62
     7
100
AcDbLine
 10
73.9478668443
 20
209.7283079267
 30
0.0
 11
73.9478668443
 21
195.7283079267
 31
0.0
  0
LINE
  5
206
330
1B6
100
AcDbEntity
  8
0-1MH
  6
Continuous
 62
     7
100
AcDbLine
 10
72.9478668443
 20
209.4603587342
 30
0.0
 11
72.9478668443
 21
195.9962571191
 31
0.0
  0
CIRCLE
  5
207
330
1B6
100
AcDbEntity
  8
0-1MH
  6
Continuous
 62
     7
100
AcDbCircle
 10
91.9478668443
 20
215.2283079267
 30
0.0
 40
3.1
  0
CIRCLE
  5
208
330
1B6
100
AcDbEntity
  8
0-1MH
  6
Continuous
 62
     7
100
AcDbCircle
 10
91.9478668443
 20
215.2283079267
 30
0.0
 40
3.5
  0
ARC
  5
209
330
1B6
100
AcDbEntity
  8
0-1MH
  6
Continuous
 62
     7
100
AcDbCircle
 10
91.9478668443
 20
215.2283079267
 30
0.0
 40
1.719999999999998
100
AcDbArc
 50
30.7027808124
 51
89.2972191876
  0
LINE
  5
20A
330
1B6
100
AcDbEntity
  8
0-1MH
  6
Continuous
 62
     7
100
AcDbLine
 10
93.4267701301
 20
216.1065135241
 30
0.0
 11
91.9689635585
 21
216.9481785406
 31
0.0
  0
ARC
  5
20B
330
1B6
100
AcDbEntity
  8
0-1MH
  6
Continuous
 62
     7
100
AcDbCircle
 10
91.9478668443
 20
215.2283079267
 30
0.0
 40
1.719999999999998
100
AcDbArc
 50
330.7027808124
 51
29.2972191876
  0
LINE
  5
20C
330
1B6
100
AcDbEntity
  8
0-1MH
  6
Continuous
 62
     7
100
AcDbLine
 10
93.4478668443
 20
214.3866429102
 30
0.0
 11
93.4478668443
 21
216.0699729432
 31
0.0
  0
ARC
  5
20D
330
1B6
100
AcDbEntity
  8
0-1MH
  6
Continuous
 62
     7
100
AcDbCircle
 10
91.9478668443
 20
215.2283079267
 30
0.0
 40
1.719999999999998
100
AcDbArc
 50
270.7027808124
 51
329.2972191876
  0
LINE
  5
20E
330
1B6
100
AcDbEntity
  8
0-1MH
  6
Continuous
 62
     7
100
AcDbLine
 10
91.9689635585
 20
213.5084373127
 30
0.0
 11
93.4267701301
 21
214.3501023292
 31
0.0
  0
ARC
  5
20F
330
1B6
100
AcDbEntity
  8
0-1MH
  6
Continuous
 62
     7
100
AcDbCircle
 10
91.9478668443
 20
215.2283079267
 30
0.0
 40
1.719999999999997
100
AcDbArc
 50
210.7027808124
 51
269.2972191876
  0
LINE
  5
210
330
1B6
100
AcDbEntity
  8
0-1MH
  6
Continuous
 62
     7
100
AcDbLine
 10
90.4689635585
 20
214.3501023292
 30
0.0
 11
91.9267701301
 21
213.5084373127
 31
0.0
  0
ARC
  5
211
330
1B6
100
AcDbEntity
  8
0-1MH
  6
Continuous
 62
     7
100
AcDbCircle
 10
91.9478668443
 20
215.2283079267
 30
0.0
 40
1.720000000000001
100
AcDbArc
 50
150.7027808124
 51
209.2972191876
  0
LINE
  5
212
330
1B6
100
AcDbEntity
  8
0-1MH
  6
Continuous
 62
     7
100
AcDbLine
 10
90.4478668443
 20
216.0699729432
 30
0.0
 11
90.4478668443
 21
214.3866429102
 31
0.0
  0
ARC
  5
213
330
1B6
100
AcDbEntity
  8
0-1MH
  6
Continuous
 62
     7
100
AcDbCircle
 10
91.9478668443
 20
215.2283079267
 30
0.0
 40
1.719999999999999
100
AcDbArc
 50
90.7027808124
 51
149.2972191876
  0
LINE
  5
214
330
1B6
100
AcDbEntity
  8
0-1MH
  6
Continuous
 62
     7
100
AcDbLine
 10
91.9267701301
 20
216.9481785406
 30
0.0
 11
90.4689635585
 21
216.1065135241
 31
0.0
  0
LINE
  5
215
330
1B6
100
AcDbEntity
  8
0-1MH
  6
Continuous
 62
     7
100
AcDbLine
 10
91.9478668443
 20
216.9603587342
 30
0.0
 11
91.9689635585
 21
216.9481785406
 31
0.0
  0
LINE
  5
216
330
1B6
100
AcDbEntity
  8
0-1MH
  6
Continuous
 62
     7
100
AcDbLine
 10
93.4267701301
 20
216.1065135241
 30
0.0
 11
93.4478668443
 21
216.0943333304
 31
0.0
  0
LINE
  5
217
330
1B6
100
AcDbEntity
  8
0-1MH
  6
Continuous
 62
     7
100
AcDbLine
 10
93.4478668443
 20
216.0943333304
 30
0.0
 11
93.4478668443
 21
216.0699729432
 31
0.0
  0
LINE
  5
218
330
1B6
100
AcDbEntity
  8
0-1MH
  6
Continuous
 62
     7
100
AcDbLine
 10
93.4478668443
 20
214.3866429102
 30
0.0
 11
93.4478668443
 21
214.3622825229
 31
0.0
  0
LINE
  5
219
330
1B6
100
AcDbEntity
  8
0-1MH
  6
Continuous
 62
     7
100
AcDbLine
 10
93.4478668443
 20
214.3622825229
 30
0.0
 11
93.4267701301
 21
214.3501023292
 31
0.0
  0
LINE
  5
21A
330
1B6
100
AcDbEntity
  8
0-1MH
  6
Continuous
 62
     7
100
AcDbLine
 10
91.9689635585
 20
213.5084373127
 30
0.0
 11
91.9478668443
 21
213.4962571191
 31
0.0
  0
LINE
  5
21B
330
1B6
100
AcDbEntity
  8
0-1MH
  6
Continuous
 62
     7
100
AcDbLine
 10
91.9478668443
 20
213.4962571191
 30
0.0
 11
91.9267701301
 21
213.5084373127
 31
0.0
  0
LINE
  5
21C
330
1B6
100
AcDbEntity
  8
0-1MH
  6
Continuous
 62
     7
100
AcDbLine
 10
90.4689635585
 20
214.3501023292
 30
0.0
 11
90.4478668443
 21
214.3622825229
 31
0.0
  0
LINE
  5
21D
330
1B6
100
AcDbEntity
  8
0-1MH
  6
Continuous
 62
     7
100
AcDbLine
 10
90.4478668443
 20
214.3622825229
 30
0.0
 11
90.4478668443
 21
214.3866429102
 31
0.0
  0
LINE
  5
21E
330
1B6
100
AcDbEntity
  8
0-1MH
  6
Continuous
 62
     7
100
AcDbLine
 10
90.4478668443
 20
216.0699729432
 30
0.0
 11
90.4478668443
 21
216.0943333304
 31
0.0
  0
LINE
  5
21F
330
1B6
100
AcDbEntity
  8
0-1MH
  6
Continuous
 62
     7
100
AcDbLine
 10
90.4478668443
 20
216.0943333304
 30
0.0
 11
90.4689635585
 21
216.1065135241
 31
0.0
  0
LINE
  5
220
330
1B6
100
AcDbEntity
  8
0-1MH
  6
Continuous
 62
     7
100
AcDbLine
 10
91.9267701301
 20
216.9481785406
 30
0.0
 11
91.9478668443
 21
216.9603587342
 31
0.0
  0
CIRCLE
  5
221
330
1B6
100
AcDbEntity
  8
0-1MH
  6
Continuous
 62
     7
100
AcDbCircle
 10
91.9478668443
 20
183.7283079267
 30
0.0
 40
3.1
  0
CIRCLE
  5
222
330
1B6
100
AcDbEntity
  8
0-1MH
  6
Continuous
 62
     7
100
AcDbCircle
 10
91.9478668443
 20
183.7283079267
 30
0.0
 40
3.5
  0
ARC
  5
223
330
1B6
100
AcDbEntity
  8
0-1MH
  6
Continuous
 62
     7
100
AcDbCircle
 10
91.9478668443
 20
183.7283079267
 30
0.0
 40
1.719999999999998
100
AcDbArc
 50
30.7027808124
 51
89.2972191876
  0
LINE
  5
224
330
1B6
100
AcDbEntity
  8
0-1MH
  6
Continuous
 62
     7
100
AcDbLine
 10
93.4267701301
 20
184.6065135241
 30
0.0
 11
91.9689635585
 21
185.4481785406
 31
0.0
  0
ARC
  5
225
330
1B6
100
AcDbEntity
  8
0-1MH
  6
Continuous
 62
     7
100
AcDbCircle
 10
91.9478668443
 20
183.7283079267
 30
0.0
 40
1.719999999999998
100
AcDbArc
 50
330.7027808124
 51
29.2972191876
  0
LINE
  5
226
330
1B6
100
AcDbEntity
  8
0-1MH
  6
Continuous
 62
     7
100
AcDbLine
 10
93.4478668443
 20
182.8866429102
 30
0.0
 11
93.4478668443
 21
184.5699729432
 31
0.0
  0
ARC
  5
227
330
1B6
100
AcDbEntity
  8
0-1MH
  6
Continuous
 62
     7
100
AcDbCircle
 10
91.9478668443
 20
183.7283079267
 30
0.0
 40
1.719999999999998
100
AcDbArc
 50
270.7027808124
 51
329.2972191876
  0
LINE
  5
228
330
1B6
100
AcDbEntity
  8
0-1MH
  6
Continuous
 62
     7
100
AcDbLine
 10
91.9689635585
 20
182.0084373127
 30
0.0
 11
93.4267701301
 21
182.8501023292
 31
0.0
  0
ARC
  5
229
330
1B6
100
AcDbEntity
  8
0-1MH
  6
Continuous
 62
     7
100
AcDbCircle
 10
91.9478668443
 20
183.7283079267
 30
0.0
 40
1.719999999999997
100
AcDbArc
 50
210.7027808124
 51
269.2972191876
  0
LINE
  5
22A
330
1B6
100
AcDbEntity
  8
0-1MH
  6
Continuous
 62
     7
100
AcDbLine
 10
90.4689635585
 20
182.8501023292
 30
0.0
 11
91.9267701301
 21
182.0084373127
 31
0.0
  0
ARC
  5
22B
330
1B6
100
AcDbEntity
  8
0-1MH
  6
Continuous
 62
     7
100
AcDbCircle
 10
91.9478668443
 20
183.7283079267
 30
0.0
 40
1.720000000000001
100
AcDbArc
 50
150.7027808124
 51
209.2972191876
  0
LINE
  5
22C
330
1B6
100
AcDbEntity
  8
0-1MH
  6
Continuous
 62
     7
100
AcDbLine
 10
90.4478668443
 20
184.5699729432
 30
0.0
 11
90.4478668443
 21
182.8866429102
 31
0.0
  0
ARC
  5
22D
330
1B6
100
AcDbEntity
  8
0-1MH
  6
Continuous
 62
     7
100
AcDbCircle
 10
91.9478668443
 20
183.7283079267
 30
0.0
 40
1.719999999999999
100
AcDbArc
 50
90.7027808124
 51
149.2972191876
  0
LINE
  5
22E
330
1B6
100
AcDbEntity
  8
0-1MH
  6
Continuous
 62
     7
100
AcDbLine
 10
91.9267701301
 20
185.4481785406
 30
0.0
 11
90.4689635585
 21
184.6065135241
 31
0.0
  0
LINE
  5
22F
330
1B6
100
AcDbEntity
  8
0-1MH
  6
Continuous
 62
     7
100
AcDbLine
 10
91.9478668443
 20
185.4603587342
 30
0.0
 11
91.9689635585
 21
185.4481785406
 31
0.0
  0
LINE
  5
230
330
1B6
100
AcDbEntity
  8
0-1MH
  6
Continuous
 62
     7
100
AcDbLine
 10
93.4267701301
 20
184.6065135241
 30
0.0
 11
93.4478668443
 21
184.5943333304
 31
0.0
  0
LINE
  5
231
330
1B6
100
AcDbEntity
  8
0-1MH
  6
Continuous
 62
     7
100
AcDbLine
 10
93.4478668443
 20
184.5943333304
 30
0.0
 11
93.4478668443
 21
184.5699729432
 31
0.0
  0
LINE
  5
232
330
1B6
100
AcDbEntity
  8
0-1MH
  6
Continuous
 62
     7
100
AcDbLine
 10
93.4478668443
 20
182.8866429102
 30
0.0
 11
93.4478668443
 21
182.8622825229
 31
0.0
  0
LINE
  5
233
330
1B6
100
AcDbEntity
  8
0-1MH
  6
Continuous
 62
     7
100
AcDbLine
 10
93.4478668443
 20
182.8622825229
 30
0.0
 11
93.4267701301
 21
182.8501023292
 31
0.0
  0
LINE
  5
234
330
1B6
100
AcDbEntity
  8
0-1MH
  6
Continuous
 62
     7
100
AcDbLine
 10
91.9689635585
 20
182.0084373127
 30
0.0
 11
91.9478668443
 21
181.9962571191
 31
0.0
  0
LINE
  5
235
330
1B6
100
AcDbEntity
  8
0-1MH
  6
Continuous
 62
     7
100
AcDbLine
 10
91.9478668443
 20
181.9962571191
 30
0.0
 11
91.9267701301
 21
182.0084373127
 31
0.0
  0
LINE
  5
236
330
1B6
100
AcDbEntity
  8
0-1MH
  6
Continuous
 62
     7
100
AcDbLine
 10
90.4689635585
 20
182.8501023292
 30
0.0
 11
90.4478668443
 21
182.8622825229
 31
0.0
  0
LINE
  5
237
330
1B6
100
AcDbEntity
  8
0-1MH
  6
Continuous
 62
     7
100
AcDbLine
 10
90.4478668443
 20
182.8622825229
 30
0.0
 11
90.4478668443
 21
182.8866429102
 31
0.0
  0
LINE
  5
238
330
1B6
100
AcDbEntity
  8
0-1MH
  6
Continuous
 62
     7
100
AcDbLine
 10
90.4478668443
 20
184.5699729432
 30
0.0
 11
90.4478668443
 21
184.5943333304
 31
0.0
  0
LINE
  5
239
330
1B6
100
AcDbEntity
  8
0-1MH
  6
Continuous
 62
     7
100
AcDbLine
 10
90.4478668443
 20
184.5943333304
 30
0.0
 11
90.4689635585
 21
184.6065135241
 31
0.0
  0
LINE
  5
23A
330
1B6
100
AcDbEntity
  8
0-1MH
  6
Continuous
 62
     7
100
AcDbLine
 10
91.9267701301
 20
185.4481785406
 30
0.0
 11
91.9478668443
 21
185.4603587342
 31
0.0
  0
CIRCLE
  5
23B
330
1B6
100
AcDbEntity
  8
0-1MH
  6
Continuous
 62
     7
100
AcDbCircle
 10
142.9478668443
 20
246.7283079267
 30
0.0
 40
3.1
  0
CIRCLE
  5
23C
330
1B6
100
AcDbEntity
  8
0-1MH
  6
Continuous
 62
     7
100
AcDbCircle
 10
142.9478668443
 20
246.7283079267
 30
0.0
 40
3.5
  0
ARC
  5
23D
330
1B6
100
AcDbEntity
  8
0-1MH
  6
Continuous
 62
     7
100
AcDbCircle
 10
142.9478668443
 20
246.7283079267
 30
0.0
 40
1.719999999999998
100
AcDbArc
 50
30.7027808124
 51
89.2972191876
  0
LINE
  5
23E
330
1B6
100
AcDbEntity
  8
0-1MH
  6
Continuous
 62
     7
100
AcDbLine
 10
144.4267701301
 20
247.6065135241
 30
0.0
 11
142.9689635585
 21
248.4481785406
 31
0.0
  0
ARC
  5
23F
330
1B6
100
AcDbEntity
  8
0-1MH
  6
Continuous
 62
     7
100
AcDbCircle
 10
142.9478668443
 20
246.7283079267
 30
0.0
 40
1.719999999999996
100
AcDbArc
 50
330.7027808124
 51
29.2972191876
  0
LINE
  5
240
330
1B6
100
AcDbEntity
  8
0-1MH
  6
Continuous
 62
     7
100
AcDbLine
 10
144.4478668443
 20
245.8866429102
 30
0.0
 11
144.4478668443
 21
247.5699729432
 31
0.0
  0
ARC
  5
241
330
1B6
100
AcDbEntity
  8
0-1MH
  6
Continuous
 62
     7
100
AcDbCircle
 10
142.9478668443
 20
246.7283079267
 30
0.0
 40
1.719999999999998
100
AcDbArc
 50
270.7027808124
 51
329.2972191876
  0
LINE
  5
242
330
1B6
100
AcDbEntity
  8
0-1MH
  6
Continuous
 62
     7
100
AcDbLine
 10
142.9689635585
 20
245.0084373127
 30
0.0
 11
144.4267701301
 21
245.8501023292
 31
0.0
  0
ARC
  5
243
330
1B6
100
AcDbEntity
  8
0-1MH
  6
Continuous
 62
     7
100
AcDbCircle
 10
142.9478668443
 20
246.7283079267
 30
0.0
 40
1.719999999999997
100
AcDbArc
 50
210.7027808124
 51
269.2972191876
  0
LINE
  5
244
330
1B6
100
AcDbEntity
  8
0-1MH
  6
Continuous
 62
     7
100
AcDbLine
 10
141.4689635585
 20
245.8501023292
 30
0.0
 11
142.9267701301
 21
245.0084373127
 31
0.0
  0
ARC
  5
245
330
1B6
100
AcDbEntity
  8
0-1MH
  6
Continuous
 62
     7
100
AcDbCircle
 10
142.9478668443
 20
246.7283079267
 30
0.0
 40
1.720000000000003
100
AcDbArc
 50
150.7027808124
 51
209.2972191876
  0
LINE
  5
246
330
1B6
100
AcDbEntity
  8
0-1MH
  6
Continuous
 62
     7
100
AcDbLine
 10
141.4478668443
 20
247.5699729432
 30
0.0
 11
141.4478668443
 21
245.8866429102
 31
0.0
  0
ARC
  5
247
330
1B6
100
AcDbEntity
  8
0-1MH
  6
Continuous
 62
     7
100
AcDbCircle
 10
142.9478668443
 20
246.7283079267
 30
0.0
 40
1.720000000000001
100
AcDbArc
 50
90.7027808124
 51
149.2972191876
  0
LINE
  5
248
330
1B6
100
AcDbEntity
  8
0-1MH
  6
Continuous
 62
     7
100
AcDbLine
 10
142.9267701301
 20
248.4481785406
 30
0.0
 11
141.4689635585
 21
247.6065135241
 31
0.0
  0
LINE
  5
249
330
1B6
100
AcDbEntity
  8
0-1MH
  6
Continuous
 62
     7
100
AcDbLine
 10
142.9478668443
 20
248.4603587342
 30
0.0
 11
142.9689635585
 21
248.4481785406
 31
0.0
  0
LINE
  5
24A
330
1B6
100
AcDbEntity
  8
0-1MH
  6
Continuous
 62
     7
100
AcDbLine
 10
144.4267701301
 20
247.6065135241
 30
0.0
 11
144.4478668443
 21
247.5943333304
 31
0.0
  0
LINE
  5
24B
330
1B6
100
AcDbEntity
  8
0-1MH
  6
Continuous
 62
     7
100
AcDbLine
 10
144.4478668443
 20
247.5943333304
 30
0.0
 11
144.4478668443
 21
247.5699729432
 31
0.0
  0
LINE
  5
24C
330
1B6
100
AcDbEntity
  8
0-1MH
  6
Continuous
 62
     7
100
AcDbLine
 10
144.4478668443
 20
245.8866429102
 30
0.0
 11
144.4478668443
 21
245.8622825229
 31
0.0
  0
LINE
  5
24D
330
1B6
100
AcDbEntity
  8
0-1MH
  6
Continuous
 62
     7
100
AcDbLine
 10
144.4478668443
 20
245.8622825229
 30
0.0
 11
144.4267701301
 21
245.8501023292
 31
0.0
  0
LINE
  5
24E
330
1B6
100
AcDbEntity
  8
0-1MH
  6
Continuous
 62
     7
100
AcDbLine
 10
142.9689635585
 20
245.0084373127
 30
0.0
 11
142.9478668443
 21
244.9962571191
 31
0.0
  0
LINE
  5
24F
330
1B6
100
AcDbEntity
  8
0-1MH
  6
Continuous
 62
     7
100
AcDbLine
 10
142.9478668443
 20
244.9962571191
 30
0.0
 11
142.9267701301
 21
245.0084373127
 31
0.0
  0
LINE
  5
250
330
1B6
100
AcDbEntity
  8
0-1MH
  6
Continuous
 62
     7
100
AcDbLine
 10
141.4689635585
 20
245.8501023292
 30
0.0
 11
141.4478668443
 21
245.8622825229
 31
0.0
  0
LINE
  5
251
330
1B6
100
AcDbEntity
  8
0-1MH
  6
Continuous
 62
     7
100
AcDbLine
 10
141.4478668443
 20
245.8622825229
 30
0.0
 11
141.4478668443
 21
245.8866429102
 31
0.0
  0
LINE
  5
252
330
1B6
100
AcDbEntity
  8
0-1MH
  6
Continuous
 62
     7
100
AcDbLine
 10
141.4478668443
 20
247.5699729432
 30
0.0
 11
141.4478668443
 21
247.5943333304
 31
0.0
  0
LINE
  5
253
330
1B6
100
AcDbEntity
  8
0-1MH
  6
Continuous
 62
     7
100
AcDbLine
 10
141.4478668443
 20
247.5943333304
 30
0.0
 11
141.4689635585
 21
247.6065135241
 31
0.0
  0
LINE
  5
254
330
1B6
100
AcDbEntity
  8
0-1MH
  6
Continuous
 62
     7
100
AcDbLine
 10
142.9267701301
 20
248.4481785406
 30
0.0
 11
142.9478668443
 21
248.4603587342
 31
0.0
  0
CIRCLE
  5
255
330
1B6
100
AcDbEntity
  8
0-1MH
  6
Continuous
 62
     7
100
AcDbCircle
 10
142.9478668443
 20
215.2283079267
 30
0.0
 40
3.1
  0
CIRCLE
  5
256
330
1B6
100
AcDbEntity
  8
0-1MH
  6
Continuous
 62
     7
100
AcDbCircle
 10
142.9478668443
 20
215.2283079267
 30
0.0
 40
3.5
  0
ARC
  5
257
330
1B6
100
AcDbEntity
  8
0-1MH
  6
Continuous
 62
     7
100
AcDbCircle
 10
142.9478668443
 20
215.2283079267
 30
0.0
 40
1.719999999999998
100
AcDbArc
 50
30.7027808124
 51
89.2972191876
  0
LINE
  5
258
330
1B6
100
AcDbEntity
  8
0-1MH
  6
Continuous
 62
     7
100
AcDbLine
 10
144.4267701301
 20
216.1065135241
 30
0.0
 11
142.9689635585
 21
216.9481785406
 31
0.0
  0
ARC
  5
259
330
1B6
100
AcDbEntity
  8
0-1MH
  6
Continuous
 62
     7
100
AcDbCircle
 10
142.9478668443
 20
215.2283079267
 30
0.0
 40
1.719999999999996
100
AcDbArc
 50
330.7027808124
 51
29.2972191876
  0
LINE
  5
25A
330
1B6
100
AcDbEntity
  8
0-1MH
  6
Continuous
 62
     7
100
AcDbLine
 10
144.4478668443
 20
214.3866429102
 30
0.0
 11
144.4478668443
 21
216.0699729432
 31
0.0
  0
ARC
  5
25B
330
1B6
100
AcDbEntity
  8
0-1MH
  6
Continuous
 62
     7
100
AcDbCircle
 10
142.9478668443
 20
215.2283079267
 30
0.0
 40
1.719999999999998
100
AcDbArc
 50
270.7027808124
 51
329.2972191876
  0
LINE
  5
25C
330
1B6
100
AcDbEntity
  8
0-1MH
  6
Continuous
 62
     7
100
AcDbLine
 10
142.9689635585
 20
213.5084373127
 30
0.0
 11
144.4267701301
 21
214.3501023292
 31
0.0
  0
ARC
  5
25D
330
1B6
100
AcDbEntity
  8
0-1MH
  6
Continuous
 62
     7
100
AcDbCircle
 10
142.9478668443
 20
215.2283079267
 30
0.0
 40
1.719999999999997
100
AcDbArc
 50
210.7027808124
 51
269.2972191876
  0
LINE
  5
25E
330
1B6
100
AcDbEntity
  8
0-1MH
  6
Continuous
 62
     7
100
AcDbLine
 10
141.4689635585
 20
214.3501023292
 30
0.0
 11
142.9267701301
 21
213.5084373127
 31
0.0
  0
ARC
  5
25F
330
1B6
100
AcDbEntity
  8
0-1MH
  6
Continuous
 62
     7
100
AcDbCircle
 10
142.9478668443
 20
215.2283079267
 30
0.0
 40
1.720000000000003
100
AcDbArc
 50
150.7027808124
 51
209.2972191876
  0
LINE
  5
260
330
1B6
100
AcDbEntity
  8
0-1MH
  6
Continuous
 62
     7
100
AcDbLine
 10
141.4478668443
 20
216.0699729432
 30
0.0
 11
141.4478668443
 21
214.3866429102
 31
0.0
  0
ARC
  5
261
330
1B6
100
AcDbEntity
  8
0-1MH
  6
Continuous
 62
     7
100
AcDbCircle
 10
142.9478668443
 20
215.2283079267
 30
0.0
 40
1.720000000000001
100
AcDbArc
 50
90.7027808124
 51
149.2972191876
  0
LINE
  5
262
330
1B6
100
AcDbEntity
  8
0-1MH
  6
Continuous
 62
     7
100
AcDbLine
 10
142.9267701301
 20
216.9481785406
 30
0.0
 11
141.4689635585
 21
216.1065135241
 31
0.0
  0
LINE
  5
263
330
1B6
100
AcDbEntity
  8
0-1MH
  6
Continuous
 62
     7
100
AcDbLine
 10
142.9478668443
 20
216.9603587342
 30
0.0
 11
142.9689635585
 21
216.9481785406
 31
0.0
  0
LINE
  5
264
330
1B6
100
AcDbEntity
  8
0-1MH
  6
Continuous
 62
     7
100
AcDbLine
 10
144.4267701301
 20
216.1065135241
 30
0.0
 11
144.4478668443
 21
216.0943333304
 31
0.0
  0
LINE
  5
265
330
1B6
100
AcDbEntity
  8
0-1MH
  6
Continuous
 62
     7
100
AcDbLine
 10
144.4478668443
 20
216.0943333304
 30
0.0
 11
144.4478668443
 21
216.0699729432
 31
0.0
  0
LINE
  5
266
330
1B6
100
AcDbEntity
  8
0-1MH
  6
Continuous
 62
     7
100
AcDbLine
 10
144.4478668443
 20
214.3866429102
 30
0.0
 11
144.4478668443
 21
214.3622825229
 31
0.0
  0
LINE
  5
267
330
1B6
100
AcDbEntity
  8
0-1MH
  6
Continuous
 62
     7
100
AcDbLine
 10
144.4478668443
 20
214.3622825229
 30
0.0
 11
144.4267701301
 21
214.3501023292
 31
0.0
  0
LINE
  5
268
330
1B6
100
AcDbEntity
  8
0-1MH
  6
Continuous
 62
     7
100
AcDbLine
 10
142.9689635585
 20
213.5084373127
 30
0.0
 11
142.9478668443
 21
213.4962571191
 31
0.0
  0
LINE
  5
269
330
1B6
100
AcDbEntity
  8
0-1MH
  6
Continuous
 62
     7
100
AcDbLine
 10
142.9478668443
 20
213.4962571191
 30
0.0
 11
142.9267701301
 21
213.5084373127
 31
0.0
  0
LINE
  5
26A
330
1B6
100
AcDbEntity
  8
0-1MH
  6
Continuous
 62
     7
100
AcDbLine
 10
141.4689635585
 20
214.3501023292
 30
0.0
 11
141.4478668443
 21
214.3622825229
 31
0.0
  0
LINE
  5
26B
330
1B6
100
AcDbEntity
  8
0-1MH
  6
Continuous
 62
     7
100
AcDbLine
 10
141.4478668443
 20
214.3622825229
 30
0.0
 11
141.4478668443
 21
214.3866429102
 31
0.0
  0
LINE
  5
26C
330
1B6
100
AcDbEntity
  8
0-1MH
  6
Continuous
 62
     7
100
AcDbLine
 10
141.4478668443
 20
216.0699729432
 30
0.0
 11
141.4478668443
 21
216.0943333304
 31
0.0
  0
LINE
  5
26D
330
1B6
100
AcDbEntity
  8
0-1MH
  6
Continuous
 62
     7
100
AcDbLine
 10
141.4478668443
 20
216.0943333304
 30
0.0
 11
141.4689635585
 21
216.1065135241
 31
0.0
  0
LINE
  5
26E
330
1B6
100
AcDbEntity
  8
0-1MH
  6
Continuous
 62
     7
100
AcDbLine
 10
142.9267701301
 20
216.9481785406
 30
0.0
 11
142.9478668443
 21
216.9603587342
 31
0.0
  0
CIRCLE
  5
26F
330
1B6
100
AcDbEntity
  8
0-1MH
  6
Continuous
 62
     7
100
AcDbCircle
 10
142.9478668443
 20
183.7283079267
 30
0.0
 40
3.1
  0
CIRCLE
  5
270
330
1B6
100
AcDbEntity
  8
0-1MH
  6
Continuous
 62
     7
100
AcDbCircle
 10
142.9478668443
 20
183.7283079267
 30
0.0
 40
3.5
  0
ARC
  5
271
330
1B6
100
AcDbEntity
  8
0-1MH
  6
Continuous
 62
     7
100
AcDbCircle
 10
142.9478668443
 20
183.7283079267
 30
0.0
 40
1.719999999999998
100
AcDbArc
 50
30.7027808124
 51
89.2972191876
  0
LINE
  5
272
330
1B6
100
AcDbEntity
  8
0-1MH
  6
Continuous
 62
     7
100
AcDbLine
 10
144.4267701301
 20
184.6065135241
 30
0.0
 11
142.9689635585
 21
185.4481785406
 31
0.0
  0
ARC
  5
273
330
1B6
100
AcDbEntity
  8
0-1MH
  6
Continuous
 62
     7
100
AcDbCircle
 10
142.9478668443
 20
183.7283079267
 30
0.0
 40
1.719999999999996
100
AcDbArc
 50
330.7027808124
 51
29.2972191876
  0
LINE
  5
274
330
1B6
100
AcDbEntity
  8
0-1MH
  6
Continuous
 62
     7
100
AcDbLine
 10
144.4478668443
 20
182.8866429102
 30
0.0
 11
144.4478668443
 21
184.5699729432
 31
0.0
  0
ARC
  5
275
330
1B6
100
AcDbEntity
  8
0-1MH
  6
Continuous
 62
     7
100
AcDbCircle
 10
142.9478668443
 20
183.7283079267
 30
0.0
 40
1.719999999999998
100
AcDbArc
 50
270.7027808124
 51
329.2972191876
  0
LINE
  5
276
330
1B6
100
AcDbEntity
  8
0-1MH
  6
Continuous
 62
     7
100
AcDbLine
 10
142.9689635585
 20
182.0084373127
 30
0.0
 11
144.4267701301
 21
182.8501023292
 31
0.0
  0
ARC
  5
277
330
1B6
100
AcDbEntity
  8
0-1MH
  6
Continuous
 62
     7
100
AcDbCircle
 10
142.9478668443
 20
183.7283079267
 30
0.0
 40
1.719999999999997
100
AcDbArc
 50
210.7027808124
 51
269.2972191876
  0
LINE
  5
278
330
1B6
100
AcDbEntity
  8
0-1MH
  6
Continuous
 62
     7
100
AcDbLine
 10
141.4689635585
 20
182.8501023292
 30
0.0
 11
142.9267701301
 21
182.0084373127
 31
0.0
  0
ARC
  5
279
330
1B6
100
AcDbEntity
  8
0-1MH
  6
Continuous
 62
     7
100
AcDbCircle
 10
142.9478668443
 20
183.7283079267
 30
0.0
 40
1.720000000000003
100
AcDbArc
 50
150.7027808124
 51
209.2972191876
  0
LINE
  5
27A
330
1B6
100
AcDbEntity
  8
0-1MH
  6
Continuous
 62
     7
100
AcDbLine
 10
141.4478668443
 20
184.5699729432
 30
0.0
 11
141.4478668443
 21
182.8866429102
 31
0.0
  0
ARC
  5
27B
330
1B6
100
AcDbEntity
  8
0-1MH
  6
Continuous
 62
     7
100
AcDbCircle
 10
142.9478668443
 20
183.7283079267
 30
0.0
 40
1.720000000000001
100
AcDbArc
 50
90.7027808124
 51
149.2972191876
  0
LINE
  5
27C
330
1B6
100
AcDbEntity
  8
0-1MH
  6
Continuous
 62
     7
100
AcDbLine
 10
142.9267701301
 20
185.4481785406
 30
0.0
 11
141.4689635585
 21
184.6065135241
 31
0.0
  0
LINE
  5
27D
330
1B6
100
AcDbEntity
  8
0-1MH
  6
Continuous
 62
     7
100
AcDbLine
 10
142.9478668443
 20
185.4603587342
 30
0.0
 11
142.9689635585
 21
185.4481785406
 31
0.0
  0
LINE
  5
27E
330
1B6
100
AcDbEntity
  8
0-1MH
  6
Continuous
 62
     7
100
AcDbLine
 10
144.4267701301
 20
184.6065135241
 30
0.0
 11
144.4478668443
 21
184.5943333304
 31
0.0
  0
LINE
  5
27F
330
1B6
100
AcDbEntity
  8
0-1MH
  6
Continuous
 62
     7
100
AcDbLine
 10
144.4478668443
 20
184.5943333304
 30
0.0
 11
144.4478668443
 21
184.5699729432
 31
0.0
  0
LINE
  5
280
330
1B6
100
AcDbEntity
  8
0-1MH
  6
Continuous
 62
     7
100
AcDbLine
 10
144.4478668443
 20
182.8866429102
 30
0.0
 11
144.4478668443
 21
182.8622825229
 31
0.0
  0
LINE
  5
281
330
1B6
100
AcDbEntity
  8
0-1MH
  6
Continuous
 62
     7
100
AcDbLine
 10
144.4478668443
 20
182.8622825229
 30
0.0
 11
144.4267701301
 21
182.8501023292
 31
0.0
  0
LINE
  5
282
330
1B6
100
AcDbEntity
  8
0-1MH
  6
Continuous
 62
     7
100
AcDbLine
 10
142.9689635585
 20
182.0084373127
 30
0.0
 11
142.9478668443
 21
181.9962571191
 31
0.0
  0
LINE
  5
283
330
1B6
100
AcDbEntity
  8
0-1MH
  6
Continuous
 62
     7
100
AcDbLine
 10
142.9478668443
 20
181.9962571191
 30
0.0
 11
142.9267701301
 21
182.0084373127
 31
0.0
  0
LINE
  5
284
330
1B6
100
AcDbEntity
  8
0-1MH
  6
Continuous
 62
     7
100
AcDbLine
 10
141.4689635585
 20
182.8501023292
 30
0.0
 11
141.4478668443
 21
182.8622825229
 31
0.0
  0
LINE
  5
285
330
1B6
100
AcDbEntity
  8
0-1MH
  6
Continuous
 62
     7
100
AcDbLine
 10
141.4478668443
 20
182.8622825229
 30
0.0
 11
141.4478668443
 21
182.8866429102
 31
0.0
  0
LINE
  5
286
330
1B6
100
AcDbEntity
  8
0-1MH
  6
Continuous
 62
     7
100
AcDbLine
 10
141.4478668443
 20
184.5699729432
 30
0.0
 11
141.4478668443
 21
184.5943333304
 31
0.0
  0
LINE
  5
287
330
1B6
100
AcDbEntity
  8
0-1MH
  6
Continuous
 62
     7
100
AcDbLine
 10
141.4478668443
 20
184.5943333304
 30
0.0
 11
141.4689635585
 21
184.6065135241
 31
0.0
  0
LINE
  5
288
330
1B6
100
AcDbEntity
  8
0-1MH
  6
Continuous
 62
     7
100
AcDbLine
 10
142.9267701301
 20
185.4481785406
 30
0.0
 11
142.9478668443
 21
185.4603587342
 31
0.0
  0
LINE
  5
289
330
1B6
100
AcDbEntity
  8
0-1MH
  6
Continuous
 62
     7
100
AcDbLine
 10
47.7478668443
 20
197.7283079267
 30
0.0
 11
72.9478668443
 21
197.7283079267
 31
0.0
  0
LINE
  5
28A
330
1B6
100
AcDbEntity
  8
0-1MH
  6
Continuous
 62
     7
100
AcDbLine
 10
49.4478668443
 20
207.7283079267
 30
0.0
 11
47.7478668443
 21
207.7283079267
 31
0.0
  0
LINE
  5
28B
330
1B6
100
AcDbEntity
  8
0-1MH
  6
Continuous
 62
     7
100
AcDbLine
 10
72.9478668443
 20
207.7283079267
 30
0.0
 11
69.4478668443
 21
207.7283079267
 31
0.0
  0
LINE
  5
28C
330
1B6
100
AcDbEntity
  8
0-1MH
  6
Continuous
 62
     7
100
AcDbLine
 10
47.7478668443
 20
207.7283079267
 30
0.0
 11
46.9478668443
 21
206.9283079267
 31
0.0
  0
LINE
  5
28D
330
1B6
100
AcDbEntity
  8
0-1MH
  6
Continuous
 62
     7
100
AcDbLine
 10
46.9478668443
 20
198.5283079267
 30
0.0
 11
47.7478668443
 21
197.7283079267
 31
0.0
  0
LINE
  5
28E
330
1B6
100
AcDbEntity
  8
0-1MH
  6
Continuous
 62
     7
100
AcDbLine
 10
73.9478668443
 20
195.7283079267
 30
0.0
 11
80.4478668443
 21
195.7283079267
 31
0.0
  0
LINE
  5
28F
330
1B6
100
AcDbEntity
  8
0-1MH
  6
Continuous
 62
     7
100
AcDbLine
 10
80.4478668443
 20
209.7283079267
 30
0.0
 11
73.9478668443
 21
209.7283079267
 31
0.0
  0
LINE
  5
290
330
1B6
100
AcDbEntity
  8
0-1MH
  6
Continuous
 62
     7
100
AcDbLine
 10
73.9478668443
 20
209.7283079267
 30
0.0
 11
72.9478668443
 21
209.4603587342
 31
0.0
  0
LINE
  5
291
330
1B6
100
AcDbEntity
  8
0-1MH
  6
Continuous
 62
     7
100
AcDbLine
 10
72.9478668443
 20
195.9962571191
 30
0.0
 11
73.9478668443
 21
195.7283079267
 31
0.0
  0
ENDBLK
  5
293
330
1B6
100
AcDbEntity
  8
0
100
AcDbBlockEnd
  0
BLOCK
  5
3B3
330
294
100
AcDbEntity
  8
0
100
AcDbBlockBegin
  2
SE5
 70
     0
 10
0.0
 20
0.0
 30
0.0
  3
SE5
  1

  0
ELLIPSE
  5
296
330
294
100
AcDbEntity
  8
0-1MH
  6
Continuous
 62
     7
100
AcDbEllipse
 10
539.2561360323
 20
63.6837624669
 30
0.0
 11
12.9999999999989
 21
22.51666049839604
 31
0.0
210
0.0
220
0.0
230
1.0
 40
0.5773502692
 41
2.971151094047083
 42
4.518875787873904
  0
ELLIPSE
  5
297
330
294
100
AcDbEntity
  8
0-1MH
  6
Continuous
 62
     7
100
AcDbEllipse
 10
536.71055162
 20
65.1534563125
 30
0.0
 11
12.99999999999713
 21
22.51666049839472
 31
0.0
210
0.0
220
0.0
230
1.0
 40
0.5773502692
 41
5.970072805045643
 42
6.112743747636872
  0
LINE
  5
298
330
294
100
AcDbEntity
  8
0-1MH
  6
Continuous
 62
     7
100
AcDbLine
 10
551.7272090377
 20
86.0707762289
 30
0.0
 11
554.27279345
 21
84.6010823832
 31
0.0
  0
ELLIPSE
  5
299
330
294
100
AcDbEntity
  8
0-1MH
  6
Continuous
 62
     7
100
AcDbEllipse
 10
539.2561360323
 20
63.6837624669
 30
0.0
 11
-12.99999999999888
 21
-22.51666049839605
 31
0.0
210
0.0
220
0.0
230
0.9999999999999998
 40
0.5773502692
 41
2.971151094047112
 42
4.882830539927202
  0
ELLIPSE
  5
29A
330
294
100
AcDbEntity
  8
0-1MH
  6
Continuous
 62
     7
100
AcDbEllipse
 10
536.4277089075
 20
65.3167556287
 30
0.0
 11
-12.99999999999889
 21
-22.51666049839605
 31
0.0
210
0.0
220
0.0
230
0.9999999999999999
 40
0.5773502692
 41
0.1090013767992782
 42
0.2977111228304876
  0
ELLIPSE
  5
29B
330
294
100
AcDbEntity
  8
0-1MH
  6
Continuous
 62
     7
100
AcDbEllipse
 10
536.4277089075
 20
65.3167556287
 30
0.0
 11
-12.99999999999889
 21
-22.51666049839605
 31
0.0
210
0.0
220
0.0
230
0.9999999999999999
 40
0.5773502692
 41
2.843881592166138
 42
3.032591276790557
  0
LINE
  5
29C
330
294
100
AcDbEntity
  8
0-1MH
  6
Continuous
 62
     7
100
AcDbLine
 10
521.6938942023
 20
44.2361363962
 30
0.0
 11
524.2394786146
 21
42.7664425505
 31
0.0
  0
ELLIPSE
  5
29D
330
294
100
AcDbEntity
  8
0-1MH
  6
Continuous
 62
     7
100
AcDbEllipse
 10
536.71055162
 20
65.1534563125
 30
0.0
 11
-12.99999999999766
 21
-22.51666049839512
 31
0.0
210
0.0
220
0.0
230
1.0
 40
0.5773502692
 41
5.497787143782016
 42
6.112743747636886
  0
ELLIPSE
  5
29E
330
294
100
AcDbEntity
  8
0-1MH
  6
Continuous
 62
     7
100
AcDbEllipse
 10
525.1140004085
 20
95.5271291231
 30
0.0
 11
-1.299999999999891
 21
-2.251666049839604
 31
0.0
210
0.0
220
0.0
230
1.0
 40
0.5773502692
 41
0.0
 42
6.283185307179586
  0
ELLIPSE
  5
29F
330
294
100
AcDbEntity
  8
0-1MH
  6
Continuous
 62
     7
100
AcDbEllipse
 10
553.398271656
 20
111.8570607416
 30
0.0
 11
-1.299999999999888
 21
-2.251666049839604
 31
0.0
210
0.0
220
0.0
230
1.0
 40
0.5773502692
 41
0.0
 42
6.283185307179586
  0
LINE
  5
2A0
330
294
100
AcDbEntity
  8
0-1MH
  6
Continuous
 62
     7
100
AcDbLine
 10
522.2855732838
 20
97.1601222849
 30
0.0
 11
522.2855732838
 21
66.1332522097
 31
0.0
  0
LINE
  5
2A1
330
294
100
AcDbEntity
  8
0-1MH
  6
Continuous
 62
     7
100
AcDbLine
 10
557.6409123431
 20
117.5725368081
 30
0.0
 11
522.2855732838
 21
97.1601222849
 31
0.0
  0
LINE
  5
2A2
330
294
100
AcDbEntity
  8
0-1MH
  6
Continuous
 62
     7
100
AcDbLine
 10
557.6409123431
 20
117.5725368081
 30
0.0
 11
557.6409123431
 21
86.5456667328
 31
0.0
  0
LINE
  5
2A3
330
294
100
AcDbEntity
  8
0-1MH
  6
Continuous
 62
     7
100
AcDbLine
 10
557.6409123431
 20
86.5456667328
 30
0.0
 11
554.27279345
 21
84.6010823832
 31
0.0
  0
LINE
  5
2A4
330
294
100
AcDbEntity
  8
0-1MH
  6
Continuous
 62
     7
100
AcDbLine
 10
524.2394786146
 20
67.2613399784
 30
0.0
 11
522.2855732838
 21
66.1332522097
 31
0.0
  0
LINE
  5
2A5
330
294
100
AcDbEntity
  8
0-1MH
  6
Continuous
 62
     7
100
AcDbLine
 10
555.0953279309
 20
63.5204631507
 30
0.0
 11
554.449125734
 21
63.1473781384
 31
0.0
  0
LINE
  5
2A6
330
294
100
AcDbEntity
  8
0-1MH
  6
Continuous
 62
     7
100
AcDbLine
 10
555.0953279309
 20
65.0477552341
 30
0.0
 11
555.0953279309
 21
63.5204631507
 31
0.0
  0
LINE
  5
2A7
330
294
100
AcDbEntity
  8
0-1MH
  6
Continuous
 62
     7
100
AcDbLine
 10
555.0953279309
 20
85.0759728872
 30
0.0
 11
555.0953279309
 21
81.4257898189
 31
0.0
  0
LINE
  5
2A8
330
294
100
AcDbEntity
  8
0-1MH
  6
Continuous
 62
     7
100
AcDbLine
 10
557.6409123431
 20
62.050769305
 30
0.0
 11
557.2873589525
 21
62.2548934502
 31
0.0
  0
LINE
  5
2A9
330
294
100
AcDbEntity
  8
0-1MH
  6
Continuous
 62
     7
100
AcDbLine
 10
554.8627377501
 20
60.4467894559
 30
0.0
 11
557.6409123431
 21
62.050769305
 31
0.0
  0
ELLIPSE
  5
2AA
330
294
100
AcDbEntity
  8
0-1MH
  6
Continuous
 62
     7
100
AcDbEllipse
 10
525.1140004085
 20
35.9228787153
 30
0.0
 11
-1.299999999999887
 21
-2.251666049839608
 31
0.0
210
0.0
220
0.0
230
1.0
 40
0.5773502692
 41
0.0
 42
6.283185307179586
  0
ELLIPSE
  5
2AB
330
294
100
AcDbEntity
  8
0-1MH
  6
Continuous
 62
     7
100
AcDbEllipse
 10
553.398271656
 20
52.2528103339
 30
0.0
 11
-1.299999999999886
 21
-2.251666049839609
 31
0.0
210
0.0
220
0.0
230
1.0
 40
0.5773502692
 41
0.0
 42
0.5822629897026242
  0
ELLIPSE
  5
2AC
330
294
100
AcDbEntity
  8
0-1MH
  6
Continuous
 62
     7
100
AcDbEllipse
 10
553.398271656
 20
52.2528103339
 30
0.0
 11
-1.299999999999886
 21
-2.251666049839609
 31
0.0
210
0.0
220
0.0
230
1.0
 40
0.5773502692
 41
5.700922317476929
 42
6.283185307179586
  0
LINE
  5
2AD
330
294
100
AcDbEntity
  8
0-1MH
  6
Continuous
 62
     7
100
AcDbLine
 10
554.0551259055
 20
49.3660589879
 30
0.0
 11
522.2855732838
 21
31.0238992298
 31
0.0
  0
LINE
  5
2AE
330
294
100
AcDbEntity
  8
0-1MH
  6
Continuous
 62
     7
100
AcDbLine
 10
522.2855732838
 20
41.6383547818
 30
0.0
 11
522.2855732838
 21
31.0238992298
 31
0.0
  0
LINE
  5
2AF
330
294
100
AcDbEntity
  8
0-1MH
  6
Continuous
 62
     7
100
AcDbLine
 10
522.2855732838
 20
41.6383547818
 30
0.0
 11
524.2394786146
 21
42.7664425505
 31
0.0
  0
LINE
  5
2B0
330
294
100
AcDbEntity
  8
0-1MH
  6
Continuous
 62
     7
100
AcDbLine
 10
557.6409123431
 20
62.050769305
 30
0.0
 11
557.6409123431
 21
58.8428096067
 31
0.0
  0
LINE
  5
2B1
330
294
100
AcDbEntity
  8
0-1MH
  6
Continuous
 62
     7
100
AcDbLine
 10
521.6938942023
 20
44.2361363962
 30
0.0
 11
518.3257753092
 21
42.2915520466
 31
0.0
  0
LINE
  5
2B2
330
294
100
AcDbEntity
  8
0-1MH
  6
Continuous
 62
     7
100
AcDbLine
 10
522.2855732838
 20
41.6383547818
 30
0.0
 11
519.4571461591
 21
41.6383547818
 31
0.0
  0
LINE
  5
2B3
330
294
100
AcDbEntity
  8
0-1MH
  6
Continuous
 62
     7
100
AcDbLine
 10
519.4571461591
 20
41.6383547818
 30
0.0
 11
518.3257753092
 21
42.2915520466
 31
0.0
  0
ELLIPSE
  5
2B4
330
294
100
AcDbEntity
  8
0-1MH
  6
Continuous
 62
     7
100
AcDbEllipse
 10
536.71055162
 20
65.1534563125
 30
0.0
 11
-12.99999999999955
 21
-22.5166604983964
 31
0.0
210
0.0
220
0.0
230
1.0
 40
0.5773502692
 41
4.992846545958045
 42
5.497787143782064
  0
LINE
  5
2B5
330
294
100
AcDbEntity
  8
0-1MH
  6
Continuous
 62
     7
100
AcDbLine
 10
518.3257753092
 20
66.7864494744
 30
0.0
 11
518.3257753092
 21
54.5390007605
 31
0.0
  0
LINE
  5
2B6
330
294
100
AcDbEntity
  8
0-1MH
  6
Continuous
 62
     7
100
AcDbLine
 10
518.3257753092
 20
54.5390007605
 30
0.0
 11
518.3257753092
 21
42.2915520466
 31
0.0
  0
LINE
  5
2B7
330
294
100
AcDbEntity
  8
0-1MH
  6
Continuous
 62
     7
100
AcDbLine
 10
518.3257753092
 20
66.7864494744
 30
0.0
 11
519.4571461591
 21
66.1332522097
 31
0.0
  0
LINE
  5
2B8
330
294
100
AcDbEntity
  8
0-1MH
  6
Continuous
 62
     7
100
AcDbLine
 10
519.4571461591
 20
66.1332522097
 30
0.0
 11
522.2855732838
 21
66.1332522097
 31
0.0
  0
ELLIPSE
  5
2B9
330
294
100
AcDbEntity
  8
0-1MH
  6
Continuous
 62
     7
100
AcDbEllipse
 10
524.760447018
 20
95.7312532683
 30
0.0
 11
-1.049999999999911
 21
-1.818653347947374
 31
0.0
210
0.0
220
0.0
230
1.0
 40
0.5773502692
 41
0.0
 42
3.814071949689507
  0
ELLIPSE
  5
2BA
330
294
100
AcDbEntity
  8
0-1MH
  6
Continuous
 62
     7
100
AcDbEllipse
 10
524.760447018
 20
95.7312532683
 30
0.0
 11
-1.049999999999911
 21
-1.818653347947374
 31
0.0
210
0.0
220
0.0
230
1.0
 40
0.5773502692
 41
5.610706011079845
 42
6.283185307179586
  0
ELLIPSE
  5
2BB
330
294
100
AcDbEntity
  8
0-1MH
  6
Continuous
 62
     7
100
AcDbEllipse
 10
553.0447182654
 20
112.0611848868
 30
0.0
 11
-1.049999999999909
 21
-1.818653347947374
 31
0.0
210
0.0
220
0.0
230
1.0
 40
0.5773502692
 41
0.0
 42
3.814071949161794
  0
ELLIPSE
  5
2BC
330
294
100
AcDbEntity
  8
0-1MH
  6
Continuous
 62
     7
100
AcDbEllipse
 10
553.0447182654
 20
112.0611848868
 30
0.0
 11
-1.049999999999909
 21
-1.818653347947374
 31
0.0
210
0.0
220
0.0
230
1.0
 40
0.5773502692
 41
5.610706011534845
 42
6.283185307179586
  0
LINE
  5
2BD
330
294
100
AcDbEntity
  8
0-1MH
  6
Continuous
 62
     7
100
AcDbLine
 10
519.4571461591
 20
97.1601222849
 30
0.0
 11
520.8713597214
 21
97.9766188658
 31
0.0
  0
LINE
  5
2BE
330
294
100
AcDbEntity
  8
0-1MH
  6
Continuous
 62
     7
100
AcDbLine
 10
522.2855732838
 20
97.1601222849
 30
0.0
 11
520.8713597214
 21
97.9766188658
 31
0.0
  0
LINE
  5
2BF
330
294
100
AcDbEntity
  8
0-1MH
  6
Continuous
 62
     7
100
AcDbLine
 10
519.4571461591
 20
97.1601222849
 30
0.0
 11
519.4571461591
 21
66.1332522097
 31
0.0
  0
LINE
  5
2C0
330
294
100
AcDbEntity
  8
0-1MH
  6
Continuous
 62
     7
100
AcDbLine
 10
556.2266987808
 20
120.0220265509
 30
0.0
 11
557.6409123431
 21
117.5725368081
 31
0.0
  0
LINE
  5
2C1
330
294
100
AcDbEntity
  8
0-1MH
  6
Continuous
 62
     7
100
AcDbLine
 10
520.8713597214
 20
97.9766188658
 30
0.0
 11
520.8713597214
 21
99.6096120277
 31
0.0
  0
LINE
  5
2C2
330
294
100
AcDbEntity
  8
0-1MH
  6
Continuous
 62
     7
100
AcDbLine
 10
520.8713597214
 20
99.6096120277
 30
0.0
 11
556.2266987808
 21
120.0220265509
 31
0.0
  0
LINE
  5
2C3
330
294
100
AcDbEntity
  8
0-1MH
  6
Continuous
 62
     7
100
AcDbLine
 10
506.0221173165
 20
149.0076551738
 30
0.0
 11
556.2266987808
 21
120.0220265509
 31
0.0
  0
ELLIPSE
  5
2C4
330
294
100
AcDbEntity
  8
0-1MH
  6
Continuous
 62
     7
100
AcDbEllipse
 10
524.760447018
 20
36.1270028606
 30
0.0
 11
-1.049999999999912
 21
-1.818653347947375
 31
0.0
210
0.0
220
0.0
230
1.0
 40
0.5773502692
 41
0.0
 42
3.814071949671413
  0
ELLIPSE
  5
2C5
330
294
100
AcDbEntity
  8
0-1MH
  6
Continuous
 62
     7
100
AcDbEllipse
 10
524.760447018
 20
36.1270028606
 30
0.0
 11
-1.049999999999912
 21
-1.818653347947375
 31
0.0
210
0.0
220
0.0
230
1.0
 40
0.5773502692
 41
5.610706011101061
 42
6.283185307179586
  0
LINE
  5
2C6
330
294
100
AcDbEntity
  8
0-1MH
  6
Continuous
 62
     7
100
AcDbLine
 10
522.2855732838
 20
31.0238992298
 30
0.0
 11
520.8713597214
 21
30.2074026488
 31
0.0
  0
LINE
  5
2C7
330
294
100
AcDbEntity
  8
0-1MH
  6
Continuous
 62
     7
100
AcDbLine
 10
519.4571461591
 20
31.0238992298
 30
0.0
 11
520.8713597214
 21
30.2074026488
 31
0.0
  0
LINE
  5
2C8
330
294
100
AcDbEntity
  8
0-1MH
  6
Continuous
 62
     7
100
AcDbLine
 10
519.4571461591
 20
41.6383547818
 30
0.0
 11
519.4571461591
 21
31.0238992298
 31
0.0
  0
LINE
  5
2C9
330
294
100
AcDbEntity
  8
0-1MH
  6
Continuous
 62
     7
100
AcDbLine
 10
469.2525646948
 20
70.6239834048
 30
0.0
 11
469.2525646948
 21
60.0095278527
 31
0.0
  0
LINE
  5
2CA
330
294
100
AcDbEntity
  8
0-1MH
  6
Continuous
 62
     7
100
AcDbLine
 10
470.3839355447
 20
69.97078614
 30
0.0
 11
469.2525646948
 21
70.6239834048
 31
0.0
  0
LINE
  5
2CB
330
294
100
AcDbEntity
  8
0-1MH
  6
Continuous
 62
     7
100
AcDbLine
 10
470.3839355447
 20
82.2182348539
 30
0.0
 11
470.3839355447
 21
94.4656835678
 31
0.0
  0
LINE
  5
2CC
330
294
100
AcDbEntity
  8
0-1MH
  6
Continuous
 62
     7
100
AcDbLine
 10
469.2525646948
 20
95.1188808326
 30
0.0
 11
470.3839355447
 21
94.4656835678
 31
0.0
  0
LINE
  5
2CD
330
294
100
AcDbEntity
  8
0-1MH
  6
Continuous
 62
     7
100
AcDbLine
 10
469.2525646948
 20
126.1457509078
 30
0.0
 11
469.2525646948
 21
95.1188808326
 31
0.0
  0
LINE
  5
2CE
330
294
100
AcDbEntity
  8
0-1MH
  6
Continuous
 62
     7
100
AcDbLine
 10
469.2525646948
 20
126.1457509078
 30
0.0
 11
519.4571461591
 21
97.1601222849
 31
0.0
  0
LINE
  5
2CF
330
294
100
AcDbEntity
  8
0-1MH
  6
Continuous
 62
     7
100
AcDbLine
 10
519.4571461591
 20
31.0238992298
 30
0.0
 11
469.2525646948
 21
60.0095278527
 31
0.0
  0
LINE
  5
2D0
330
294
100
AcDbEntity
  8
0-1MH
  6
Continuous
 62
     7
100
AcDbLine
 10
469.2525646948
 20
126.1457509078
 30
0.0
 11
469.2525646948
 21
127.7787440697
 31
0.0
  0
LINE
  5
2D1
330
294
100
AcDbEntity
  8
0-1MH
  6
Continuous
 62
     7
100
AcDbLine
 10
470.6667782572
 20
128.5952406506
 30
0.0
 11
469.2525646948
 21
127.7787440697
 31
0.0
  0
LINE
  5
2D2
330
294
100
AcDbEntity
  8
0-1MH
  6
Continuous
 62
     7
100
AcDbLine
 10
470.6667782572
 20
128.5952406506
 30
0.0
 11
520.8713597214
 21
99.6096120277
 31
0.0
  0
ELLIPSE
  5
2D3
330
294
100
AcDbEntity
  8
0-1MH
  6
Continuous
 62
     7
100
AcDbEllipse
 10
543.1452233288
 20
116.9601643724
 30
0.0
 11
-2.6
 21
7.372574772901430E-15
 31
0.0
210
0.0
220
0.0
230
1.0
 40
0.5773502692
 41
0.0
 42
6.283185307179586
  0
ELLIPSE
  5
2D4
330
294
100
AcDbEntity
  8
0-1MH
  6
Continuous
 62
     7
100
AcDbEllipse
 10
482.3340401468
 20
130.8406062482
 30
0.0
 11
-2.6
 21
1.084202172485504E-16
 31
0.0
210
0.0
220
0.0
230
1.0
 40
0.5773502692
 41
0.0
 42
6.283185307179586
  0
ELLIPSE
  5
2D5
330
294
100
AcDbEntity
  8
0-1MH
  6
Continuous
 62
     7
100
AcDbEllipse
 10
524.760447018
 20
106.3457088204
 30
0.0
 11
-2.600000000000001
 21
1.192622389734055E-15
 31
0.0
210
0.0
220
0.0
230
1.0
 40
0.5773502692
 41
0.0
 42
6.283185307179586
  0
ELLIPSE
  5
2D6
330
294
100
AcDbEntity
  8
0-1MH
  6
Continuous
 62
     7
100
AcDbEllipse
 10
500.7188164576
 20
141.4550618002
 30
0.0
 11
-2.6
 21
1.084202172485504E-16
 31
0.0
210
0.0
220
0.0
230
1.0
 40
0.5773502692
 41
0.0
 42
6.283185307179586
  0
LINE
  5
2D7
330
294
100
AcDbEntity
  8
0-1MH
  6
Continuous
 62
     7
100
AcDbLine
 10
470.6667782572
 20
128.5952406506
 30
0.0
 11
506.0221173165
 21
149.0076551738
 31
0.0
  0
LINE
  5
2D8
330
294
100
AcDbEntity
  8
0-1MH
  6
Continuous
 62
     7
100
AcDbLine
 10
469.2525646948
 20
72.2569765666
 30
0.0
 11
470.3839355447
 21
72.9101738314
 31
0.0
  0
LINE
  5
2D9
330
294
100
AcDbEntity
  8
0-1MH
  6
Continuous
 62
     7
100
AcDbLine
 10
469.2525646948
 20
72.2569765666
 30
0.0
 11
469.2525646948
 21
70.6239834048
 31
0.0
  0
LINE
  5
2DA
330
294
100
AcDbEntity
  8
0-1MH
  6
Continuous
 62
     7
100
AcDbLine
 10
470.3839355447
 20
69.97078614
 30
0.0
 11
470.3839355447
 21
82.2182348539
 31
0.0
  0
ELLIPSE
  5
2DB
330
294
100
AcDbEntity
  8
0-1MH
  6
Continuous
 62
     7
100
AcDbEllipse
 10
543.1452233288
 20
116.5519160819
 30
0.0
 11
-2.1
 21
7.589415207398531E-16
 31
0.0
210
0.0
220
0.0
230
1.0
 40
0.5773502692
 41
0.0000000000000006
 42
0.6724792961187288
  0
ELLIPSE
  5
2DC
330
294
100
AcDbEntity
  8
0-1MH
  6
Continuous
 62
     7
100
AcDbEllipse
 10
543.1452233288
 20
116.5519160819
 30
0.0
 11
-2.1
 21
7.589415207398531E-16
 31
0.0
210
0.0
220
0.0
230
1.0
 40
0.5773502692
 41
2.469113357464286
 42
6.283185307179586
  0
ELLIPSE
  5
2DD
330
294
100
AcDbEntity
  8
0-1MH
  6
Continuous
 62
     7
100
AcDbEllipse
 10
482.3340401468
 20
130.4323579577
 30
0.0
 11
-2.100000000000001
 21
0.0
 31
0.0
210
0.0
220
0.0
230
1.0
 40
0.5773502692
 41
0.0
 42
0.6724792964269878
  0
ELLIPSE
  5
2DE
330
294
100
AcDbEntity
  8
0-1MH
  6
Continuous
 62
     7
100
AcDbEllipse
 10
482.3340401468
 20
130.4323579577
 30
0.0
 11
-2.100000000000001
 21
0.0
 31
0.0
210
0.0
220
0.0
230
1.0
 40
0.5773502692
 41
2.469113357213429
 42
6.283185307179586
  0
ELLIPSE
  5
2DF
330
294
100
AcDbEntity
  8
0-1MH
  6
Continuous
 62
     7
100
AcDbEllipse
 10
524.760447018
 20
105.9374605299
 30
0.0
 11
-2.100000000000001
 21
1.301042606982605E-15
 31
0.0
210
0.0
220
0.0
230
1.0
 40
0.5773502692
 41
0.0
 42
0.6724792960996107
  0
ELLIPSE
  5
2E0
330
294
100
AcDbEntity
  8
0-1MH
  6
Continuous
 62
     7
100
AcDbEllipse
 10
524.760447018
 20
105.9374605299
 30
0.0
 11
-2.100000000000001
 21
1.301042606982605E-15
 31
0.0
210
0.0
220
0.0
230
1.0
 40
0.5773502692
 41
2.469113357490183
 42
6.283185307179586
  0
ELLIPSE
  5
2E1
330
294
100
AcDbEntity
  8
0-1MH
  6
Continuous
 62
     7
100
AcDbEllipse
 10
500.7188164576
 20
141.0468135098
 30
0.0
 11
-2.100000000000001
 21
3.252606517456513E-16
 31
0.0
210
0.0
220
0.0
230
1.0
 40
0.5773502692
 41
0.0
 42
0.672479296112081
  0
ELLIPSE
  5
2E2
330
294
100
AcDbEntity
  8
0-1MH
  6
Continuous
 62
     7
100
AcDbEllipse
 10
500.7188164576
 20
141.0468135098
 30
0.0
 11
-2.100000000000001
 21
3.252606517456513E-16
 31
0.0
210
0.0
220
0.0
230
1.0
 40
0.5773502692
 41
2.469113357481276
 42
6.283185307179586
  0
ELLIPSE
  5
2E3
330
294
100
AcDbEntity
  8
0-1MH
  6
Continuous
 62
     7
100
AcDbEllipse
 10
536.4277090051
 20
65.3167557479
 30
0.0
 11
-12.49999999999894
 21
-21.65063509461161
 31
0.0
210
0.0
220
0.0
230
0.9999999999999998
 40
0.5773502692
 41
3.14159265358979
 42
3.208818397358538
  0
ELLIPSE
  5
2E4
330
294
100
AcDbEntity
  8
0-1MH
  6
Continuous
 62
     7
100
AcDbEllipse
 10
536.4277090051
 20
65.3167557479
 30
0.0
 11
-12.49999999999894
 21
-21.65063509461161
 31
0.0
210
0.0
220
0.0
230
0.9999999999999998
 40
0.5773502692
 41
4.998354815519475
 42
6.283185307179584
  0
ELLIPSE
  5
2E5
330
294
100
AcDbEntity
  8
0-1MH
  6
Continuous
 62
     7
100
AcDbEllipse
 10
524.7604471156
 20
55.722920922
 30
0.0
 11
-2.24999999999981
 21
-3.897114317030084
 31
0.0
210
0.0
220
0.0
230
1.0
 40
0.5773502692
 41
0.0
 42
6.283185307179586
  0
ELLIPSE
  5
2E6
330
294
100
AcDbEntity
  8
0-1MH
  6
Continuous
 62
     7
100
AcDbEllipse
 10
538.9025827393
 20
80.2178183498
 30
0.0
 11
-2.249999999999812
 21
-3.897114317030086
 31
0.0
210
0.0
220
0.0
230
1.0
 40
0.5773502692
 41
0.0
 42
6.283185307179586
  0
ELLIPSE
  5
2E7
330
294
100
AcDbEntity
  8
0-1MH
  6
Continuous
 62
     7
100
AcDbEllipse
 10
553.044718363
 20
72.0528525405
 30
0.0
 11
-2.249999999999808
 21
-3.897114317030085
 31
0.0
210
0.0
220
0.0
230
1.0
 40
0.5773502692
 41
0.0
 42
6.283185307179586
  0
ELLIPSE
  5
2E8
330
294
100
AcDbEntity
  8
0-1MH
  6
Continuous
 62
     7
100
AcDbEllipse
 10
538.9025827393
 20
47.5579551127
 30
0.0
 11
-2.249999999999811
 21
-3.897114317030084
 31
0.0
210
0.0
220
0.0
230
1.0
 40
0.5773502692
 41
0.0
 42
6.283185307179586
  0
ELLIPSE
  5
2E9
330
294
100
AcDbEntity
  8
0-1MH
  6
Continuous
 62
     7
100
AcDbEllipse
 10
538.9025827393
 20
63.8878867312
 30
0.0
 11
12.49999999999894
 21
21.65063509461158
 31
0.0
210
0.0
220
0.0
230
1.0
 40
0.5773502692
 41
0.0
 42
4.511031053390042
  0
ELLIPSE
  5
2EA
330
294
100
AcDbEntity
  8
0-1MH
  6
Continuous
 62
     7
100
AcDbEllipse
 10
538.9025827393
 20
63.8878867312
 30
0.0
 11
12.49999999999894
 21
21.65063509461158
 31
0.0
210
0.0
220
0.0
230
1.0
 40
0.5773502692
 41
4.913746894970704
 42
6.283185307179584
  0
ELLIPSE
  5
2EB
330
294
100
AcDbEntity
  8
0-1MH
  6
Continuous
 62
     7
100
AcDbEllipse
 10
538.9025827393
 20
63.8878867312
 30
0.0
 11
3.749999999999682
 21
6.495190528383472
 31
0.0
210
0.0
220
0.0
230
1.0
 40
0.5773502692
 41
5.915977230179994
 42
6.283185307179586
  0
ELLIPSE
  5
2EC
330
294
100
AcDbEntity
  8
0-1MH
  6
Continuous
 62
     7
100
AcDbEllipse
 10
538.9025827393
 20
63.8878867312
 30
0.0
 11
3.749999999999682
 21
6.495190528383472
 31
0.0
210
0.0
220
0.0
230
1.0
 40
0.5773502692
 41
0.0
 42
3.508800617705867
  0
ELLIPSE
  5
2ED
330
294
100
AcDbEntity
  8
0-1MH
  6
Continuous
 62
     7
100
AcDbEllipse
 10
537.8419225675
 20
64.5002591669
 30
0.0
 11
-3.74999999999968
 21
-6.495190528383475
 31
0.0
210
0.0
220
0.0
230
1.0
 40
0.5773502692
 41
2.774384576590199
 42
2.999695598985581
  0
ELLIPSE
  5
2EE
330
294
100
AcDbEntity
  8
0-1MH
  6
Continuous
 62
     7
100
AcDbEllipse
 10
537.8419225675
 20
64.5002591669
 30
0.0
 11
-3.74999999999968
 21
-6.495190528383475
 31
0.0
210
0.0
220
0.0
230
1.0
 40
0.5773502692
 41
0.1418970546036164
 42
0.3672079641160763
  0
ELLIPSE
  5
2EF
330
294
100
AcDbEntity
  8
0-1MH
  6
Continuous
 62
     7
100
AcDbEllipse
 10
538.5490293487
 20
80.421942495
 30
0.0
 11
1.99999999999983
 21
3.464101615137853
 31
0.0
210
0.0
220
0.0
230
1.0
 40
0.5773502692
 41
0.0002756574585959
 42
0.7247023298871785
  0
ELLIPSE
  5
2F0
330
294
100
AcDbEntity
  8
0-1MH
  6
Continuous
 62
     7
100
AcDbEllipse
 10
538.5490293487
 20
80.421942495
 30
0.0
 11
1.99999999999983
 21
3.464101615137853
 31
0.0
210
0.0
220
0.0
230
1.0
 40
0.5773502692
 41
2.416890323720727
 42
3.141592642776783
  0
ARC
  5
2F1
330
294
100
AcDbEntity
  8
0-1MH
  6
Continuous
 62
     7
100
AcDbCircle
 10
541.3142664953
 20
77.9736859519
 30
0.0
 40
2.794914027984365
100
AcDbArc
 50
126.9371365342
 51
155.4749096918
  0
LINE
  5
2F2
330
294
100
AcDbEntity
  8
0-1MH
  6
Continuous
 62
     7
100
AcDbLine
 10
538.3722525558
 20
80.9553695237
 30
0.0
 11
537.9303108176
 21
80.4055865166
 31
0.0
  0
LINE
  5
2F3
330
294
100
AcDbEntity
  8
0-1MH
  6
Continuous
 62
     7
100
AcDbLine
 10
537.9303108176
 20
80.4055865166
 30
0.0
 11
537.8682811407
 21
80.3284205481
 31
0.0
  0
LINE
  5
2F4
330
294
100
AcDbEntity
  8
0-1MH
  6
Continuous
 62
     7
100
AcDbLine
 10
537.8112486718
 20
79.66938889
 30
0.0
 11
538.7611612854
 21
79.1209565868
 31
0.0
  0
ARC
  5
2F5
330
294
100
AcDbEntity
  8
0-1MH
  6
Continuous
 62
     7
100
AcDbCircle
 10
538.10113834
 20
76.7187587942
 30
0.0
 40
2.48939184888612
100
AcDbArc
 50
74.8719714473
 51
94.9202098306
  0
ARC
  5
2F6
330
294
100
AcDbEntity
  8
0-1MH
  6
Continuous
 62
     7
100
AcDbCircle
 10
540.0808371533
 20
79.7891575257
 30
0.0
 40
2.277459941244186
100
AcDbArc
 50
165.3641605543
 51
194.6358394457
  0
ARC
  5
2F7
330
294
100
AcDbEntity
  8
0-1MH
  6
Continuous
 62
     7
100
AcDbCircle
 10
540.4307616691
 20
79.2308381647
 30
0.0
 40
2.795384863200323
100
AcDbArc
 50
126.939590823
 51
155.472455403
  0
ARC
  5
2F8
330
294
100
AcDbEntity
  8
0-1MH
  6
Continuous
 62
     7
100
AcDbCircle
 10
538.9846430804
 20
78.9925957235
 30
0.0
 40
2.493584236776948
100
AcDbArc
 50
74.888998334
 51
94.903182944
  0
ARC
  5
2F9
330
294
100
AcDbEntity
  8
0-1MH
  6
Continuous
 62
     7
100
AcDbCircle
 10
541.8486041063
 20
80.8097782518
 30
0.0
 40
2.277459941244226
100
AcDbArc
 50
165.3641605543
 51
194.6358394457
  0
LINE
  5
2FA
330
294
100
AcDbEntity
  8
0-1MH
  6
Continuous
 62
     7
100
AcDbLine
 10
538.3722525558
 20
81.0887500012
 30
0.0
 11
538.3722525558
 21
80.9553695237
 31
0.0
  0
LINE
  5
2FB
330
294
100
AcDbEntity
  8
0-1MH
  6
Continuous
 62
     7
100
AcDbLine
 10
538.3722525558
 20
80.9553695237
 30
0.0
 11
539.6450447619
 21
80.2205226008
 31
0.0
  0
ELLIPSE
  5
2FC
330
294
100
AcDbEntity
  8
0-1MH
  6
Continuous
 62
     7
100
AcDbEllipse
 10
537.4883690793
 20
81.0343148116
 30
0.0
 11
0.624999999999938
 21
1.08253175473058
 31
0.0
210
0.0
220
0.0
230
0.9999999999999999
 40
0.5773502692
 41
4.450589592585408
 42
4.958886811844192
  0
ELLIPSE
  5
2FD
330
294
100
AcDbEntity
  8
0-1MH
  6
Continuous
 62
     7
100
AcDbEllipse
 10
537.4883690793
 20
81.0343148116
 30
0.0
 11
-0.6249999999999466
 21
-1.082531754730588
 31
0.0
210
0.0
220
0.0
230
1.0
 40
0.5773502692
 41
1.241303718302281
 42
1.308996938995619
  0
ELLIPSE
  5
2FE
330
294
100
AcDbEntity
  8
0-1MH
  6
Continuous
 62
     7
100
AcDbEllipse
 10
538.7611612854
 20
80.2994678888
 30
0.0
 11
1.999999999999828
 21
3.464101615137852
 31
0.0
210
0.0
220
0.0
230
1.0
 40
0.5773502692
 41
0.0
 42
6.283185307179586
  0
LINE
  5
2FF
330
294
100
AcDbEntity
  8
0-1MH
  6
Continuous
 62
     7
100
AcDbLine
 10
539.6450447619
 20
80.2205226008
 30
0.0
 11
539.6346952792
 21
80.207647669
 31
0.0
  0
ELLIPSE
  5
300
330
294
100
AcDbEntity
  8
0-1MH
  6
Continuous
 62
     7
100
AcDbEllipse
 10
538.7611612854
 20
80.2994678888
 30
0.0
 11
0.7174999999999452
 21
1.242746454430716
 31
0.0
210
0.0
220
0.0
230
1.0
 40
0.5773502692
 41
3.937190560997095
 42
4.96398862417377
  0
LINE
  5
301
330
294
100
AcDbEntity
  8
0-1MH
  6
Continuous
 62
     7
100
AcDbLine
 10
538.7715107682
 20
79.1338315186
 30
0.0
 11
538.7611612854
 21
79.1209565868
 31
0.0
  0
LINE
  5
302
330
294
100
AcDbEntity
  8
0-1MH
  6
Continuous
 62
     7
100
AcDbLine
 10
538.7611612854
 20
79.1209565868
 30
0.0
 11
538.7508118027
 21
79.1218809653
 31
0.0
  0
ELLIPSE
  5
303
330
294
100
AcDbEntity
  8
0-1MH
  6
Continuous
 62
     7
100
AcDbEllipse
 10
538.7611612854
 20
80.2994678888
 30
0.0
 11
0.7174999999999379
 21
1.242746454430691
 31
0.0
210
0.0
220
0.0
230
1.0
 40
0.5773502692
 41
2.889993009800485
 42
3.91679107297722
  0
LINE
  5
304
330
294
100
AcDbEntity
  8
0-1MH
  6
Continuous
 62
     7
100
AcDbLine
 10
537.8876272917
 20
79.1989774962
 30
0.0
 11
537.877277809
 21
79.1999018747
 31
0.0
  0
LINE
  5
305
330
294
100
AcDbEntity
  8
0-1MH
  6
Continuous
 62
     7
100
AcDbLine
 10
537.877277809
 20
79.1999018747
 30
0.0
 11
537.877277809
 21
79.213701185
 31
0.0
  0
ELLIPSE
  5
306
330
294
100
AcDbEntity
  8
0-1MH
  6
Continuous
 62
     7
100
AcDbEllipse
 10
538.7611612854
 20
80.2994678888
 30
0.0
 11
-0.7174999999999366
 21
-1.242746454430709
 31
0.0
210
0.0
220
0.0
230
1.0
 40
0.5773502692
 41
4.984388112193699
 42
6.011186175370585
  0
LINE
  5
307
330
294
100
AcDbEntity
  8
0-1MH
  6
Continuous
 62
     7
100
AcDbLine
 10
537.877277809
 20
80.3646138663
 30
0.0
 11
537.877277809
 21
80.3784131767
 31
0.0
  0
LINE
  5
308
330
294
100
AcDbEntity
  8
0-1MH
  6
Continuous
 62
     7
100
AcDbLine
 10
537.877277809
 20
80.3784131767
 30
0.0
 11
537.8876272917
 21
80.3912881085
 31
0.0
  0
ELLIPSE
  5
309
330
294
100
AcDbEntity
  8
0-1MH
  6
Continuous
 62
     7
100
AcDbEllipse
 10
538.7611612854
 20
80.2994678888
 30
0.0
 11
-0.7174999999999379
 21
-1.242746454430716
 31
0.0
210
0.0
220
0.0
230
0.9999999999999998
 40
0.5773502692
 41
3.937190560997079
 42
4.963988624173808
  0
LINE
  5
30A
330
294
100
AcDbEntity
  8
0-1MH
  6
Continuous
 62
     7
100
AcDbLine
 10
538.7508118027
 20
81.4651042589
 30
0.0
 11
538.7611612854
 21
81.4779791907
 31
0.0
  0
LINE
  5
30B
330
294
100
AcDbEntity
  8
0-1MH
  6
Continuous
 62
     7
100
AcDbLine
 10
538.7611612854
 20
81.4779791907
 30
0.0
 11
538.7715107682
 21
81.4770548122
 31
0.0
  0
ELLIPSE
  5
30C
330
294
100
AcDbEntity
  8
0-1MH
  6
Continuous
 62
     7
100
AcDbEllipse
 10
538.7611612854
 20
80.2994678888
 30
0.0
 11
-0.7174999999999524
 21
-1.242746454430704
 31
0.0
210
0.0
220
0.0
230
1.0
 40
0.5773502692
 41
2.889993009800279
 42
3.916791072977236
  0
LINE
  5
30D
330
294
100
AcDbEntity
  8
0-1MH
  6
Continuous
 62
     7
100
AcDbLine
 10
539.6346952792
 20
81.3999582813
 30
0.0
 11
539.6450447619
 21
81.3990339028
 31
0.0
  0
LINE
  5
30E
330
294
100
AcDbEntity
  8
0-1MH
  6
Continuous
 62
     7
100
AcDbLine
 10
539.6450447619
 20
81.3990339028
 30
0.0
 11
539.6450447619
 21
81.3852345925
 31
0.0
  0
ELLIPSE
  5
30F
330
294
100
AcDbEntity
  8
0-1MH
  6
Continuous
 62
     7
100
AcDbEllipse
 10
538.7611612854
 20
80.2994678888
 30
0.0
 11
0.7174999999999452
 21
1.242746454430711
 31
0.0
210
0.0
220
0.0
230
1.0
 40
0.5773502692
 41
4.984388112193669
 42
6.011186175370392
  0
LINE
  5
310
330
294
100
AcDbEntity
  8
0-1MH
  6
Continuous
 62
     7
100
AcDbLine
 10
539.6450447619
 20
80.2343219112
 30
0.0
 11
539.6450447619
 21
80.2205226008
 31
0.0
  0
LINE
  5
311
330
294
100
AcDbEntity
  8
0-1MH
  6
Continuous
 62
     7
100
AcDbLine
 10
557.2873589525
 20
62.2548934502
 30
0.0
 11
555.0953279309
 21
63.5204631507
 31
0.0
  0
LINE
  5
312
330
294
100
AcDbEntity
  8
0-1MH
  6
Continuous
 62
     7
100
AcDbLine
 10
557.2873589525
 20
86.3415425876
 30
0.0
 11
557.2873589525
 21
62.2548934502
 31
0.0
  0
LINE
  5
313
330
294
100
AcDbEntity
  8
0-1MH
  6
Continuous
 62
     7
100
AcDbLine
 10
562.944213202
 20
123.9003853103
 30
0.0
 11
556.2266987808
 21
120.0220265509
 31
0.0
  0
LINE
  5
314
330
294
100
AcDbEntity
  8
0-1MH
  6
Continuous
 62
     7
100
AcDbLine
 10
557.6409123431
 20
117.5725368081
 30
0.0
 11
564.3584267644
 21
121.4508955675
 31
0.0
  0
LINE
  5
315
330
294
100
AcDbEntity
  8
0-1MH
  6
Continuous
 62
     7
100
AcDbLine
 10
564.3584267644
 20
121.4508955675
 30
0.0
 11
564.3584267644
 21
123.0838887294
 31
0.0
  0
LINE
  5
316
330
294
100
AcDbEntity
  8
0-1MH
  6
Continuous
 62
     7
100
AcDbLine
 10
564.3584267644
 20
123.0838887294
 30
0.0
 11
562.944213202
 21
123.9003853103
 31
0.0
  0
LINE
  5
317
330
294
100
AcDbEntity
  8
0-1MH
  6
Continuous
 62
     7
100
AcDbLine
 10
506.7292240977
 20
148.5994068834
 30
0.0
 11
513.446738519
 21
152.4777656428
 31
0.0
  0
LINE
  5
318
330
294
100
AcDbEntity
  8
0-1MH
  6
Continuous
 62
     7
100
AcDbLine
 10
564.3584267644
 20
56.1311690933
 30
0.0
 11
563.3480191243
 21
55.5478099703
 31
0.0
  0
LINE
  5
319
330
294
100
AcDbEntity
  8
0-1MH
  6
Continuous
 62
     7
100
AcDbLine
 10
513.446738519
 20
152.4777656428
 30
0.0
 11
562.944213202
 21
123.9003853103
 31
0.0
  0
LINE
  5
31A
330
294
100
AcDbEntity
  8
0-1MH
  6
Continuous
 62
     7
100
AcDbLine
 10
564.3584267644
 20
121.4508955675
 30
0.0
 11
564.3584267644
 21
56.1311690933
 31
0.0
  0
ELLIPSE
  5
31B
330
294
100
AcDbEntity
  8
0-1MH
  6
Continuous
 62
     7
100
AcDbEllipse
 10
486.5766808339
 20
94.0982601064
 30
0.0
 11
12.49999999999892
 21
21.65063509461158
 31
0.0
210
0.0
220
0.0
230
1.0
 40
0.5773502692
 41
1.943391690815919
 42
2.768997289568599
  0
ELLIPSE
  5
31C
330
294
100
AcDbEntity
  8
0-1MH
  6
Continuous
 62
     7
100
AcDbEllipse
 10
562.0249743865
 20
50.5381675139
 30
0.0
 11
2.499999999999785
 21
4.330127018922317
 31
0.0
210
0.0
220
0.0
230
1.0
 40
0.5773502692
 41
5.497787143782059
 42
6.283185307179552
  0
ELLIPSE
  5
31D
330
294
100
AcDbEntity
  8
0-1MH
  6
Continuous
 62
     7
100
AcDbEllipse
 10
562.0249743865
 20
50.5381675139
 30
0.0
 11
2.499999999999785
 21
4.330127018922317
 31
0.0
210
0.0
220
0.0
230
1.0
 40
0.5773502692
 41
0.0
 42
3.926990816987328
  0
LINE
  5
31E
330
294
100
AcDbEntity
  8
0-1MH
  6
Continuous
 62
     7
100
AcDbLine
 10
548.8020775783
 20
63.2915958989
 30
0.0
 11
560.8228928585
 21
56.351374961
 31
0.0
  0
ELLIPSE
  5
31F
330
294
100
AcDbEntity
  8
0-1MH
  6
Continuous
 62
     7
100
AcDbEllipse
 10
562.5906598114
 20
50.2115688816
 30
0.0
 11
2.09999999999982
 21
3.637306695894749
 31
0.0
210
0.0
220
0.0
230
0.9999999999999999
 40
0.5773502692
 41
0.0
 42
6.283185307179586
  0
LINE
  5
320
330
294
100
AcDbEntity
  8
0-1MH
  6
Continuous
 62
     7
100
AcDbLine
 10
560.8228928585
 20
55.3146725159
 30
0.0
 11
560.8228928585
 21
56.351374961
 31
0.0
  0
SPLINE
  5
321
330
294
100
AcDbEntity
  8
0-1MH
  6
Continuous
 62
     7
100
AcDbSpline
210
0.0
220
0.0
230
1.0
 70
     8
 71
     3
 72
   155
 73
   151
 74
     0
 42
0.0000000027532392
 43
0.0000000001
 40
0.0
 40
0.0
 40
0.0
 40
0.0
 40
0.0182398229923601
 40
0.0182398229923601
 40
0.0182398229923601
 40
0.0365143375271066
 40
0.0365143375271066
 40
0.0365143375271066
 40
0.0547892978719
 40
0.0547892978719
 40
0.0547892978719
 40
0.0730298486655768
 40
0.0730298486655768
 40
0.0730298486655768
 40
0.0912026207753724
 40
0.0912026207753724
 40
0.0912026207753724
 40
0.1093303723790928
 40
0.1093303723790928
 40
0.1093303723790928
 40
0.1275288316264515
 40
0.1275288316264515
 40
0.1275288316264515
 40
0.1457806904354184
 40
0.1457806904354184
 40
0.1457806904354184
 40
0.1640568414509669
 40
0.1640568414509669
 40
0.1640568414509669
 40
0.1823257636212557
 40
0.1823257636212557
 40
0.1823257636212557
 40
0.2005552776590256
 40
0.2005552776590256
 40
0.2005552776590256
 40
0.2187142882909143
 40
0.2187142882909143
 40
0.2187142882909143
 40
0.2368504456719865
 40
0.2368504456719865
 40
0.2368504456719865
 40
0.2550619859478117
 40
0.2550619859478117
 40
0.2550619859478117
 40
0.2733223536893544
 40
0.2733223536893544
 40
0.2733223536893544
 40
0.2916010670629142
 40
0.2916010670629142
 40
0.2916010670629142
 40
0.3178108292133796
 40
0.3178108292133796
 40
0.3178108292133796
 40
0.343908811288584
 40
0.343908811288584
 40
0.343908811288584
 40
0.3699272015982528
 40
0.3699272015982528
 40
0.3699272015982528
 40
0.3959825852229367
 40
0.3959825852229367
 40
0.3959825852229367
 40
0.4219943533939364
 40
0.4219943533939364
 40
0.4219943533939364
 40
0.4479990080177415
 40
0.4479990080177415
 40
0.4479990080177415
 40
0.4739917861395282
 40
0.4739917861395282
 40
0.4739917861395282
 40
0.4999830779888063
 40
0.4999830779888063
 40
0.4999830779888063
 40
0.525975431349791
 40
0.525975431349791
 40
0.525975431349791
 40
0.5519717818116143
 40
0.5519717818116143
 40
0.5519717818116143
 40
0.5779706396995635
 40
0.5779706396995635
 40
0.5779706396995635
 40
0.6040057271479624
 40
0.6040057271479624
 40
0.6040057271479624
 40
0.6300202601988857
 40
0.6300202601988857
 40
0.6300202601988857
 40
0.656111279571261
 40
0.656111279571261
 40
0.656111279571261
 40
0.6823167394391348
 40
0.6823167394391348
 40
0.6823167394391348
 40
0.7085508658968607
 40
0.7085508658968607
 40
0.7085508658968607
 40
0.7267937321962583
 40
0.7267937321962583
 40
0.7267937321962583
 40
0.7449750167270485
 40
0.7449750167270485
 40
0.7449750167270485
 40
0.7540342790499743
 40
0.7540342790499743
 40
0.7540342790499743
 40
0.7631002595298675
 40
0.7631002595298675
 40
0.7631002595298675
 40
0.7812928946216565
 40
0.7812928946216565
 40
0.7812928946216565
 40
0.7995422367275925
 40
0.7995422367275925
 40
0.7995422367275925
 40
0.8178173958741564
 40
0.8178173958741564
 40
0.8178173958741564
 40
0.8360869175966813
 40
0.8360869175966813
 40
0.8360869175966813
 40
0.854320454964166
 40
0.854320454964166
 40
0.854320454964166
 40
0.8724904989845639
 40
0.8724904989845639
 40
0.8724904989845639
 40
0.8815472680303846
 40
0.8815472680303846
 40
0.8815472680303846
 40
0.8906186495752735
 40
0.8906186495752735
 40
0.8906186495752735
 40
0.9088231426670601
 40
0.9088231426670601
 40
0.9088231426670601
 40
0.927083051936671
 40
0.927083051936671
 40
0.927083051936671
 40
0.9453641714108536
 40
0.9453641714108536
 40
0.9453641714108536
 40
0.9636319603078471
 40
0.9636319603078471
 40
0.9636319603078471
 40
0.9818535695037346
 40
0.9818535695037346
 40
0.9818535695037346
 40
1.0
 40
1.0
 40
1.0
 40
1.0
 10
558.7015725149068
 20
55.12663008957664
 30
0.0
 10
558.7219192786083
 20
55.11488288007645
 30
0.0
 10
558.7428893047133
 20
55.10366552043487
 30
0.0
 10
558.7644311740889
 20
55.09301121091308
 30
0.0
 10
558.7859729813935
 20
55.0823569320907
 30
0.0
 10
558.8080859145708
 20
55.07226608989155
 30
0.0
 10
558.8307102994476
 20
55.0627636473313
 30
0.0
 10
558.8533346856198
 20
55.05326120422686
 30
0.0
 10
558.876469744136
 20
55.04434746974289
 30
0.0
 10
558.9000497996033
 20
55.03603801498924
 30
0.0
 10
558.9236299241111
 20
55.02772853590641
 30
0.0
 10
558.947654242599
 20
55.020023557891
 30
0.0
 10
558.9720537738363
 20
55.01292887042946
 30
0.0
 10
558.9964534487151
 20
55.00583414120093
 30
0.0
 10
559.0212275474559
 20
54.99934983315944
 30
0.0
 10
559.0463068866558
 20
54.99347227752813
 30
0.0
 10
559.071372527943
 20
54.98759793211881
 30
0.0
 10
559.0967727466326
 20
54.982319727512
 30
0.0
 10
559.1226165764167
 20
54.97760694049666
 30
0.0
 10
559.1484470729057
 20
54.97289658489294
 30
0.0
 10
559.174664352175
 20
54.96876415580424
 30
0.0
 10
559.2012100604328
 20
54.96521026476746
 30
0.0
 10
559.2277556698127
 20
54.96165638696852
 30
0.0
 10
559.2546290777584
 20
54.95868113196442
 30
0.0
 10
559.2817666888022
 20
54.95627862928114
 30
0.0
 10
559.3089042601316
 20
54.95387613011389
 30
0.0
 10
559.3363053871025
 20
54.95204641492065
 30
0.0
 10
559.3639032078418
 20
54.95077706129722
 30
0.0
 10
559.3915010454584
 20
54.94950770689788
 30
0.0
 10
559.419294933407
 20
54.94879869841878
 30
0.0
 10
559.4472167326584
 20
54.94863146041748
 30
0.0
 10
559.4751386051825
 20
54.94846422197705
 30
0.0
 10
559.5031877653746
 20
54.94883869787739
 30
0.0
 10
559.5312968149924
 20
54.94973093122083
 30
0.0
 10
559.5594059967586
 20
54.9506231687588
 30
0.0
 10
559.5875744772703
 20
54.95203307393949
 30
0.0
 10
559.6157376848065
 20
54.9539323840453
 30
0.0
 10
559.6438758193414
 20
54.95583000324262
 30
0.0
 10
559.6721370043513
 20
54.95822433213124
 30
0.0
 10
559.7005056837282
 20
54.96110296578973
 30
0.0
 10
559.7288706717195
 20
54.96398122487466
 30
0.0
 10
559.7573272637835
 20
54.96734255427242
 30
0.0
 10
559.7858119300829
 20
54.97116703189779
 30
0.0
 10
559.8142965108857
 20
54.97499149804415
 30
0.0
 10
559.8428085993792
 20
54.97927902198495
 30
0.0
 10
559.8712822897966
 20
54.984005454632
 30
0.0
 10
559.8997559474519
 20
54.98873188184109
 30
0.0
 10
559.9281906203153
 20
54.9938970946927
 30
0.0
 10
559.9565198449516
 20
54.99947326354604
 30
0.0
 10
559.9971874275104
 20
55.00747804695023
 30
0.0
 10
560.0376350552343
 20
55.01632958516244
 30
0.0
 10
560.0776728540801
 20
55.02593582888638
 30
0.0
 10
560.1177110526074
 20
55.03554216850623
 30
0.0
 10
560.1573359219129
 20
55.04590210172024
 30
0.0
 10
560.196374095078
 20
55.0569175896526
 30
0.0
 10
560.2353725637677
 20
55.06792187408465
 30
0.0
 10
560.2739524851115
 20
55.0796262775639
 30
0.0
 10
560.3120251062289
 20
55.09197729127807
 30
0.0
 10
560.3500889925031
 20
55.10432547135022
 30
0.0
 10
560.3876030578745
 20
55.11730757363853
 30
0.0
 10
560.4243739744311
 20
55.13082899159759
 30
0.0
 10
560.4611545434482
 20
55.14435395896309
 30
0.0
 10
560.4971477216719
 20
55.15840049107589
 30
0.0
 10
560.5322942390702
 20
55.17291795700545
 30
0.0
 10
560.5674567046768
 20
55.18744201043231
 30
0.0
 10
560.6018119218206
 20
55.20245596778648
 30
0.0
 10
560.635175128679
 20
55.21786372870863
 30
0.0
 10
560.6685263110546
 20
55.23326593649701
 30
0.0
 10
560.7009268679843
 20
55.24907960088603
 30
0.0
 10
560.7322481720178
 20
55.26523392051703
 30
0.0
 10
560.7635583128529
 20
55.28138248260144
 30
0.0
 10
560.7937913172497
 20
55.29787198625963
 30
0.0
 10
560.8228361391923
 20
55.31463976670297
 30
0.0
 10
560.8518684538733
 20
55.33140032661617
 30
0.0
 10
560.8797205873547
 20
55.34844326100367
 30
0.0
 10
560.9062781748113
 20
55.36570289637704
 30
0.0
 10
560.9328261025686
 20
55.38295625396359
 30
0.0
 10
560.9580845552101
 20
55.40042811886436
 30
0.0
 10
560.9819765687027
 20
55.41807664400609
 30
0.0
 10
561.0058730176445
 20
55.43572844552028
 30
0.0
 10
561.028342478803
 20
55.45351010247936
 30
0.0
 10
561.0493948494399
 20
55.47144280240006
 30
0.0
 10
561.0704483016531
 20
55.48937642362243
 30
0.0
 10
561.090067102415
 20
55.50745114426263
 30
0.0
 10
561.1081536946238
 20
55.52559902077022
 30
0.0
 10
561.126242606747
 20
55.54374922505137
 30
0.0
 10
561.1427885357512
 20
55.56196051380179
 30
0.0
 10
561.1577523085423
 20
55.58019987780147
 30
0.0
 10
561.1727298893819
 20
55.5984560724531
 30
0.0
 10
561.1861925922266
 20
55.61682728605253
 30
0.0
 10
561.1980598895806
 20
55.63526784999245
 30
0.0
 10
561.209927059374
 20
55.65370821571733
 30
0.0
 10
561.2201974686309
 20
55.67221633764172
 30
0.0
 10
561.2288159923189
 20
55.69074627923259
 30
0.0
 10
561.2374344955921
 20
55.70927617693016
 30
0.0
 10
561.2444002762289
 20
55.72782634206614
 30
0.0
 10
561.2496890800109
 20
55.74635378670169
 30
0.0
 10
561.2533733033246
 20
55.75926015386809
 30
0.0
 10
561.2562442876426
 20
55.77215513971739
 30
0.0
 10
561.2583029507621
 20
55.78502547199102
 30
0.0
 10
561.2603616220063
 20
55.79789585505316
 30
0.0
 10
561.2616079765319
 20
55.81074135811029
 30
0.0
 10
561.2620500635799
 20
55.82355032908205
 30
0.0
 10
561.2622711266986
 20
55.82995538229977
 30
0.0
 10
561.2622912527337
 20
55.83634889042806
 30
0.0
 10
561.2621118791737
 20
55.84273643406244
 30
0.0
 10
561.2619324230938
 20
55.84912691626716
 30
0.0
 10
561.2615527658952
 20
55.8555247341492
 30
0.0
 10
561.2609715608603
 20
55.86192855353043
 30
0.0
 10
561.2598091515181
 20
55.87473618427676
 30
0.0
 10
561.2578401241641
 20
55.88756781551619
 30
0.0
 10
561.2550586635116
 20
55.90041187646823
 30
0.0
 10
561.2522772128572
 20
55.91325589125334
 30
0.0
 10
561.2486833444918
 20
55.92611211096375
 30
0.0
 10
561.2442784797203
 20
55.93896792177129
 30
0.0
 10
561.2398736222834
 20
55.95182371117119
 30
0.0
 10
561.2346578413203
 20
55.96467885695132
 30
0.0
 10
561.2286400838833
 20
55.97752000279843
 30
0.0
 10
561.2226223250652
 20
55.99036115159324
 30
0.0
 10
561.2158027210186
 20
56.0031880571752
 30
0.0
 10
561.2081975758305
 20
56.01598690557196
 30
0.0
 10
561.2005924138359
 20
56.02878578225253
 30
0.0
 10
561.1922019011158
 20
56.04155635219392
 30
0.0
 10
561.1830490433107
 20
56.05428468286533
 30
0.0
 10
561.1738961453188
 20
56.06701306942188
 30
0.0
 10
561.1639811508077
 20
56.07969896557495
 30
0.0
 10
561.1533325588706
 20
56.09232877664203
 30
0.0
 10
561.1480065136632
 20
56.09864575686832
 30
0.0
 10
561.142505383992
 20
56.10493947197578
 30
0.0
 10
561.136808190471
 20
56.11123584550308
 30
0.0
 10
561.1311104179041
 20
56.11753285897591
 30
0.0
 10
561.125217000936
 20
56.12383138412822
 30
0.0
 10
561.119129668911
 20
56.13012908911293
 30
0.0
 10
561.1069550120982
 20
56.14272449159522
 30
0.0
 10
561.0940041802126
 20
56.15531669707992
 30
0.0
 10
561.0802983680612
 20
56.1678846007943
 30
0.0
 10
561.0665926182888
 20
56.18045244730826
 30
0.0
 10
561.052132239395
 20
56.19299564892701
 30
0.0
 10
561.0369483526023
 20
56.20549028437465
 30
0.0
 10
561.0217644933538
 20
56.21798489715679
 30
0.0
 10
561.0058575841701
 20
56.23043057229306
 30
0.0
 10
560.9892679222093
 20
56.24280139843663
 30
0.0
 10
560.9726782448394
 20
56.25517223607064
 30
0.0
 10
560.955406367016
 20
56.26746783717581
 30
0.0
 10
560.9375002988627
 20
56.27966122300224
 30
0.0
 10
560.9195941621389
 20
56.29185465552273
 30
0.0
 10
560.9010544614839
 20
56.30394548546484
 30
0.0
 10
560.8819347036261
 20
56.31590671982021
 30
0.0
 10
560.8628148113747
 20
56.32786803825176
 30
0.0
 10
560.8431155325858
 20
56.33969939462155
 30
0.0
 10
560.8228928584664
 20
56.35137496096809
 30
0.0
  0
LINE
  5
322
330
294
100
AcDbEntity
  8
0-1MH
  6
Continuous
 62
     7
100
AcDbLine
 10
546.6807572347
 20
62.0668510275
 30
0.0
 11
558.7015725149
 21
55.1266300896
 31
0.0
  0
LINE
  5
323
330
294
100
AcDbEntity
  8
0-1MH
  6
Continuous
 62
     7
100
AcDbLine
 10
548.8020775783
 20
62.009944476
 30
0.0
 11
548.8020775783
 21
63.2915958989
 31
0.0
  0
SPLINE
  5
324
330
294
100
AcDbEntity
  8
0-1MH
  6
Continuous
 62
     7
100
AcDbSpline
210
0.0
220
0.0
230
1.0
 70
     8
 71
     3
 72
   155
 73
   151
 74
     0
 42
0.0000000025253622
 43
0.0000000001
 40
0.0
 40
0.0
 40
0.0
 40
0.0
 40
0.0181464304962784
 40
0.0181464304962784
 40
0.0181464304962784
 40
0.0363680396921546
 40
0.0363680396921546
 40
0.0363680396921546
 40
0.0546358285891473
 40
0.0546358285891473
 40
0.0546358285891473
 40
0.0729169480633372
 40
0.0729169480633372
 40
0.0729169480633372
 40
0.0911768573329345
 40
0.0911768573329345
 40
0.0911768573329345
 40
0.1093813504247257
 40
0.1093813504247257
 40
0.1093813504247257
 40
0.1184527319696068
 40
0.1184527319696068
 40
0.1184527319696068
 40
0.1275095010154336
 40
0.1275095010154336
 40
0.1275095010154336
 40
0.1456795450358324
 40
0.1456795450358324
 40
0.1456795450358324
 40
0.1639130824033158
 40
0.1639130824033158
 40
0.1639130824033158
 40
0.1821826041258396
 40
0.1821826041258396
 40
0.1821826041258396
 40
0.2004577632724016
 40
0.2004577632724016
 40
0.2004577632724016
 40
0.218707105378337
 40
0.218707105378337
 40
0.218707105378337
 40
0.2368997404701279
 40
0.2368997404701279
 40
0.2368997404701279
 40
0.2459657209500273
 40
0.2459657209500273
 40
0.2459657209500273
 40
0.2550249832729594
 40
0.2550249832729594
 40
0.2550249832729594
 40
0.2732062678037431
 40
0.2732062678037431
 40
0.2732062678037431
 40
0.2914491341031404
 40
0.2914491341031404
 40
0.2914491341031404
 40
0.3176832605608597
 40
0.3176832605608597
 40
0.3176832605608597
 40
0.3438887204287374
 40
0.3438887204287374
 40
0.3438887204287374
 40
0.3699797398011103
 40
0.3699797398011103
 40
0.3699797398011103
 40
0.3959942728520335
 40
0.3959942728520335
 40
0.3959942728520335
 40
0.4220293603004341
 40
0.4220293603004341
 40
0.4220293603004341
 40
0.4480282181883831
 40
0.4480282181883831
 40
0.4480282181883831
 40
0.4740245686502041
 40
0.4740245686502041
 40
0.4740245686502041
 40
0.5000169220111884
 40
0.5000169220111884
 40
0.5000169220111884
 40
0.5260082138604639
 40
0.5260082138604639
 40
0.5260082138604639
 40
0.5520009919822506
 40
0.5520009919822506
 40
0.5520009919822506
 40
0.5780056466060554
 40
0.5780056466060554
 40
0.5780056466060554
 40
0.6040174147770547
 40
0.6040174147770547
 40
0.6040174147770547
 40
0.6300727984017385
 40
0.6300727984017385
 40
0.6300727984017385
 40
0.6560911887114027
 40
0.6560911887114027
 40
0.6560911887114027
 40
0.6821891707866089
 40
0.6821891707866089
 40
0.6821891707866089
 40
0.7083989329370699
 40
0.7083989329370699
 40
0.7083989329370699
 40
0.7266776463106295
 40
0.7266776463106295
 40
0.7266776463106295
 40
0.7449380140521846
 40
0.7449380140521846
 40
0.7449380140521846
 40
0.7631495543280032
 40
0.7631495543280032
 40
0.7631495543280032
 40
0.7812857117090796
 40
0.7812857117090796
 40
0.7812857117090796
 40
0.7994447223409661
 40
0.7994447223409661
 40
0.7994447223409661
 40
0.8176742363787349
 40
0.8176742363787349
 40
0.8176742363787349
 40
0.8359431585490192
 40
0.8359431585490192
 40
0.8359431585490192
 40
0.8542193095645865
 40
0.8542193095645865
 40
0.8542193095645865
 40
0.8724711683735298
 40
0.8724711683735298
 40
0.8724711683735298
 40
0.8906696276209064
 40
0.8906696276209064
 40
0.8906696276209064
 40
0.9087973792246203
 40
0.9087973792246203
 40
0.9087973792246203
 40
0.9269701513344283
 40
0.9269701513344283
 40
0.9269701513344283
 40
0.9452107021280984
 40
0.9452107021280984
 40
0.9452107021280984
 40
0.9634856624728856
 40
0.9634856624728856
 40
0.9634856624728856
 40
0.9817601770076388
 40
0.9817601770076388
 40
0.9817601770076388
 40
1.0
 40
1.0
 40
1.0
 40
1.0
 10
548.8020775782951
 20
63.29159589885295
 30
0.0
 10
548.7818549041765
 20
63.30327146519907
 30
0.0
 10
548.7609980073714
 20
63.31485522772577
 30
0.0
 10
548.7395493583442
 20
63.32631616752209
 30
0.0
 10
548.7181008600803
 20
63.33777702675908
 30
0.0
 10
548.6960612285066
 20
63.34911468520276
 30
0.0
 10
548.6734828761961
 20
63.36029498332424
 30
0.0
 10
548.6509046103461
 20
63.37147523863251
 30
0.0
 10
548.6277883398528
 20
63.38249774582977
 30
0.0
 10
548.6041946261888
 20
63.39332679982647
 30
0.0
 10
548.5806009344411
 20
63.4041558437639
 30
0.0
 10
548.5565305727445
 20
63.41479105673204
 30
0.0
 10
548.5320500462859
 20
63.4251966877145
 30
0.0
 10
548.5075694754296
 20
63.43560233756866
 30
0.0
 10
548.4826795323613
 20
63.44577805492776
 30
0.0
 10
548.457450128941
 20
63.45568942958926
 30
0.0
 10
548.4322206107046
 20
63.46560084935638
 30
0.0
 10
548.4066524094527
 20
63.47524761802291
 30
0.0
 10
548.380816014296
 20
63.48459790662597
 30
0.0
 10
548.367897809042
 20
63.48927305370536
 30
0.0
 10
548.3549126026477
 20
63.49387410683325
 30
0.0
 10
548.3418690568559
 20
63.49839739855994
 30
0.0
 10
548.3288268366382
 20
63.50292023059897
 30
0.0
 10
548.315728839797
 20
63.50736472619016
 30
0.0
 10
548.3025244779476
 20
63.51174628146626
 30
0.0
 10
548.2761244276944
 20
63.52050651394079
 30
0.0
 10
548.249375361574
 20
63.52898862306311
 30
0.0
 10
548.2223341152612
 20
63.53715693546384
 30
0.0
 10
548.1952929876755
 20
63.5453252120008
 30
0.0
 10
548.1679602654755
 20
63.55317946135697
 30
0.0
 10
548.1403980318155
 20
63.56068449002422
 30
0.0
 10
548.1128358590602
 20
63.56818950210771
 30
0.0
 10
548.0850447821545
 20
63.57534508249049
 30
0.0
 10
548.0570902521156
 20
63.58211784381324
 30
0.0
 10
548.0291357284884
 20
63.58889060358247
 30
0.0
 10
548.0010183619105
 20
63.59528035950804
 30
0.0
 10
547.9728051057438
 20
63.60125664677869
 30
0.0
 10
547.944591802592
 20
63.60723294400216
 30
0.0
 10
547.916283209075
 20
63.61279561924734
 30
0.0
 10
547.8879459119943
 20
63.6179180218439
 30
0.0
 10
547.8596085130588
 20
63.62304044285186
 30
0.0
 10
547.8312429872439
 20
63.62772247405027
 30
0.0
 10
547.8029136425076
 20
63.63194191546004
 30
0.0
 10
547.7887489612734
 20
63.63405163748573
 30
0.0
 10
547.774593320971
 20
63.63604577752868
 30
0.0
 10
547.7604544216535
 20
63.63792200166699
 30
0.0
 10
547.7463220239034
 20
63.63979736305091
 30
0.0
 10
547.7321769286958
 20
63.64155890967674
 30
0.0
 10
547.7180115104622
 20
63.64320463363823
 30
0.0
 10
547.6896831851892
 20
63.64649578981338
 30
0.0
 10
547.6612949292778
 20
63.64932067082751
 30
0.0
 10
547.6329104253648
 20
63.65164951434262
 30
0.0
 10
547.6045260334618
 20
63.65397834866746
 30
0.0
 10
547.5761459692947
 20
63.65581103693567
 30
0.0
 10
547.5478367307736
 20
63.65712192892943
 30
0.0
 10
547.5071980411511
 20
63.65900375039973
 30
0.0
 10
547.4667075574655
 20
63.65980908159342
 30
0.0
 10
547.4265628247769
 20
63.65948086093547
 30
0.0
 10
547.3864179969942
 20
63.65915263950013
 30
0.0
 10
547.3466226690032
 20
63.65769073735473
 30
0.0
 10
547.3073664377379
 20
63.65506345364346
 30
0.0
 10
547.2681097845331
 20
63.65243614169311
 30
0.0
 10
547.2293958657608
 20
63.64864372440785
 30
0.0
 10
547.191394693332
 20
63.64368020654072
 30
0.0
 10
547.1534285547608
 20
63.63872126461619
 30
0.0
 10
547.1159928298821
 20
63.63257070513731
 30
0.0
 10
547.0792266180003
 20
63.62520384489947
 30
0.0
 10
547.0424651214067
 20
63.61783792946547
 30
0.0
 10
547.0063982913048
 20
63.60925948299246
 30
0.0
 10
546.9712138186397
 20
63.59948441023177
 30
0.0
 10
546.936031153512
 20
63.58970983964792
 30
0.0
 10
546.9017482024178
 20
63.57874870428354
 30
0.0
 10
546.8683625042985
 20
63.56657552332735
 30
0.0
 10
546.8349830029566
 20
63.55440460185608
 30
0.0
 10
546.8025904901976
 20
63.54105158848481
 30
0.0
 10
546.7712834358178
 20
63.52654591392798
 30
0.0
 10
546.7399649900984
 20
63.5120349613576
 30
0.0
 10
546.7097297283955
 20
63.4963679266906
 30
0.0
 10
546.6807005184941
 20
63.47960557422832
 30
0.0
 10
546.651658802672
 20
63.46283600046537
 30
0.0
 10
546.6238164263784
 20
63.44496626702831
 30
0.0
 10
546.597271455066
 20
63.42606653303724
 30
0.0
 10
546.570717019511
 20
63.40716006060716
 30
0.0
 10
546.5454601305396
 20
63.38722199759928
 30
0.0
 10
546.5215930367932
 20
63.36634414868787
 30
0.0
 10
546.4977173379709
 20
63.34545877244705
 30
0.0
 10
546.475205279069
 20
63.32360716449389
 30
0.0
 10
546.454170264145
 20
63.30092662361249
 30
0.0
 10
546.4331447898177
 20
63.27825636966968
 30
0.0
 10
546.4135663410982
 20
63.25473278905871
 30
0.0
 10
546.3954720454161
 20
63.2304192967483
 30
0.0
 10
546.3773824982703
 20
63.20611218509561
 30
0.0
 10
546.3608020819303
 20
63.18104403490432
 30
0.0
 10
546.3458070398962
 20
63.15537705143551
 30
0.0
 10
546.3308085568074
 20
63.1297041779193
 30
0.0
 10
546.3174094757553
 20
63.10346160951882
 30
0.0
 10
546.3056175466746
 20
63.07674962211996
 30
0.0
 10
546.2938136121895
 20
63.05001043915459
 30
0.0
 10
546.2835722976486
 20
63.02268590268742
 30
0.0
 10
546.27495994009
 20
62.99493584532475
 30
0.0
 10
546.2663476685044
 20
62.96718606497782
 30
0.0
 10
546.2593653353401
 20
62.93901332994302
 30
0.0
 10
546.2540531269208
 20
62.91059611176205
 30
0.0
 10
546.250352618158
 20
62.89080054716946
 30
0.0
 10
546.247462116101
 20
62.87088740042651
 30
0.0
 10
546.2453865966357
 20
62.85092000102718
 30
0.0
 10
546.2433110747825
 20
62.83095257865365
 30
0.0
 10
546.2420505634427
 20
62.81093134930721
 30
0.0
 10
546.2416027448681
 20
62.79091985094126
 30
0.0
 10
546.2411549249496
 20
62.77090829251061
 30
0.0
 10
546.2415197722413
 20
62.75090689734247
 30
0.0
 10
546.2426880189653
 20
62.73097761724465
 30
0.0
 10
546.2438564177239
 20
62.7110457435727
 30
0.0
 10
546.2458268772778
 20
62.691197166557
 30
0.0
 10
546.2485881415209
 20
62.6714597711584
 30
0.0
 10
546.2513518662397
 20
62.65170478838977
 30
0.0
 10
546.2549213107018
 20
62.63197098368226
 30
0.0
 10
546.2593011414526
 20
62.6123212060217
 30
0.0
 10
546.263680951612
 20
62.59267152074226
 30
0.0
 10
546.2688711114693
 20
62.57310631446364
 30
0.0
 10
546.2748687545073
 20
62.55369011146153
 30
0.0
 10
546.2808663818064
 20
62.53427395941062
 30
0.0
 10
546.287671391775
 20
62.5150072848642
 30
0.0
 10
546.2952730062972
 20
62.49595422609782
 30
0.0
 10
546.3028746161712
 20
62.47690117898139
 30
0.0
 10
546.311272664626
 20
62.45806223060571
 30
0.0
 10
546.3204485733329
 20
62.43949913229895
 30
0.0
 10
546.3296244954698
 20
62.42093600682307
 30
0.0
 10
546.3395780455161
 20
62.4026492077172
 30
0.0
 10
546.3502834759284
 20
62.38469618766632
 30
0.0
 10
546.3609889462168
 20
62.36674310074329
 30
0.0
 10
546.3724459996994
 20
62.34912424367617
 30
0.0
 10
546.3846229373779
 20
62.33189099693065
 30
0.0
 10
546.3968061606015
 20
62.31464885465203
 30
0.0
 10
546.4096794921351
 20
62.2978298147353
 30
0.0
 10
546.4232936456914
 20
62.2813723701823
 30
0.0
 10
546.4369152391371
 20
62.26490593193274
 30
0.0
 10
546.4512987420808
 20
62.24878258810095
 30
0.0
 10
546.4664204317404
 20
62.23305964687434
 30
0.0
 10
546.4815420323783
 20
62.2173367982092
 30
0.0
 10
546.4974014243346
 20
62.2020149052634
 30
0.0
 10
546.513964487166
 20
62.18714770432975
 30
0.0
 10
546.5305275014996
 20
62.17228054692851
 30
0.0
 10
546.5477936741325
 20
62.1578686197327
 30
0.0
 10
546.5657192981251
 20
62.14395950355228
 30
0.0
 10
546.5836449210907
 20
62.13005038816902
 30
0.0
 10
546.6022293833347
 20
62.11664457816643
 30
0.0
 10
546.6214209147986
 20
62.10378145288592
 30
0.0
 10
546.6406125015642
 20
62.09091829053965
 30
0.0
 10
546.6604104710348
 20
62.07859823696128
 30
0.0
 10
546.6807572347356
 20
62.06685102746151
 30
0.0
  0
ELLIPSE
  5
325
330
294
100
AcDbEntity
  8
0-1MH
  6
Continuous
 62
     7
100
AcDbEllipse
 10
547.7414174065
 20
61.3975720403
 30
0.0
 11
1.500000000000002
 21
-3.306816626080789E-15
 31
0.0
210
0.0
220
0.0
230
1.0
 40
0.5773502692
 41
0.7853981633976037
 42
2.309713750653827
  0
LINE
  5
326
330
294
100
AcDbEntity
  8
0-1MH
  6
Continuous
 62
     7
100
AcDbLine
 10
560.5823070523
 20
55.208625818
 30
0.0
 11
548.8020775783
 21
62.009944476
 31
0.0
  0
ELLIPSE
  5
327
330
294
100
AcDbEntity
  8
0-1MH
  6
Continuous
 62
     7
100
AcDbEllipse
 10
562.2371064208
 20
50.4156930268
 30
0.0
 11
-0.8249999999999297
 21
-1.428941916244366
 31
0.0
210
0.0
220
0.0
230
0.9999999999999998
 40
0.5773502692
 41
0.0
 42
3.785055500393816
  0
ELLIPSE
  5
328
330
294
100
AcDbEntity
  8
0-1MH
  6
Continuous
 62
     7
100
AcDbEllipse
 10
562.2371064208
 20
50.4156930268
 30
0.0
 11
-0.8249999999999297
 21
-1.428941916244366
 31
0.0
210
0.0
220
0.0
230
0.9999999999999998
 40
0.5773502692
 41
5.639722460410238
 42
6.283185307179475
  0
ELLIPSE
  5
329
330
294
100
AcDbEntity
  8
0-1MH
  6
Continuous
 62
     7
100
AcDbEllipse
 10
562.5906598114
 20
50.2115688816
 30
0.0
 11
-1.074999999999907
 21
-1.861954618136596
 31
0.0
210
0.0
220
0.0
230
1.0
 40
0.5773502692
 41
0.0
 42
6.283185307179586
  0
ELLIPSE
  5
32A
330
294
100
AcDbEntity
  8
0-1MH
  6
Continuous
 62
     7
100
AcDbEllipse
 10
543.4987767194
 20
61.2342727241
 30
0.0
 11
-3.499999999999692
 21
-6.062177826491253
 31
0.0
210
0.0
220
0.0
230
1.0
 40
0.5773502692
 41
2.950971645615256
 42
6.283185307179586
  0
ELLIPSE
  5
32B
330
294
100
AcDbEntity
  8
0-1MH
  6
Continuous
 62
     7
100
AcDbEllipse
 10
543.4987767194
 20
61.2342727241
 30
0.0
 11
-3.499999999999692
 21
-6.062177826491253
 31
0.0
210
0.0
220
0.0
230
1.0
 40
0.5773502692
 41
0.0
 42
0.1906210079744987
  0
ELLIPSE
  5
32C
330
294
100
AcDbEntity
  8
0-1MH
  6
Continuous
 62
     7
100
AcDbEllipse
 10
544.2058835006
 20
60.8260244336
 30
0.0
 11
-3.366025403784145
 21
-5.830127018922369
 31
0.0
210
0.0
220
0.0
230
1.0
 40
0.5773502692
 41
2.407913316134513
 42
6.283185307179574
  0
ELLIPSE
  5
32D
330
294
100
AcDbEntity
  8
0-1MH
  6
Continuous
 62
     7
100
AcDbEllipse
 10
544.2058835006
 20
60.8260244336
 30
0.0
 11
-3.366025403784145
 21
-5.830127018922369
 31
0.0
210
0.0
220
0.0
230
1.0
 40
0.5773502692
 41
0.0
 42
0.7336793374552393
  0
ELLIPSE
  5
32E
330
294
100
AcDbEntity
  8
0-1MH
  6
Continuous
 62
     7
100
AcDbEllipse
 10
544.2058835006
 20
60.8260244336
 30
0.0
 11
2.749999999999758
 21
4.763139720814555
 31
0.0
210
0.0
220
0.0
230
1.0
 40
0.5773502692
 41
0.0
 42
3.571292319741189
  0
ELLIPSE
  5
32F
330
294
100
AcDbEntity
  8
0-1MH
  6
Continuous
 62
     7
100
AcDbEllipse
 10
544.2058835006
 20
60.8260244336
 30
0.0
 11
2.749999999999758
 21
4.763139720814555
 31
0.0
210
0.0
220
0.0
230
1.0
 40
0.5773502692
 41
5.853485641028119
 42
6.283185307179582
  0
ELLIPSE
  5
330
330
294
100
AcDbEntity
  8
0-1MH
  6
Continuous
 62
     7
100
AcDbEllipse
 10
524.406893725
 20
55.9270450672
 30
0.0
 11
1.999999999999828
 21
3.464101615137852
 31
0.0
210
0.0
220
0.0
230
1.0
 40
0.5773502692
 41
0.0002756574062378
 42
0.7247023298664358
  0
ELLIPSE
  5
331
330
294
100
AcDbEntity
  8
0-1MH
  6
Continuous
 62
     7
100
AcDbEllipse
 10
524.406893725
 20
55.9270450672
 30
0.0
 11
1.999999999999828
 21
3.464101615137852
 31
0.0
210
0.0
220
0.0
230
1.0
 40
0.5773502692
 41
2.416890323721248
 42
3.141592653589793
  0
ELLIPSE
  5
332
330
294
100
AcDbEntity
  8
0-1MH
  6
Continuous
 62
     7
100
AcDbEllipse
 10
524.6190256617
 20
55.8045704609
 30
0.0
 11
0.717499999999939
 21
1.242746454430707
 31
0.0
210
0.0
220
0.0
230
1.0
 40
0.5773502692
 41
0.2719991318089809
 42
1.298797194985734
  0
ARC
  5
333
330
294
100
AcDbEntity
  8
0-1MH
  6
Continuous
 62
     7
100
AcDbCircle
 10
525.7208053339
 20
54.9168528161
 30
0.0
 40
2.277459941243944
100
AcDbArc
 50
105.3641605543
 51
134.6358394457
  0
ELLIPSE
  5
334
330
294
100
AcDbEntity
  8
0-1MH
  6
Continuous
 62
     7
100
AcDbEllipse
 10
524.6190256617
 20
55.8045704609
 30
0.0
 11
-0.7174999999999403
 21
-1.24274645443071
 31
0.0
210
0.0
220
0.0
230
1.0
 40
0.5773502692
 41
4.460789336595419
 42
5.487587399772119
  0
ARC
  5
335
330
294
100
AcDbEntity
  8
0-1MH
  6
Continuous
 62
     7
100
AcDbCircle
 10
526.3788333676
 20
54.8931447285
 30
0.0
 40
2.794913975196747
100
AcDbArc
 50
144.525090033
 51
173.062863741
  0
ELLIPSE
  5
336
330
294
100
AcDbEntity
  8
0-1MH
  6
Continuous
 62
     7
100
AcDbEllipse
 10
524.6190256617
 20
55.8045704609
 30
0.0
 11
0.7174999999999563
 21
1.242746454430708
 31
0.0
210
0.0
220
0.0
230
1.0
 40
0.5773502692
 41
2.366394234202191
 42
3.393192297379001
  0
ARC
  5
337
330
294
100
AcDbEntity
  8
0-1MH
  6
Continuous
 62
     7
100
AcDbCircle
 10
525.8590685332
 20
56.2620177204
 30
0.0
 40
2.489392323204653
100
AcDbArc
 50
205.079792099
 51
225.128026623
  0
ELLIPSE
  5
338
330
294
100
AcDbEntity
  8
0-1MH
  6
Continuous
 62
     7
100
AcDbEllipse
 10
524.6190256617
 20
55.8045704609
 30
0.0
 11
-0.7174999999999464
 21
-1.242746454430699
 31
0.0
210
0.0
220
0.0
230
1.0
 40
0.5773502692
 41
0.271999131809026
 42
1.298797194985756
  0
ARC
  5
339
330
294
100
AcDbEntity
  8
0-1MH
  6
Continuous
 62
     7
100
AcDbCircle
 10
525.7208053339
 20
52.8756113638
 30
0.0
 40
2.277459941244038
100
AcDbArc
 50
105.3641605543
 51
134.6358394457
  0
ELLIPSE
  5
33A
330
294
100
AcDbEntity
  8
0-1MH
  6
Continuous
 62
     7
100
AcDbEllipse
 10
524.6190256617
 20
55.8045704609
 30
0.0
 11
0.7174999999999341
 21
1.242746454430708
 31
0.0
210
0.0
220
0.0
230
0.9999999999999999
 40
0.5773502692
 41
4.460789336595421
 42
5.487587399772073
  0
ARC
  5
33B
330
294
100
AcDbEntity
  8
0-1MH
  6
Continuous
 62
     7
100
AcDbCircle
 10
527.9102174829
 20
54.7562317068
 30
0.0
 40
2.795384917135462
100
AcDbArc
 50
144.5275448781
 51
173.0604088959
  0
ELLIPSE
  5
33C
330
294
100
AcDbEntity
  8
0-1MH
  6
Continuous
 62
     7
100
AcDbEllipse
 10
524.6190256617
 20
55.8045704609
 30
0.0
 11
-0.717499999999936
 21
-1.24274645443071
 31
0.0
210
0.0
220
0.0
230
1.0
 40
0.5773502692
 41
2.36639423420214
 42
3.39319229737883
  0
ARC
  5
33D
330
294
100
AcDbEntity
  8
0-1MH
  6
Continuous
 62
     7
100
AcDbCircle
 10
527.3934817478
 20
58.1689695567
 30
0.0
 40
2.493583761037658
100
AcDbArc
 50
205.0968151271
 51
225.1110035949
  0
ELLIPSE
  5
33E
330
294
100
AcDbEntity
  8
0-1MH
  6
Continuous
 62
     7
100
AcDbEllipse
 10
524.6190256617
 20
55.8045704609
 30
0.0
 11
-1.999999999999827
 21
-3.464101615137853
 31
0.0
210
0.0
220
0.0
230
1.0
 40
0.5773502692
 41
0.0
 42
6.283185307179586
  0
LINE
  5
33F
330
294
100
AcDbEntity
  8
0-1MH
  6
Continuous
 62
     7
100
AcDbLine
 10
525.1293360248
 20
57.1198190126
 30
0.0
 11
525.1353113014
 21
57.1113182869
 31
0.0
  0
LINE
  5
340
330
294
100
AcDbEntity
  8
0-1MH
  6
Continuous
 62
     7
100
AcDbLine
 10
525.6336711112
 20
56.4023268376
 30
0.0
 11
525.6396463879
 21
56.3938261119
 31
0.0
  0
LINE
  5
341
330
294
100
AcDbEntity
  8
0-1MH
  6
Continuous
 62
     7
100
AcDbLine
 10
525.6396463879
 20
56.3938261119
 30
0.0
 11
525.6336711112
 21
56.378425731
 31
0.0
  0
LINE
  5
342
330
294
100
AcDbEntity
  8
0-1MH
  6
Continuous
 62
     7
100
AcDbLine
 10
525.1353113014
 20
55.0939779411
 30
0.0
 11
525.1293360248
 21
55.0785775603
 31
0.0
  0
LINE
  5
343
330
294
100
AcDbEntity
  8
0-1MH
  6
Continuous
 62
     7
100
AcDbLine
 10
525.1293360248
 20
55.0785775603
 30
0.0
 11
525.1173854715
 21
55.0716779051
 31
0.0
  0
LINE
  5
344
330
294
100
AcDbEntity
  8
0-1MH
  6
Continuous
 62
     7
100
AcDbLine
 10
524.1206658519
 20
54.4962215644
 30
0.0
 11
524.1087152986
 21
54.4893219093
 31
0.0
  0
LINE
  5
345
330
294
100
AcDbEntity
  8
0-1MH
  6
Continuous
 62
     7
100
AcDbLine
 10
524.1087152986
 20
54.4893219093
 30
0.0
 11
524.102740022
 21
54.497822635
 31
0.0
  0
LINE
  5
346
330
294
100
AcDbEntity
  8
0-1MH
  6
Continuous
 62
     7
100
AcDbLine
 10
523.6043802122
 20
55.2068140842
 30
0.0
 11
523.5984049356
 21
55.2153148099
 31
0.0
  0
LINE
  5
347
330
294
100
AcDbEntity
  8
0-1MH
  6
Continuous
 62
     7
100
AcDbLine
 10
523.5984049356
 20
55.2153148099
 30
0.0
 11
523.6043802122
 21
55.2307151908
 31
0.0
  0
LINE
  5
348
330
294
100
AcDbEntity
  8
0-1MH
  6
Continuous
 62
     7
100
AcDbLine
 10
524.102740022
 20
56.5151629807
 30
0.0
 11
524.1087152986
 21
56.5305633616
 31
0.0
  0
LINE
  5
349
330
294
100
AcDbEntity
  8
0-1MH
  6
Continuous
 62
     7
100
AcDbLine
 10
524.1087152986
 20
56.5305633616
 30
0.0
 11
524.1206658519
 21
56.5374630168
 31
0.0
  0
LINE
  5
34A
330
294
100
AcDbEntity
  8
0-1MH
  6
Continuous
 62
     7
100
AcDbLine
 10
525.1173854715
 20
57.1129193574
 30
0.0
 11
525.1293360248
 21
57.1198190126
 31
0.0
  0
ELLIPSE
  5
34B
330
294
100
AcDbEntity
  8
0-1MH
  6
Continuous
 62
     7
100
AcDbEllipse
 10
523.3462334556
 20
56.5394173838
 30
0.0
 11
0.6249999999999527
 21
1.082531754730578
 31
0.0
210
0.0
220
0.0
230
1.0
 40
0.5773502692
 41
4.477703634922128
 42
4.97418836818374
  0
LINE
  5
34C
330
294
100
AcDbEntity
  8
0-1MH
  6
Continuous
 62
     7
100
AcDbLine
 10
523.8565438187
 20
55.8134244831
 30
0.0
 11
523.7272812362
 21
55.7387946963
 31
0.0
  0
LINE
  5
34D
330
294
100
AcDbEntity
  8
0-1MH
  6
Continuous
 62
     7
100
AcDbLine
 10
524.1116990002
 20
56.4710487589
 30
0.0
 11
523.8565438187
 21
55.8134244831
 31
0.0
  0
ELLIPSE
  5
34E
330
294
100
AcDbEntity
  8
0-1MH
  6
Continuous
 62
     7
100
AcDbEllipse
 10
523.3462334556
 20
56.5394173838
 30
0.0
 11
0.6249999999999392
 21
1.082531754730577
 31
0.0
210
0.0
220
0.0
230
1.0
 40
0.5773502692
 41
-1.30899693899585
 42
-1.237178552960138
  0
LINE
  5
34F
330
294
100
AcDbEntity
  8
0-1MH
  6
Continuous
 62
     7
100
AcDbLine
 10
524.1475118508
 20
56.5633510191
 30
0.0
 11
524.1116990002
 21
56.4710487589
 31
0.0
  0
LINE
  5
350
330
294
100
AcDbEntity
  8
0-1MH
  6
Continuous
 62
     7
100
AcDbLine
 10
523.8565438187
 20
55.8134244831
 30
0.0
 11
525.1293360248
 21
55.0785775603
 31
0.0
  0
LINE
  5
351
330
294
100
AcDbEntity
  8
0-1MH
  6
Continuous
 62
     7
100
AcDbLine
 10
524.6897337743
 20
56.9422584151
 30
0.0
 11
525.6396463879
 21
56.3938261119
 31
0.0
  0
ELLIPSE
  5
352
330
294
100
AcDbEntity
  8
0-1MH
  6
Continuous
 62
     7
100
AcDbEllipse
 10
538.5490293487
 20
47.7620792579
 30
0.0
 11
1.999999999999831
 21
3.464101615137852
 31
0.0
210
0.0
220
0.0
230
0.9999999999999999
 40
0.5773502692
 41
0.0002756573643513
 42
0.7247023297570505
  0
ELLIPSE
  5
353
330
294
100
AcDbEntity
  8
0-1MH
  6
Continuous
 62
     7
100
AcDbEllipse
 10
538.5490293487
 20
47.7620792579
 30
0.0
 11
1.999999999999831
 21
3.464101615137852
 31
0.0
210
0.0
220
0.0
230
0.9999999999999999
 40
0.5773502692
 41
2.416890323886694
 42
3.141592653589793
  0
ELLIPSE
  5
354
330
294
100
AcDbEntity
  8
0-1MH
  6
Continuous
 62
     7
100
AcDbEllipse
 10
538.7611612854
 20
47.6396046516
 30
0.0
 11
-0.7174999999999381
 21
-1.242746454430717
 31
0.0
210
0.0
220
0.0
230
1.0
 40
0.5773502692
 41
4.984388112193692
 42
6.011186175370531
  0
ARC
  5
355
330
294
100
AcDbEntity
  8
0-1MH
  6
Continuous
 62
     7
100
AcDbCircle
 10
539.9877178744
 20
47.1292942886
 30
0.0
 40
2.187488804495656
100
AcDbArc
 50
164.747868732
 51
195.252131268
  0
ELLIPSE
  5
356
330
294
100
AcDbEntity
  8
0-1MH
  6
Continuous
 62
     7
100
AcDbEllipse
 10
538.7611612854
 20
47.6396046516
 30
0.0
 11
0.7174999999999456
 21
1.242746454430701
 31
0.0
210
0.0
220
0.0
230
1.0
 40
0.5773502692
 41
2.889993009800469
 42
3.916791072977218
  0
ARC
  5
357
330
294
100
AcDbEntity
  8
0-1MH
  6
Continuous
 62
     7
100
AcDbCircle
 10
538.10113834
 20
44.0588955571
 30
0.0
 40
2.489391848886405
100
AcDbArc
 50
74.8719714473
 51
94.9202098306
  0
ELLIPSE
  5
358
330
294
100
AcDbEntity
  8
0-1MH
  6
Continuous
 62
     7
100
AcDbEllipse
 10
538.7611612854
 20
47.6396046516
 30
0.0
 11
0.7174999999999326
 21
1.242746454430711
 31
0.0
210
0.0
220
0.0
230
1.0
 40
0.5773502692
 41
3.937190560997097
 42
4.963988624173777
  0
ARC
  5
359
330
294
100
AcDbEntity
  8
0-1MH
  6
Continuous
 62
     7
100
AcDbCircle
 10
541.3142664953
 20
45.3138227148
 30
0.0
 40
2.794914027984316
100
AcDbArc
 50
126.9371365342
 51
155.4749096918
  0
ELLIPSE
  5
35A
330
294
100
AcDbEntity
  8
0-1MH
  6
Continuous
 62
     7
100
AcDbEllipse
 10
538.7611612854
 20
47.6396046516
 30
0.0
 11
0.717499999999932
 21
1.242746454430711
 31
0.0
210
0.0
220
0.0
230
0.9999999999999999
 40
0.5773502692
 41
4.984388112193656
 42
6.011186175370405
  0
ARC
  5
35B
330
294
100
AcDbEntity
  8
0-1MH
  6
Continuous
 62
     7
100
AcDbCircle
 10
541.7554848274
 20
48.1499150147
 30
0.0
 40
2.18748880449574
100
AcDbArc
 50
164.747868732
 51
195.252131268
  0
ELLIPSE
  5
35C
330
294
100
AcDbEntity
  8
0-1MH
  6
Continuous
 62
     7
100
AcDbEllipse
 10
538.7611612854
 20
47.6396046516
 30
0.0
 11
-0.7174999999999514
 21
-1.242746454430685
 31
0.0
210
0.0
220
0.0
230
0.9999999999999999
 40
0.5773502692
 41
2.889993009800504
 42
3.916791072977227
  0
ARC
  5
35D
330
294
100
AcDbEntity
  8
0-1MH
  6
Continuous
 62
     7
100
AcDbCircle
 10
538.9846430804
 20
46.3327324864
 30
0.0
 40
2.493584236777026
100
AcDbArc
 50
74.888998334
 51
94.903182944
  0
ELLIPSE
  5
35E
330
294
100
AcDbEntity
  8
0-1MH
  6
Continuous
 62
     7
100
AcDbEllipse
 10
538.7611612854
 20
47.6396046516
 30
0.0
 11
-0.7174999999999472
 21
-1.242746454430702
 31
0.0
210
0.0
220
0.0
230
1.0
 40
0.5773502692
 41
3.937190560997109
 42
4.963988624173821
  0
ARC
  5
35F
330
294
100
AcDbEntity
  8
0-1MH
  6
Continuous
 62
     7
100
AcDbCircle
 10
540.4307616691
 20
46.5709749276
 30
0.0
 40
2.795384863200321
100
AcDbArc
 50
126.939590823
 51
155.472455403
  0
ELLIPSE
  5
360
330
294
100
AcDbEntity
  8
0-1MH
  6
Continuous
 62
     7
100
AcDbEllipse
 10
538.7611612854
 20
47.6396046516
 30
0.0
 11
1.999999999999828
 21
3.464101615137853
 31
0.0
210
0.0
220
0.0
230
0.9999999999999998
 40
0.5773502692
 41
0.0
 42
6.283185307179586
  0
LINE
  5
361
330
294
100
AcDbEntity
  8
0-1MH
  6
Continuous
 62
     7
100
AcDbLine
 10
537.877277809
 20
47.7185499396
 30
0.0
 11
537.8876272917
 21
47.7314248714
 31
0.0
  0
LINE
  5
362
330
294
100
AcDbEntity
  8
0-1MH
  6
Continuous
 62
     7
100
AcDbLine
 10
538.7508118027
 20
48.8052410218
 30
0.0
 11
538.7611612854
 21
48.8181159536
 31
0.0
  0
LINE
  5
363
330
294
100
AcDbEntity
  8
0-1MH
  6
Continuous
 62
     7
100
AcDbLine
 10
538.7611612854
 20
48.8181159536
 30
0.0
 11
538.7715107682
 21
48.8171915751
 31
0.0
  0
LINE
  5
364
330
294
100
AcDbEntity
  8
0-1MH
  6
Continuous
 62
     7
100
AcDbLine
 10
539.6346952792
 20
48.7400950442
 30
0.0
 11
539.6450447619
 21
48.7391706657
 31
0.0
  0
LINE
  5
365
330
294
100
AcDbEntity
  8
0-1MH
  6
Continuous
 62
     7
100
AcDbLine
 10
539.6450447619
 20
48.7391706657
 30
0.0
 11
539.6450447619
 21
48.7253713554
 31
0.0
  0
LINE
  5
366
330
294
100
AcDbEntity
  8
0-1MH
  6
Continuous
 62
     7
100
AcDbLine
 10
539.6450447619
 20
47.5744586741
 30
0.0
 11
539.6450447619
 21
47.5606593637
 31
0.0
  0
LINE
  5
367
330
294
100
AcDbEntity
  8
0-1MH
  6
Continuous
 62
     7
100
AcDbLine
 10
539.6450447619
 20
47.5606593637
 30
0.0
 11
539.6346952792
 21
47.5477844319
 31
0.0
  0
LINE
  5
368
330
294
100
AcDbEntity
  8
0-1MH
  6
Continuous
 62
     7
100
AcDbLine
 10
538.7715107682
 20
46.4739682815
 30
0.0
 11
538.7611612854
 21
46.4610933497
 31
0.0
  0
LINE
  5
369
330
294
100
AcDbEntity
  8
0-1MH
  6
Continuous
 62
     7
100
AcDbLine
 10
538.7611612854
 20
46.4610933497
 30
0.0
 11
538.7508118027
 21
46.4620177282
 31
0.0
  0
LINE
  5
36A
330
294
100
AcDbEntity
  8
0-1MH
  6
Continuous
 62
     7
100
AcDbLine
 10
537.8876272917
 20
46.5391142591
 30
0.0
 11
537.877277809
 21
46.5400386376
 31
0.0
  0
LINE
  5
36B
330
294
100
AcDbEntity
  8
0-1MH
  6
Continuous
 62
     7
100
AcDbLine
 10
537.877277809
 20
46.5400386376
 30
0.0
 11
537.877277809
 21
46.5538379479
 31
0.0
  0
LINE
  5
36C
330
294
100
AcDbEntity
  8
0-1MH
  6
Continuous
 62
     7
100
AcDbLine
 10
537.877277809
 20
47.7047506292
 30
0.0
 11
537.877277809
 21
47.7185499396
 31
0.0
  0
ELLIPSE
  5
36D
330
294
100
AcDbEntity
  8
0-1MH
  6
Continuous
 62
     7
100
AcDbEllipse
 10
537.4883690793
 20
48.3744515745
 30
0.0
 11
-0.6249999999999361
 21
-1.082531754730585
 31
0.0
210
0.0
220
0.0
230
1.0
 40
0.5773502692
 41
1.242443479444459
 42
1.308996938995686
  0
LINE
  5
36E
330
294
100
AcDbEntity
  8
0-1MH
  6
Continuous
 62
     7
100
AcDbLine
 10
537.9303108176
 20
47.7457232795
 30
0.0
 11
537.8710304856
 21
47.6719775426
 31
0.0
  0
ELLIPSE
  5
36F
330
294
100
AcDbEntity
  8
0-1MH
  6
Continuous
 62
     7
100
AcDbEllipse
 10
537.4883690793
 20
48.3744515745
 30
0.0
 11
0.6249999999999472
 21
1.082531754730583
 31
0.0
210
0.0
220
0.0
230
0.9999999999999998
 40
0.5773502692
 41
4.450589592585495
 42
4.958886811844281
  0
LINE
  5
370
330
294
100
AcDbEntity
  8
0-1MH
  6
Continuous
 62
     7
100
AcDbLine
 10
538.3722525558
 20
48.2955062866
 30
0.0
 11
537.9303108176
 21
47.7457232795
 31
0.0
  0
LINE
  5
371
330
294
100
AcDbEntity
  8
0-1MH
  6
Continuous
 62
     7
100
AcDbLine
 10
538.3722525558
 20
48.4288867641
 30
0.0
 11
538.3722525558
 21
48.2955062866
 31
0.0
  0
LINE
  5
372
330
294
100
AcDbEntity
  8
0-1MH
  6
Continuous
 62
     7
100
AcDbLine
 10
537.8281950656
 20
46.9997416478
 30
0.0
 11
538.7611612854
 21
46.4610933497
 31
0.0
  0
LINE
  5
373
330
294
100
AcDbEntity
  8
0-1MH
  6
Continuous
 62
     7
100
AcDbLine
 10
538.3722525558
 20
48.2955062866
 30
0.0
 11
539.6450447619
 21
47.5606593637
 31
0.0
  0
ELLIPSE
  5
374
330
294
100
AcDbEntity
  8
0-1MH
  6
Continuous
 62
     7
100
AcDbEllipse
 10
552.6911649724
 20
72.2569766857
 30
0.0
 11
1.99999999999983
 21
3.46410161513785
 31
0.0
210
0.0
220
0.0
230
0.9999999999999999
 40
0.5773502692
 41
0.0002756573969744
 42
0.7247023298630899
  0
ELLIPSE
  5
375
330
294
100
AcDbEntity
  8
0-1MH
  6
Continuous
 62
     7
100
AcDbEllipse
 10
552.6911649724
 20
72.2569766857
 30
0.0
 11
1.99999999999983
 21
3.46410161513785
 31
0.0
210
0.0
220
0.0
230
0.9999999999999999
 40
0.5773502692
 41
2.416890323730577
 42
3.141592642776744
  0
ELLIPSE
  5
376
330
294
100
AcDbEntity
  8
0-1MH
  6
Continuous
 62
     7
100
AcDbEllipse
 10
552.9032969092
 20
72.1345020795
 30
0.0
 11
-0.7174999999999452
 21
-1.2427464544307
 31
0.0
210
0.0
220
0.0
230
1.0
 40
0.5773502692
 41
0.2719991318091408
 42
1.298797194985778
  0
ARC
  5
377
330
294
100
AcDbEntity
  8
0-1MH
  6
Continuous
 62
     7
100
AcDbCircle
 10
553.9585169419
 20
69.2861866435
 30
0.0
 40
2.187488804495501
100
AcDbArc
 50
104.747868732
 51
135.252131268
  0
ELLIPSE
  5
378
330
294
100
AcDbEntity
  8
0-1MH
  6
Continuous
 62
     7
100
AcDbEllipse
 10
552.9032969092
 20
72.1345020795
 30
0.0
 11
0.7174999999999453
 21
1.242746454430709
 31
0.0
210
0.0
220
0.0
230
1.0
 40
0.5773502692
 41
4.460789336595404
 42
5.487587399772163
  0
ARC
  5
379
330
294
100
AcDbEntity
  8
0-1MH
  6
Continuous
 62
     7
100
AcDbCircle
 10
556.1944887304
 20
71.0861633253
 30
0.0
 40
2.795384917135279
100
AcDbArc
 50
144.5275448781
 51
173.0604088959
  0
ELLIPSE
  5
37A
330
294
100
AcDbEntity
  8
0-1MH
  6
Continuous
 62
     7
100
AcDbEllipse
 10
552.9032969092
 20
72.1345020795
 30
0.0
 11
-0.7174999999999453
 21
-1.242746454430709
 31
0.0
210
0.0
220
0.0
230
0.9999999999999999
 40
0.5773502692
 41
2.366394234202247
 42
3.393192297378824
  0
ARC
  5
37B
330
294
100
AcDbEntity
  8
0-1MH
  6
Continuous
 62
     7
100
AcDbCircle
 10
555.6777529953
 20
74.4989011752
 30
0.0
 40
2.49358376103796
100
AcDbArc
 50
205.0968151271
 51
225.1110035949
  0
ELLIPSE
  5
37C
330
294
100
AcDbEntity
  8
0-1MH
  6
Continuous
 62
     7
100
AcDbEllipse
 10
552.9032969092
 20
72.1345020795
 30
0.0
 11
0.7174999999999427
 21
1.242746454430713
 31
0.0
210
0.0
220
0.0
230
1.0
 40
0.5773502692
 41
0.2719991318088676
 42
1.298797194985708
  0
ARC
  5
37D
330
294
100
AcDbEntity
  8
0-1MH
  6
Continuous
 62
     7
100
AcDbCircle
 10
553.9585169419
 20
71.3274280958
 30
0.0
 40
2.187488804495385
100
AcDbArc
 50
104.747868732
 51
135.252131268
  0
ELLIPSE
  5
37E
330
294
100
AcDbEntity
  8
0-1MH
  6
Continuous
 62
     7
100
AcDbEllipse
 10
552.9032969092
 20
72.1345020795
 30
0.0
 11
-0.717499999999933
 21
-1.242746454430705
 31
0.0
210
0.0
220
0.0
230
1.0
 40
0.5773502692
 41
4.460789336595417
 42
5.487587399772019
  0
ARC
  5
37F
330
294
100
AcDbEntity
  8
0-1MH
  6
Continuous
 62
     7
100
AcDbCircle
 10
554.6631046151
 20
71.223076347
 30
0.0
 40
2.794913975196847
100
AcDbArc
 50
144.525090033
 51
173.062863741
  0
ELLIPSE
  5
380
330
294
100
AcDbEntity
  8
0-1MH
  6
Continuous
 62
     7
100
AcDbEllipse
 10
552.9032969092
 20
72.1345020795
 30
0.0
 11
0.7174999999999403
 21
1.242746454430704
 31
0.0
210
0.0
220
0.0
230
1.0
 40
0.5773502692
 41
2.366394234202076
 42
3.393192297378965
  0
ARC
  5
381
330
294
100
AcDbEntity
  8
0-1MH
  6
Continuous
 62
     7
100
AcDbCircle
 10
554.1433397807
 20
72.5919493389
 30
0.0
 40
2.489392323204655
100
AcDbArc
 50
205.079792099
 51
225.128026623
  0
ELLIPSE
  5
382
330
294
100
AcDbEntity
  8
0-1MH
  6
Continuous
 62
     7
100
AcDbEllipse
 10
552.9032969092
 20
72.1345020795
 30
0.0
 11
1.999999999999827
 21
3.464101615137852
 31
0.0
210
0.0
220
0.0
230
1.0
 40
0.5773502692
 41
0.0
 42
6.283185307179586
  0
LINE
  5
383
330
294
100
AcDbEntity
  8
0-1MH
  6
Continuous
 62
     7
100
AcDbLine
 10
552.3929865461
 20
70.8192535278
 30
0.0
 11
552.3870112694
 21
70.8277542535
 31
0.0
  0
LINE
  5
384
330
294
100
AcDbEntity
  8
0-1MH
  6
Continuous
 62
     7
100
AcDbLine
 10
551.8886514597
 20
71.5367457028
 30
0.0
 11
551.882676183
 21
71.5452464285
 31
0.0
  0
LINE
  5
385
330
294
100
AcDbEntity
  8
0-1MH
  6
Continuous
 62
     7
100
AcDbLine
 10
551.882676183
 20
71.5452464285
 30
0.0
 11
551.8886514597
 21
71.5606468094
 31
0.0
  0
LINE
  5
386
330
294
100
AcDbEntity
  8
0-1MH
  6
Continuous
 62
     7
100
AcDbLine
 10
552.3870112694
 20
72.8450945993
 30
0.0
 11
552.3929865461
 21
72.8604949801
 31
0.0
  0
LINE
  5
387
330
294
100
AcDbEntity
  8
0-1MH
  6
Continuous
 62
     7
100
AcDbLine
 10
552.3929865461
 20
72.8604949801
 30
0.0
 11
552.4049370994
 21
72.8673946353
 31
0.0
  0
LINE
  5
388
330
294
100
AcDbEntity
  8
0-1MH
  6
Continuous
 62
     7
100
AcDbLine
 10
553.401656719
 20
73.442850976
 30
0.0
 11
553.4136072723
 21
73.4497506311
 31
0.0
  0
LINE
  5
389
330
294
100
AcDbEntity
  8
0-1MH
  6
Continuous
 62
     7
100
AcDbLine
 10
553.4136072723
 20
73.4497506311
 30
0.0
 11
553.4195825489
 21
73.4412499054
 31
0.0
  0
LINE
  5
38A
330
294
100
AcDbEntity
  8
0-1MH
  6
Continuous
 62
     7
100
AcDbLine
 10
553.9179423587
 20
72.7322584562
 30
0.0
 11
553.9239176353
 21
72.7237577305
 31
0.0
  0
LINE
  5
38B
330
294
100
AcDbEntity
  8
0-1MH
  6
Continuous
 62
     7
100
AcDbLine
 10
553.9239176353
 20
72.7237577305
 30
0.0
 11
553.9179423587
 21
72.7083573496
 31
0.0
  0
LINE
  5
38C
330
294
100
AcDbEntity
  8
0-1MH
  6
Continuous
 62
     7
100
AcDbLine
 10
553.4195825489
 20
71.4239095597
 30
0.0
 11
553.4136072723
 21
71.4085091788
 31
0.0
  0
LINE
  5
38D
330
294
100
AcDbEntity
  8
0-1MH
  6
Continuous
 62
     7
100
AcDbLine
 10
553.4136072723
 20
71.4085091788
 30
0.0
 11
553.401656719
 21
71.4016095236
 31
0.0
  0
LINE
  5
38E
330
294
100
AcDbEntity
  8
0-1MH
  6
Continuous
 62
     7
100
AcDbLine
 10
552.4049370994
 20
70.826153183
 30
0.0
 11
552.3929865461
 21
70.8192535278
 31
0.0
  0
ELLIPSE
  5
38F
330
294
100
AcDbEntity
  8
0-1MH
  6
Continuous
 62
     7
100
AcDbEllipse
 10
551.630504703
 20
72.8693490023
 30
0.0
 11
0.624999999999949
 21
1.082531754730584
 31
0.0
210
0.0
220
0.0
230
0.9999999999999998
 40
0.5773502692
 41
4.477703634922076
 42
4.974188368183773
  0
LINE
  5
390
330
294
100
AcDbEntity
  8
0-1MH
  6
Continuous
 62
     7
100
AcDbLine
 10
552.1408150661
 20
72.1433561016
 30
0.0
 11
552.0115524836
 21
72.0687263148
 31
0.0
  0
LINE
  5
391
330
294
100
AcDbEntity
  8
0-1MH
  6
Continuous
 62
     7
100
AcDbLine
 10
552.3959702477
 20
72.8009803775
 30
0.0
 11
552.1408150661
 21
72.1433561016
 31
0.0
  0
ELLIPSE
  5
392
330
294
100
AcDbEntity
  8
0-1MH
  6
Continuous
 62
     7
100
AcDbEllipse
 10
551.630504703
 20
72.8693490023
 30
0.0
 11
0.6249999999999245
 21
1.082531754730578
 31
0.0
210
0.0
220
0.0
230
0.9999999999999999
 40
0.5773502692
 41
-1.308996938995865
 42
-1.239078565627633
  0
LINE
  5
393
330
294
100
AcDbEntity
  8
0-1MH
  6
Continuous
 62
     7
100
AcDbLine
 10
552.4301957633
 20
72.8891915193
 30
0.0
 11
552.3959702477
 21
72.8009803775
 31
0.0
  0
LINE
  5
394
330
294
100
AcDbEntity
  8
0-1MH
  6
Continuous
 62
     7
100
AcDbLine
 10
552.1408150661
 20
72.1433561016
 30
0.0
 11
553.4136072723
 21
71.4085091788
 31
0.0
  0
LINE
  5
395
330
294
100
AcDbEntity
  8
0-1MH
  6
Continuous
 62
     7
100
AcDbLine
 10
552.9909514155
 20
73.2624060286
 30
0.0
 11
553.9239176353
 21
72.7237577305
 31
0.0
  0
ELLIPSE
  5
396
330
294
100
AcDbEntity
  8
0-1MH
  6
Continuous
 62
     7
100
AcDbEllipse
 10
498.5974961141
 20
90.0157772018
 30
0.0
 11
-7.499999999999353
 21
12.99038105676696
 31
0.0
210
0.0
220
0.0
230
1.0
 40
0.5773502692
 41
0.262268854355055
 42
2.879323799234795
  0
ELLIPSE
  5
397
330
294
100
AcDbEntity
  8
0-1MH
  6
Continuous
 62
     7
100
AcDbEllipse
 10
483.1048554269
 20
107.0518590442
 30
0.0
 11
-1.149999999999882
 21
1.991858428704238
 31
0.0
210
0.0
220
0.0
230
0.9999999999999999
 40
0.5773502692
 41
0.0
 42
6.283185307179586
  0
ELLIPSE
  5
398
330
294
100
AcDbEntity
  8
0-1MH
  6
Continuous
 62
     7
100
AcDbEllipse
 10
505.6048554269
 20
94.0614779874
 30
0.0
 11
-1.14999999999988
 21
1.991858428704237
 31
0.0
210
0.0
220
0.0
230
0.9999999999999999
 40
0.5773502692
 41
0.0
 42
6.283185307179586
  0
ELLIPSE
  5
399
330
294
100
AcDbEntity
  8
0-1MH
  6
Continuous
 62
     7
100
AcDbEllipse
 10
505.6048554269
 20
68.0807158739
 30
0.0
 11
-1.149999999999898
 21
1.991858428704269
 31
0.0
210
0.0
220
0.0
230
1.0
 40
0.5773502692
 41
0.0
 42
6.283185307179586
  0
ELLIPSE
  5
39A
330
294
100
AcDbEntity
  8
0-1MH
  6
Continuous
 62
     7
100
AcDbEllipse
 10
483.1048554269
 20
81.0710969306
 30
0.0
 11
-1.149999999999902
 21
1.991858428704268
 31
0.0
210
0.0
220
0.0
230
1.0
 40
0.5773502692
 41
0.0
 42
6.283185307179586
  0
ELLIPSE
  5
39B
330
294
100
AcDbEntity
  8
0-1MH
  6
Continuous
 62
     7
100
AcDbEllipse
 10
498.5974961141
 20
90.0157772018
 30
0.0
 11
-1.749999999999848
 21
3.031088913245623
 31
0.0
210
0.0
220
0.0
230
1.0
 40
0.5773502692
 41
0.0
 42
6.283185307179586
  0
ELLIPSE
  5
39C
330
294
100
AcDbEntity
  8
0-1MH
  6
Continuous
 62
     7
100
AcDbEllipse
 10
494.3548554269
 20
87.566287459
 30
0.0
 11
-7.749999999999329
 21
13.42339375865919
 31
0.0
210
0.0
220
0.0
230
1.0
 40
0.5773502692
 41
0.0
 42
6.283185307179586
  0
ELLIPSE
  5
39D
330
294
100
AcDbEntity
  8
0-1MH
  6
Continuous
 62
     7
100
AcDbEllipse
 10
494.7084088175
 20
87.7704116042
 30
0.0
 11
7.499999999999354
 21
-12.99038105676696
 31
0.0
210
0.0
220
0.0
230
0.9999999999999999
 40
0.5773502692
 41
0.0000000000000016
 42
0.7688673742404639
  0
ELLIPSE
  5
39E
330
294
100
AcDbEntity
  8
0-1MH
  6
Continuous
 62
     7
100
AcDbEllipse
 10
494.7084088175
 20
87.7704116042
 30
0.0
 11
7.499999999999354
 21
-12.99038105676696
 31
0.0
210
0.0
220
0.0
230
0.9999999999999999
 40
0.5773502692
 41
2.37272527932521
 42
6.283185307179586
  0
LINE
  5
39F
330
294
100
AcDbEntity
  8
0-1MH
  6
Continuous
 62
     7
100
AcDbLine
 10
551.4025827393
 20
85.5385218258
 30
0.0
 11
548.9277090051
 21
86.9673908425
 31
0.0
  0
LINE
  5
3A0
330
294
100
AcDbEntity
  8
0-1MH
  6
Continuous
 62
     7
100
AcDbLine
 10
523.9277090051
 20
43.6661206532
 30
0.0
 11
526.4025827393
 21
42.2372516366
 31
0.0
  0
LINE
  5
3A1
330
294
100
AcDbEntity
  8
0-1MH
  6
Continuous
 62
     7
100
AcDbLine
 10
540.7611612854
 20
83.7635695039
 30
0.0
 11
540.5490292511
 21
83.886043991
 31
0.0
  0
LINE
  5
3A2
330
294
100
AcDbEntity
  8
0-1MH
  6
Continuous
 62
     7
100
AcDbLine
 10
536.5490292511
 20
76.9578407608
 30
0.0
 11
536.7611612854
 21
76.8353662736
 31
0.0
  0
LINE
  5
3A3
330
294
100
AcDbEntity
  8
0-1MH
  6
Continuous
 62
     7
100
AcDbLine
 10
564.5249743865
 20
54.8682945329
 30
0.0
 11
546.35233011
 21
65.3602755978
 31
0.0
  0
LINE
  5
3A4
330
294
100
AcDbEntity
  8
0-1MH
  6
Continuous
 62
     7
100
AcDbLine
 10
541.35233011
 20
56.7000215599
 30
0.0
 11
559.5249743865
 21
46.208040495
 31
0.0
  0
LINE
  5
3A5
330
294
100
AcDbEntity
  8
0-1MH
  6
Continuous
 62
     7
100
AcDbLine
 10
562.0249743865
 20
46.4556846093
 30
0.0
 11
562.5906598114
 21
46.7822832417
 31
0.0
  0
LINE
  5
3A6
330
294
100
AcDbEntity
  8
0-1MH
  6
Continuous
 62
     7
100
AcDbLine
 10
565.5605082924
 20
51.9262117015
 30
0.0
 11
565.5605082924
 21
52.5794089663
 31
0.0
  0
LINE
  5
3A7
330
294
100
AcDbEntity
  8
0-1MH
  6
Continuous
 62
     7
100
AcDbLine
 10
546.9987767194
 20
67.2964505506
 30
0.0
 11
541.056291264
 21
70.7273461279
 31
0.0
  0
LINE
  5
3A8
330
294
100
AcDbEntity
  8
0-1MH
  6
Continuous
 62
     7
100
AcDbLine
 10
534.0562916591
 20
58.6029902468
 30
0.0
 11
539.9987767194
 21
55.1720948976
 31
0.0
  0
LINE
  5
3A9
330
294
100
AcDbEntity
  8
0-1MH
  6
Continuous
 62
     7
100
AcDbLine
 10
540.7253134677
 20
54.8990362629
 30
0.0
 11
541.5385841401
 21
54.7332910429
 31
0.0
  0
LINE
  5
3AA
330
294
100
AcDbEntity
  8
0-1MH
  6
Continuous
 62
     7
100
AcDbLine
 10
548.1486957152
 20
66.1823401346
 30
0.0
 11
547.5985208079
 21
66.8037805871
 31
0.0
  0
SPLINE
  5
3AB
330
294
100
AcDbEntity
  8
0-1MH
  6
Continuous
 62
     7
100
AcDbSpline
210
0.0
220
0.0
230
1.0
 70
     8
 71
     3
 72
    14
 73
    10
 74
     0
 42
0.0000000041099522
 43
0.0000000001
 40
0.0
 40
0.0
 40
0.0
 40
0.0
 40
0.0211424558873574
 40
0.2001356312171785
 40
0.3613738750812656
 40
0.5327278687031907
 40
0.6973121944451517
 40
0.8584373496774851
 40
1.0
 40
1.0
 40
1.0
 40
1.0
 10
541.3999409908134
 20
56.67857184101211
 30
0.0
 10
541.3862312470342
 20
56.68407604517215
 30
0.0
 10
541.2747469795481
 20
56.72914735219118
 30
0.0
 10
541.0932267667579
 20
56.88197023779572
 30
0.0
 10
540.8685002251054
 20
57.1408610664019
 30
0.0
 10
540.6880347051672
 20
57.47438532431983
 30
0.0
 10
540.5553902151314
 20
57.87552911026012
 30
0.0
 10
540.4770355245397
 20
58.32346017949306
 30
0.0
 10
540.4674206325237
 20
58.61986123536785
 30
0.0
 10
540.4632428134634
 20
58.78478298130775
 30
0.0
  0
SPLINE
  5
3AC
330
294
100
AcDbEntity
  8
0-1MH
  6
Continuous
 62
     7
100
AcDbSpline
210
0.0
220
0.0
230
1.0
 70
     8
 71
     3
 72
    26
 73
    22
 74
     0
 42
0.0000000010045558
 43
0.0000000001
 40
0.0
 40
0.0
 40
0.0
 40
0.0
 40
0.0281288048891206
 40
0.0820849487613882
 40
0.1362036246759351
 40
0.1904799080176319
 40
0.2448978280018659
 40
0.299420087451948
 40
0.3540008965988593
 40
0.4085913615270261
 40
0.46312732645145
 40
0.5175558218811424
 40
0.5718277544595527
 40
0.6259001820777499
 40
0.6797479321392849
 40
0.7333883622035594
 40
0.7869294916127554
 40
0.8405482105346266
 40
0.8947105481029467
 40
0.9502697330369947
 40
1.0
 40
1.0
 40
1.0
 40
1.0
 10
540.4632428134634
 20
58.78478298130775
 30
0.0
 10
540.4646541219072
 20
58.88461126236841
 30
0.0
 10
540.4694900271274
 20
59.13310016562072
 30
0.0
 10
540.5207440505089
 20
59.61280990254635
 30
0.0
 10
540.6372451842085
 20
60.1912408708112
 30
0.0
 10
540.8115643504697
 20
60.79071605647452
 30
0.0
 10
541.0404341960012
 20
61.39383957320282
 30
0.0
 10
541.3204616631584
 20
61.99118022342648
 30
0.0
 10
541.6467670721919
 20
62.57123902817119
 30
0.0
 10
542.0134470156996
 20
63.12340980383277
 30
0.0
 10
542.4135946584528
 20
63.63752052240137
 30
0.0
 10
542.8394519443494
 20
64.10427034122019
 30
0.0
 10
543.2825669683782
 20
64.51543692675963
 30
0.0
 10
543.7339219739553
 20
64.86409695887473
 30
0.0
 10
544.1840982975748
 20
65.14489047255005
 30
0.0
 10
544.623698425359
 20
65.35434710984329
 30
0.0
 10
545.0432331538018
 20
65.49098723178534
 30
0.0
 10
545.4355133318918
 20
65.55586213195706
 30
0.0
 10
545.7918097050331
 20
65.5510982216363
 30
0.0
 10
546.1075003220635
 20
65.4850739176814
 30
0.0
 10
546.2683789710812
 20
65.40051092927898
 30
0.0
 10
546.3571292536562
 20
65.35186336276728
 30
0.0
  0
LINE
  5
3AD
330
294
100
AcDbEntity
  8
0-1MH
  6
Continuous
 62
     7
100
AcDbLine
 10
526.6190256617
 20
59.2686720761
 30
0.0
 11
526.4068936274
 21
59.3911465632
 31
0.0
  0
LINE
  5
3AE
330
294
100
AcDbEntity
  8
0-1MH
  6
Continuous
 62
     7
100
AcDbLine
 10
522.4068936274
 20
52.4629433329
 30
0.0
 11
522.6190256617
 21
52.3404688458
 31
0.0
  0
LINE
  5
3AF
330
294
100
AcDbEntity
  8
0-1MH
  6
Continuous
 62
     7
100
AcDbLine
 10
540.7611612854
 20
51.1037062668
 30
0.0
 11
540.5490292511
 21
51.2261807539
 31
0.0
  0
LINE
  5
3B0
330
294
100
AcDbEntity
  8
0-1MH
  6
Continuous
 62
     7
100
AcDbLine
 10
536.5490292511
 20
44.2979775236
 30
0.0
 11
536.7611612854
 21
44.1755030365
 31
0.0
  0
LINE
  5
3B1
330
294
100
AcDbEntity
  8
0-1MH
  6
Continuous
 62
     7
100
AcDbLine
 10
554.9032969092
 20
75.5986036946
 30
0.0
 11
554.6911648748
 21
75.7210781818
 31
0.0
  0
LINE
  5
3B2
330
294
100
AcDbEntity
  8
0-1MH
  6
Continuous
 62
     7
100
AcDbLine
 10
550.6911648748
 20
68.7928749515
 30
0.0
 11
550.9032969092
 21
68.6704004643
 31
0.0
  0
ENDBLK
  5
3B4
330
294
100
AcDbEntity
  8
0
100
AcDbBlockEnd
  0
ENDSEC
  0
SECTION
  2
ENTITIES
  0
INSERT
  5
41
330
1F
100
AcDbEntity
  8
Default
100
AcDbBlockReference
  2
SE
 10
0.0
 20
0.0
 30
0.0
  0
INSERT
  5
104
330
1F
100
AcDbEntity
  8
Default
100
AcDbBlockReference
  2
SE1
 10
0.0
 20
0.0
 30
0.0
  0
INSERT
  5
13B
330
1F
100
AcDbEntity
  8
Default
100
AcDbBlockReference
  2
SE2
 10
0.0
 20
0.0
 30
0.0
  0
INSERT
  5
176
330
1F
100
AcDbEntity
  8
Default
100
AcDbBlockReference
  2
SE3
 10
0.0
 20
0.0
 30
0.0
  0
INSERT
  5
1B7
330
1F
100
AcDbEntity
  8
Default
100
AcDbBlockReference
  2
SE4
 10
0.0
 20
0.0
 30
0.0
  0
INSERT
  5
295
330
1F
100
AcDbEntity
  8
Default
100
AcDbBlockReference
  2
SE5
 10
0.0
 20
0.0
 30
0.0
  0
ENDSEC
  0
SECTION
  2
OBJECTS
  0
DICTIONARY
  5
C
330
0
100
AcDbDictionary
281
     1
  3
ACAD_GROUP
350
D
  3
ACAD_LAYOUT
350
1A
  3
ACAD_MATERIAL
350
3B
  3
ACAD_MLEADERSTYLE
350
3B7
  3
ACAD_MLINESTYLE
350
17
  3
ACAD_PLOTSETTINGS
350
19
  3
ACAD_PLOTSTYLENAME
350
E
  3
ACAD_VISUALSTYLE
350
2A
  3
AcDbVariableDictionary
350
3B5
  0
DICTIONARY
  5
D
102
{ACAD_REACTORS
330
C
102
}
330
C
100
AcDbDictionary
281
     1
  0
DICTIONARY
  5
1A
102
{ACAD_REACTORS
330
C
102
}
330
C
100
AcDbDictionary
281
     1
  3
Layout1
350
1E
  3
Model
350
22
  0
DICTIONARY
  5
3B
102
{ACAD_REACTORS
330
C
102
}
330
C
100
AcDbDictionary
281
     1
  3
ByBlock
350
3D
  3
ByLayer
350
3C
  3
Global
350
3E
  0
DICTIONARY
  5
3B7
102
{ACAD_REACTORS
330
C
102
}
330
C
100
AcDbDictionary
281
     1
  0
DICTIONARY
  5
17
102
{ACAD_REACTORS
330
C
102
}
330
C
100
AcDbDictionary
281
     1
  3
Standard
350
18
  0
DICTIONARY
  5
19
102
{ACAD_REACTORS
330
C
102
}
330
C
100
AcDbDictionary
281
     1
  0
ACDBDICTIONARYWDFLT
  5
E
102
{ACAD_REACTORS
330
C
102
}
330
C
100
AcDbDictionary
281
     1
  3
Normal
350
F
100
AcDbDictionaryWithDefault
340
F
  0
DICTIONARY
  5
2A
102
{ACAD_REACTORS
330
C
102
}
330
C
100
AcDbDictionary
281
     1
  3
2dWireframe
350
2F
  3
3D Hidden
350
31
  3
3dWireframe
350
30
  3
Basic
350
32
  3
Brighten
350
36
  3
ColorChange
350
3A
  3
Conceptual
350
34
  3
Dim
350
35
  3
Facepattern
350
39
  3
Flat
350
2B
  3
FlatWithEdges
350
2C
  3
Gouraud
350
2D
  3
GouraudWithEdges
350
2E
  3
Linepattern
350
38
  3
Realistic
350
33
  3
Thicken
350
37
  0
DICTIONARY
  5
3B5
102
{ACAD_REACTORS
330
C
102
}
330
C
100
AcDbDictionary
281
     1
  3
DIMASSOC
350
3BA
  3
HIDETEXT
350
3BB
  3
PSOLHEIGHT
350
3B9
  3
PSOLWIDTH
350
3B8
  0
LAYOUT
  5
1E
102
{ACAD_REACTORS
330
1A
102
}
330
1A
100
AcDbPlotSettings
  1

  2
none_device
  4

  6

 40
0.0
 41
0.0
 42
0.0
 43
0.0
 44
0.0
 45
0.0
 46
0.0
 47
0.0
 48
0.0
 49
0.0
140
0.0
141
0.0
142
1.0
143
1.0
 70
   688
 72
     0
 73
     0
 74
     5
  7

 75
    16
147
1.0
148
0.0
149
0.0
100
AcDbLayout
  1
Layout1
 70
     1
 71
     1
 10
0.0
 20
0.0
 11
594.0
 21
420.0
 12
0.0
 22
0.0
 32
0.0
 14
0.0
 24
0.0
 34
0.0
 15
594.0
 25
420.0
 35
0.0
146
0.0
 13
0.0
 23
0.0
 33
0.0
 16
1.0
 26
0.0
 36
0.0
 17
0.0
 27
1.0
 37
0.0
 76
     0
330
1B
  0
LAYOUT
  5
22
102
{ACAD_REACTORS
330
1A
102
}
330
1A
100
AcDbPlotSettings
  1

  2
none_device
  4

  6

 40
0.0
 41
0.0
 42
0.0
 43
0.0
 44
0.0
 45
0.0
 46
0.0
 47
0.0
 48
0.0
 49
0.0
140
0.0
141
0.0
142
1.0
143
1.0
 70
  1712
 72
     0
 73
     0
 74
     0
  7

 75
     0
147
1.0
148
0.0
149
0.0
100
AcDbLayout
  1
Model
 70
     1
 71
     0
 10
0.0
 20
0.0
 11
594.0
 21
420.0
 12
0.0
 22
0.0
 32
0.0
 14
0.0
 24
0.0
 34
0.0
 15
594.0
 25
420.0
 35
0.0
146
0.0
 13
0.0
 23
0.0
 33
0.0
 16
1.0
 26
0.0
 36
0.0
 17
0.0
 27
1.0
 37
0.0
 76
     0
330
1F
331
29
  0
MATERIAL
  5
3D
102
{ACAD_REACTORS
330
3B
102
}
102
{ACAD_XDICTIONARY
360
3DE
102
}
330
3B
100
AcDbMaterial
  1
ByBlock
  0
MATERIAL
  5
3C
102
{ACAD_REACTORS
330
3B
102
}
102
{ACAD_XDICTIONARY
360
3DC
102
}
330
3B
100
AcDbMaterial
  1
ByLayer
  0
MATERIAL
  5
3E
102
{ACAD_REACTORS
330
3B
102
}
102
{ACAD_XDICTIONARY
360
3E0
102
}
330
3B
100
AcDbMaterial
  1
Global
  0
MLINESTYLE
  5
18
102
{ACAD_REACTORS
330
17
102
}
330
17
100
AcDbMlineStyle
  2
Standard
 70
     0
  3

 62
   256
 51
90.0
 52
90.0
 71
     2
 49
0.5
 62
   256
  6
BYLAYER
 49
-0.5
 62
   256
  6
BYLAYER
  0
ACDBPLACEHOLDER
  5
F
102
{ACAD_REACTORS
330
E
102
}
330
E
  0
VISUALSTYLE
  5
2F
102
{ACAD_REACTORS
330
2A
102
}
102
{ACAD_XDICTIONARY
360
3C4
102
}
330
2A
100
AcDbVisualStyle
  2
2dWireframe
 70
     4
 71
     0
 72
     2
 73
     0
 90
        0
 40
-0.6
 41
-30.0
 62
     5
 63
     7
 74
     1
 91
        4
 64
     7
 65
   257
 75
     1
175
     1
 42
1.0
 92
        0
 66
   257
 43
1.0
 76
     1
 77
     6
 78
     2
 67
     7
 79
     5
170
     0
171
     0
290
     0
174
     0
 93
        1
 44
0.0
173
     0
291
     0
 45
0.0
1001
ACAD
1000
AcDbSavedByObjectVersion
1070
     0
  0
VISUALSTYLE
  5
31
102
{ACAD_REACTORS
330
2A
102
}
102
{ACAD_XDICTIONARY
360
3C8
102
}
330
2A
100
AcDbVisualStyle
  2
3D Hidden
 70
     6
 71
     1
 72
     2
 73
     2
 90
        0
 40
-0.6
 41
-30.0
 62
     5
 63
     7
 74
     2
 91
        2
 64
     7
 65
   257
 75
     2
175
     1
 42
40.0
 92
        0
 66
   257
 43
1.0
 76
     1
 77
     6
 78
     2
 67
     7
 79
     3
170
     0
171
     0
290
     0
174
     0
 93
        1
 44
0.0
173
     0
291
     0
 45
0.0
1001
ACAD
1000
AcDbSavedByObjectVersion
1070
     0
  0
VISUALSTYLE
  5
30
102
{ACAD_REACTORS
330
2A
102
}
102
{ACAD_XDICTIONARY
360
3C6
102
}
330
2A
100
AcDbVisualStyle
  2
3dWireframe
 70
     5
 71
     0
 72
     2
 73
     0
 90
        0
 40
-0.6
 41
-30.0
 62
     5
 63
     7
 74
     1
 91
        4
 64
     7
 65
   257
 75
     1
175
     1
 42
1.0
 92
        0
 66
   257
 43
1.0
 76
     1
 77
     6
 78
     2
 67
     7
 79
     5
170
     0
171
     0
290
     0
174
     0
 93
        1
 44
0.0
173
     0
291
     0
 45
0.0
1001
ACAD
1000
AcDbSavedByObjectVersion
1070
     0
  0
VISUALSTYLE
  5
32
102
{ACAD_REACTORS
330
2A
102
}
102
{ACAD_XDICTIONARY
360
3CA
102
}
330
2A
100
AcDbVisualStyle
  2
Basic
 70
     7
 71
     1
 72
     0
 73
     1
 90
        0
 40
-0.6
 41
-30.0
 62
     5
 63
     7
 74
     0
 91
        4
 64
     7
 65
   257
 75
     1
175
     1
 42
1.0
 92
        8
 66
     7
 43
1.0
 76
     1
 77
     6
 78
     2
 67
     7
 79
     5
170
     0
171
     0
290
     0
174
     0
 93
        1
 44
0.0
173
     0
291
     1
 45
0.0
1001
ACAD
1000
AcDbSavedByObjectVersion
1070
     0
  0
VISUALSTYLE
  5
36
102
{ACAD_REACTORS
330
2A
102
}
102
{ACAD_XDICTIONARY
360
3D2
102
}
330
2A
100
AcDbVisualStyle
  2
Brighten
 70
    12
 71
     2
 72
     2
 73
     0
 90
        0
 40
-0.6
 41
-30.0
 62
     5
 63
     7
 74
     1
 91
        4
 64
     7
 65
   257
 75
     1
175
     1
 42
1.0
 92
        8
 66
     7
 43
1.0
 76
     1
 77
     6
 78
     2
 67
     7
 79
     5
170
     0
171
     0
290
     0
174
     0
 93
        1
 44
50.0
173
     0
291
     1
 45
0.0
1001
ACAD
1000
AcDbSavedByObjectVersion
1070
     0
  0
VISUALSTYLE
  5
3A
102
{ACAD_REACTORS
330
2A
102
}
102
{ACAD_XDICTIONARY
360
3DA
102
}
330
2A
100
AcDbVisualStyle
  2
ColorChange
 70
    16
 71
     2
 72
     2
 73
     3
 90
        0
 40
-0.6
 41
-30.0
 62
     5
 63
     8
 74
     1
 91
        4
 64
     7
 65
   257
 75
     1
175
     1
 42
1.0
 92
        8
 66
     8
 43
1.0
 76
     1
 77
     6
 78
     2
 67
     7
 79
     5
170
     0
171
     0
290
     0
174
     0
 93
        1
 44
0.0
173
     0
291
     1
 45
0.0
1001
ACAD
1000
AcDbSavedByObjectVersion
1070
     0
  0
VISUALSTYLE
  5
34
102
{ACAD_REACTORS
330
2A
102
}
102
{ACAD_XDICTIONARY
360
3CE
102
}
330
2A
100
AcDbVisualStyle
  2
Conceptual
 70
     9
 71
     3
 72
     2
 73
     0
 90
        0
 40
-0.6
 41
-30.0
 62
     5
 63
     7
 74
     2
 91
        2
 64
     7
 65
   257
 75
     1
175
     1
 42
40.0
 92
        8
 66
     7
 43
1.0
 76
     1
 77
     6
 78
     2
 67
     7
 79
     3
170
     0
171
     0
290
     0
174
     0
 93
        1
 44
0.0
173
     0
291
     0
 45
0.0
1001
ACAD
1000
AcDbSavedByObjectVersion
1070
     0
  0
VISUALSTYLE
  5
35
102
{ACAD_REACTORS
330
2A
102
}
102
{ACAD_XDICTIONARY
360
3D0
102
}
330
2A
100
AcDbVisualStyle
  2
Dim
 70
    11
 71
     2
 72
     2
 73
     0
 90
        0
 40
-0.6
 41
-30.0
 62
     5
 63
     7
 74
     1
 91
        4
 64
     7
 65
   257
 75
     1
175
     1
 42
1.0
 92
        8
 66
     7
 43
1.0
 76
     1
 77
     6
 78
     2
 67
     7
 79
     5
170
     0
171
     0
290
     0
174
     0
 93
        1
 44
-50.0
173
     0
291
     1
 45
0.0
1001
ACAD
1000
AcDbSavedByObjectVersion
1070
     0
  0
VISUALSTYLE
  5
39
102
{ACAD_REACTORS
330
2A
102
}
102
{ACAD_XDICTIONARY
360
3D8
102
}
330
2A
100
AcDbVisualStyle
  2
Facepattern
 70
    15
 71
     2
 72
     2
 73
     0
 90
        0
 40
-0.6
 41
-30.0
 62
     5
 63
     7
 74
     1
 91
        4
 64
     7
 65
   257
 75
     1
175
     1
 42
1.0
 92
        8
 66
     7
 43
1.0
 76
     1
 77
     6
 78
     2
 67
     7
 79
     5
170
     0
171
     0
290
     0
174
     0
 93
        1
 44
0.0
173
     0
291
     1
 45
0.0
1001
ACAD
1000
AcDbSavedByObjectVersion
1070
     0
  0
VISUALSTYLE
  5
2B
102
{ACAD_REACTORS
330
2A
102
}
102
{ACAD_XDICTIONARY
360
3BC
102
}
330
2A
100
AcDbVisualStyle
  2
Flat
 70
     0
 71
     2
 72
     1
 73
     1
 90
        2
 40
-0.6
 41
30.0
 62
     5
 63
     7
 74
     0
 91
        4
 64
     7
 65
   257
 75
     1
175
     1
 42
1.0
 92
        8
 66
     7
 43
1.0
 76
     1
 77
     6
 78
     2
 67
     7
 79
     5
170
     0
171
     0
290
     0
174
     0
 93
       13
 44
0.0
173
     0
291
     1
 45
0.0
1001
ACAD
1000
AcDbSavedByObjectVersion
1070
     0
  0
VISUALSTYLE
  5
2C
102
{ACAD_REACTORS
330
2A
102
}
102
{ACAD_XDICTIONARY
360
3BE
102
}
330
2A
100
AcDbVisualStyle
  2
FlatWithEdges
 70
     1
 71
     2
 72
     1
 73
     1
 90
        2
 40
-0.6
 41
30.0
 62
     5
 63
     7
 74
     1
 91
        4
 64
     7
 65
   257
 75
     1
175
     1
 42
1.0
 92
        0
 66
   257
 43
1.0
 76
     1
 77
     6
 78
     2
 67
     7
 79
     5
170
     0
171
     0
290
     0
174
     0
 93
       13
 44
0.0
173
     0
291
     1
 45
0.0
1001
ACAD
1000
AcDbSavedByObjectVersion
1070
     0
  0
VISUALSTYLE
  5
2D
102
{ACAD_REACTORS
330
2A
102
}
102
{ACAD_XDICTIONARY
360
3C0
102
}
330
2A
100
AcDbVisualStyle
  2
Gouraud
 70
     2
 71
     2
 72
     2
 73
     1
 90
        2
 40
-0.6
 41
30.0
 62
     5
 63
     7
 74
     0
 91
        4
 64
     7
 65
   257
 75
     1
175
     1
 42
1.0
 92
        0
 66
     7
 43
1.0
 76
     1
 77
     6
 78
     2
 67
     7
 79
     5
170
     0
171
     0
290
     0
174
     0
 93
       13
 44
0.0
173
     0
291
     1
 45
0.0
1001
ACAD
1000
AcDbSavedByObjectVersion
1070
     0
  0
VISUALSTYLE
  5
2E
102
{ACAD_REACTORS
330
2A
102
}
102
{ACAD_XDICTIONARY
360
3C2
102
}
330
2A
100
AcDbVisualStyle
  2
GouraudWithEdges
 70
     3
 71
     2
 72
     2
 73
     1
 90
        2
 40
-0.6
 41
30.0
 62
     5
 63
     7
 74
     1
 91
        4
 64
     7
 65
   257
 75
     1
175
     1
 42
1.0
 92
        0
 66
   257
 43
1.0
 76
     1
 77
     6
 78
     2
 67
     7
 79
     5
170
     0
171
     0
290
     0
174
     0
 93
       13
 44
0.0
173
     0
291
     1
 45
0.0
1001
ACAD
1000
AcDbSavedByObjectVersion
1070
     0
  0
VISUALSTYLE
  5
38
102
{ACAD_REACTORS
330
2A
102
}
102
{ACAD_XDICTIONARY
360
3D6
102
}
330
2A
100
AcDbVisualStyle
  2
Linepattern
 70
    14
 71
     2
 72
     2
 73
     0
 90
        0
 40
-0.6
 41
-30.0
 62
     5
 63
     7
 74
     1
 91
        4
 64
     7
 65
   257
 75
     7
175
     7
 42
1.0
 92
        8
 66
     7
 43
1.0
 76
     1
 77
     6
 78
     2
 67
     7
 79
     5
170
     0
171
     0
290
     0
174
     0
 93
        1
 44
0.0
173
     0
291
     1
 45
0.0
1001
ACAD
1000
AcDbSavedByObjectVersion
1070
     0
  0
VISUALSTYLE
  5
33
102
{ACAD_REACTORS
330
2A
102
}
102
{ACAD_XDICTIONARY
360
3CC
102
}
330
2A
100
AcDbVisualStyle
  2
Realistic
 70
     8
 71
     2
 72
     2
 73
     0
 90
        0
 40
-0.6
 41
-30.0
 62
     5
 63
     7
 74
     1
 91
        0
 64
     7
 65
   257
 75
     1
175
     1
 42
1.0
 92
        8
 66
     8
 43
1.0
 76
     1
 77
     6
 78
     2
 67
     7
 79
     5
170
     0
171
     0
290
     0
174
     0
 93
       13
 44
0.0
173
     0
291
     0
 45
0.0
1001
ACAD
1000
AcDbSavedByObjectVersion
1070
     0
  0
VISUALSTYLE
  5
37
102
{ACAD_REACTORS
330
2A
102
}
102
{ACAD_XDICTIONARY
360
3D4
102
}
330
2A
100
AcDbVisualStyle
  2
Thicken
 70
    13
 71
     2
 72
     2
 73
     0
 90
        0
 40
-0.6
 41
-30.0
 62
     5
 63
     7
 74
     1
 91
        4
 64
     7
 65
   257
 75
     1
175
     1
 42
1.0
 92
       12
 66
     7
 43
1.0
 76
     1
 77
     6
 78
     2
 67
     7
 79
     5
170
     0
171
     0
290
     0
174
     0
 93
        1
 44
0.0
173
     0
291
     1
 45
0.0
1001
ACAD
1000
AcDbSavedByObjectVersion
1070
     0
  0
DICTIONARYVAR
  5
3BA
102
{ACAD_REACTORS
330
3B5
102
}
330
3B5
100
DictionaryVariables
280
     0
  1
2
  0
DICTIONARYVAR
  5
3BB
102
{ACAD_REACTORS
330
3B5
102
}
330
3B5
100
DictionaryVariables
280
     0
  1
1
  0
DICTIONARYVAR
  5
3B9
102
{ACAD_REACTORS
330
3B5
102
}
330
3B5
100
DictionaryVariables
280
     0
  1
80.000000
  0
DICTIONARYVAR
  5
3B8
102
{ACAD_REACTORS
330
3B5
102
}
330
3B5
100
DictionaryVariables
280
     0
  1
5.000000
  0
DICTIONARY
  5
3DE
330
3D
100
AcDbDictionary
280
     1
281
     1
  3
ACAD_XREC_ROUNDTRIP
360
3DF
  0
DICTIONARY
  5
3DC
330
3C
100
AcDbDictionary
280
     1
281
     1
  3
ACAD_XREC_ROUNDTRIP
360
3DD
  0
DICTIONARY
  5
3E0
330
3E
100
AcDbDictionary
280
     1
281
     1
  3
ACAD_XREC_ROUNDTRIP
360
3E1
  0
DICTIONARY
  5
3C4
330
2F
100
AcDbDictionary
280
     1
281
     1
  3
ACAD_XREC_ROUNDTRIP
360
3C5
  0
DICTIONARY
  5
3C8
330
31
100
AcDbDictionary
280
     1
281
     1
  3
ACAD_XREC_ROUNDTRIP
360
3C9
  0
DICTIONARY
  5
3C6
330
30
100
AcDbDictionary
280
     1
281
     1
  3
ACAD_XREC_ROUNDTRIP
360
3C7
  0
DICTIONARY
  5
3CA
330
32
100
AcDbDictionary
280
     1
281
     1
  3
ACAD_XREC_ROUNDTRIP
360
3CB
  0
DICTIONARY
  5
3D2
330
36
100
AcDbDictionary
280
     1
281
     1
  3
ACAD_XREC_ROUNDTRIP
360
3D3
  0
DICTIONARY
  5
3DA
330
3A
100
AcDbDictionary
280
     1
281
     1
  3
ACAD_XREC_ROUNDTRIP
360
3DB
  0
DICTIONARY
  5
3CE
330
34
100
AcDbDictionary
280
     1
281
     1
  3
ACAD_XREC_ROUNDTRIP
360
3CF
  0
DICTIONARY
  5
3D0
330
35
100
AcDbDictionary
280
     1
281
     1
  3
ACAD_XREC_ROUNDTRIP
360
3D1
  0
DICTIONARY
  5
3D8
330
39
100
AcDbDictionary
280
     1
281
     1
  3
ACAD_XREC_ROUNDTRIP
360
3D9
  0
DICTIONARY
  5
3BC
330
2B
100
AcDbDictionary
280
     1
281
     1
  3
ACAD_XREC_ROUNDTRIP
360
3BD
  0
DICTIONARY
  5
3BE
330
2C
100
AcDbDictionary
280
     1
281
     1
  3
ACAD_XREC_ROUNDTRIP
360
3BF
  0
DICTIONARY
  5
3C0
330
2D
100
AcDbDictionary
280
     1
281
     1
  3
ACAD_XREC_ROUNDTRIP
360
3C1
  0
DICTIONARY
  5
3C2
330
2E
100
AcDbDictionary
280
     1
281
     1
  3
ACAD_XREC_ROUNDTRIP
360
3C3
  0
DICTIONARY
  5
3D6
330
38
100
AcDbDictionary
280
     1
281
     1
  3
ACAD_XREC_ROUNDTRIP
360
3D7
  0
DICTIONARY
  5
3CC
330
33
100
AcDbDictionary
280
     1
281
     1
  3
ACAD_XREC_ROUNDTRIP
360
3CD
  0
DICTIONARY
  5
3D4
330
37
100
AcDbDictionary
280
     1
281
     1
  3
ACAD_XREC_ROUNDTRIP
360
3D5
  0
XRECORD
  5
3DF
102
{ACAD_REACTORS
330
3DE
102
}
330
3DE
100
AcDbXrecord
280
     1
102
MATERIAL
148
0.0
149
0.0
149
0.0
 93
        0
 94
      127
282
     0
 72
     1
 77
     1
171
     1
175
     1
179
     1
273
     0
  0
XRECORD
  5
3DD
102
{ACAD_REACTORS
330
3DC
102
}
330
3DC
100
AcDbXrecord
280
     1
102
MATERIAL
148
0.0
149
0.0
149
0.0
 93
        0
 94
      127
282
     0
 72
     1
 77
     1
171
     1
175
     1
179
     1
273
     0
  0
XRECORD
  5
3E1
102
{ACAD_REACTORS
330
3E0
102
}
330
3E0
100
AcDbXrecord
280
     1
102
MATERIAL
148
0.0
149
0.0
149
0.0
 93
        0
 94
      127
282
     0
 72
     1
 77
     1
171
     1
175
     1
179
     1
273
     0
  0
XRECORD
  5
3C5
102
{ACAD_REACTORS
330
3C4
102
}
330
3C4
100
AcDbXrecord
280
     1
102
RTVSPropertyOp0
 70
     1
102
RTVSPropertyOp1
 70
     1
102
RTVSPropertyOp2
 70
     1
102
RTVSPropertyOp3
 70
     1
102
RTVSPropertyOp4
 70
     1
102
RTVSPropertyOp5
 70
     1
102
RTVSPropertyOp6
 70
     1
102
RTVSPropertyOp7
 70
     1
102
RTVSPropertyOp8
 70
     1
102
RTVSPropertyOp9
 70
     1
102
RTVSPropertyOp10
 70
     1
102
RTVSPropertyOp11
 70
     1
102
RTVSPropertyOp12
 70
     1
102
RTVSPropertyOp13
 70
     1
102
RTVSPropertyOp14
 70
     1
102
RTVSPropertyOp15
 70
     1
102
RTVSPropertyOp16
 70
     1
102
RTVSPropertyOp17
 70
     1
102
RTVSPropertyOp18
 70
     1
102
RTVSPropertyOp19
 70
     1
102
RTVSPropertyOp20
 70
     1
102
RTVSPropertyOp21
 70
     1
102
RTVSPropertyOp22
 70
     1
102
RTVSPropertyOp23
 70
     1
102
RTVSPropertyOp24
 70
     1
102
RTVSPropertyOp25
 70
     1
102
RTVSPropertyOp26
 70
     1
102
RTVSPropertyOp27
 70
     1
  0
XRECORD
  5
3C9
102
{ACAD_REACTORS
330
3C8
102
}
330
3C8
100
AcDbXrecord
280
     1
102
RTVSPropertyOp0
 70
     1
102
RTVSPropertyOp1
 70
     1
102
RTVSPropertyOp2
 70
     1
102
RTVSPropertyOp3
 70
     1
102
RTVSPropertyOp4
 70
     1
102
RTVSPropertyOp5
 70
     1
102
RTVSPropertyOp6
 70
     1
102
RTVSPropertyOp7
 70
     1
102
RTVSPropertyOp8
 70
     1
102
RTVSPropertyOp9
 70
     1
102
RTVSPropertyOp10
 70
     1
102
RTVSPropertyOp11
 70
     1
102
RTVSPropertyOp12
 70
     1
102
RTVSPropertyOp13
 70
     1
102
RTVSPropertyOp14
 70
     1
102
RTVSPropertyOp15
 70
     1
102
RTVSPropertyOp16
 70
     1
102
RTVSPropertyOp17
 70
     1
102
RTVSPropertyOp18
 70
     1
102
RTVSPropertyOp19
 70
     1
102
RTVSPropertyOp20
 70
     1
102
RTVSPropertyOp21
 70
     1
102
RTVSPropertyOp22
 70
     1
102
RTVSPropertyOp23
 70
     1
102
RTVSPropertyOp24
 70
     1
102
RTVSPropertyOp25
 70
     1
102
RTVSPropertyOp26
 70
     1
102
RTVSPropertyOp27
 70
     1
  0
XRECORD
  5
3C7
102
{ACAD_REACTORS
330
3C6
102
}
330
3C6
100
AcDbXrecord
280
     1
102
RTVSPropertyOp0
 70
     1
102
RTVSPropertyOp1
 70
     1
102
RTVSPropertyOp2
 70
     1
102
RTVSPropertyOp3
 70
     1
102
RTVSPropertyOp4
 70
     1
102
RTVSPropertyOp5
 70
     1
102
RTVSPropertyOp6
 70
     1
102
RTVSPropertyOp7
 70
     1
102
RTVSPropertyOp8
 70
     1
102
RTVSPropertyOp9
 70
     1
102
RTVSPropertyOp10
 70
     1
102
RTVSPropertyOp11
 70
     1
102
RTVSPropertyOp12
 70
     1
102
RTVSPropertyOp13
 70
     1
102
RTVSPropertyOp14
 70
     1
102
RTVSPropertyOp15
 70
     1
102
RTVSPropertyOp16
 70
     1
102
RTVSPropertyOp17
 70
     1
102
RTVSPropertyOp18
 70
     1
102
RTVSPropertyOp19
 70
     1
102
RTVSPropertyOp20
 70
     1
102
RTVSPropertyOp21
 70
     1
102
RTVSPropertyOp22
 70
     1
102
RTVSPropertyOp23
 70
     1
102
RTVSPropertyOp24
 70
     1
102
RTVSPropertyOp25
 70
     1
102
RTVSPropertyOp26
 70
     1
102
RTVSPropertyOp27
 70
     1
  0
XRECORD
  5
3CB
102
{ACAD_REACTORS
330
3CA
102
}
330
3CA
100
AcDbXrecord
280
     1
102
RTVSPropertyOp0
 70
     1
102
RTVSPropertyOp1
 70
     1
102
RTVSPropertyOp2
 70
     1
102
RTVSPropertyOp3
 70
     1
102
RTVSPropertyOp4
 70
     1
102
RTVSPropertyOp5
 70
     1
102
RTVSPropertyOp6
 70
     1
102
RTVSPropertyOp7
 70
     1
102
RTVSPropertyOp8
 70
     1
102
RTVSPropertyOp9
 70
     1
102
RTVSPropertyOp10
 70
     1
102
RTVSPropertyOp11
 70
     1
102
RTVSPropertyOp12
 70
     1
102
RTVSPropertyOp13
 70
     1
102
RTVSPropertyOp14
 70
     1
102
RTVSPropertyOp15
 70
     1
102
RTVSPropertyOp16
 70
     1
102
RTVSPropertyOp17
 70
     1
102
RTVSPropertyOp18
 70
     1
102
RTVSPropertyOp19
 70
     1
102
RTVSPropertyOp20
 70
     1
102
RTVSPropertyOp21
 70
     1
102
RTVSPropertyOp22
 70
     1
102
RTVSPropertyOp23
 70
     1
102
RTVSPropertyOp24
 70
     1
102
RTVSPropertyOp25
 70
     1
102
RTVSPropertyOp26
 70
     1
102
RTVSPropertyOp27
 70
     1
  0
XRECORD
  5
3D3
102
{ACAD_REACTORS
330
3D2
102
}
330
3D2
100
AcDbXrecord
280
     1
102
RTVSPropertyOp0
 70
     1
102
RTVSPropertyOp1
 70
     1
102
RTVSPropertyOp2
 70
     1
102
RTVSPropertyOp3
 70
     1
102
RTVSPropertyOp4
 70
     1
102
RTVSPropertyOp5
 70
     1
102
RTVSPropertyOp6
 70
     1
102
RTVSPropertyOp7
 70
     1
102
RTVSPropertyOp8
 70
     1
102
RTVSPropertyOp9
 70
     1
102
RTVSPropertyOp10
 70
     1
102
RTVSPropertyOp11
 70
     1
102
RTVSPropertyOp12
 70
     1
102
RTVSPropertyOp13
 70
     1
102
RTVSPropertyOp14
 70
     1
102
RTVSPropertyOp15
 70
     1
102
RTVSPropertyOp16
 70
     1
102
RTVSPropertyOp17
 70
     1
102
RTVSPropertyOp18
 70
     1
102
RTVSPropertyOp19
 70
     1
102
RTVSPropertyOp20
 70
     1
102
RTVSPropertyOp21
 70
     1
102
RTVSPropertyOp22
 70
     1
102
RTVSPropertyOp23
 70
     1
102
RTVSPropertyOp24
 70
     1
102
RTVSPropertyOp25
 70
     1
102
RTVSPropertyOp26
 70
     1
102
RTVSPropertyOp27
 70
     1
  0
XRECORD
  5
3DB
102
{ACAD_REACTORS
330
3DA
102
}
330
3DA
100
AcDbXrecord
280
     1
102
RTVSPropertyOp0
 70
     1
102
RTVSPropertyOp1
 70
     1
102
RTVSPropertyOp2
 70
     1
102
RTVSPropertyOp3
 70
     1
102
RTVSPropertyOp4
 70
     1
102
RTVSPropertyOp5
 70
     1
102
RTVSPropertyOp6
 70
     1
102
RTVSPropertyOp7
 70
     1
102
RTVSPropertyOp8
 70
     1
102
RTVSPropertyOp9
 70
     1
102
RTVSPropertyOp10
 70
     1
102
RTVSPropertyOp11
 70
     1
102
RTVSPropertyOp12
 70
     1
102
RTVSPropertyOp13
 70
     1
102
RTVSPropertyOp14
 70
     1
102
RTVSPropertyOp15
 70
     1
102
RTVSPropertyOp16
 70
     1
102
RTVSPropertyOp17
 70
     1
102
RTVSPropertyOp18
 70
     1
102
RTVSPropertyOp19
 70
     1
102
RTVSPropertyOp20
 70
     1
102
RTVSPropertyOp21
 70
     1
102
RTVSPropertyOp22
 70
     1
102
RTVSPropertyOp23
 70
     1
102
RTVSPropertyOp24
 70
     1
102
RTVSPropertyOp25
 70
     1
102
RTVSPropertyOp26
 70
     1
102
RTVSPropertyOp27
 70
     1
  0
XRECORD
  5
3CF
102
{ACAD_REACTORS
330
3CE
102
}
330
3CE
100
AcDbXrecord
280
     1
102
RTVSPropertyOp0
 70
     1
102
RTVSPropertyOp1
 70
     1
102
RTVSPropertyOp2
 70
     1
102
RTVSPropertyOp3
 70
     1
102
RTVSPropertyOp4
 70
     1
102
RTVSPropertyOp5
 70
     1
102
RTVSPropertyOp6
 70
     1
102
RTVSPropertyOp7
 70
     1
102
RTVSPropertyOp8
 70
     1
102
RTVSPropertyOp9
 70
     1
102
RTVSPropertyOp10
 70
     1
102
RTVSPropertyOp11
 70
     1
102
RTVSPropertyOp12
 70
     1
102
RTVSPropertyOp13
 70
     1
102
RTVSPropertyOp14
 70
     1
102
RTVSPropertyOp15
 70
     1
102
RTVSPropertyOp16
 70
     1
102
RTVSPropertyOp17
 70
     1
102
RTVSPropertyOp18
 70
     1
102
RTVSPropertyOp19
 70
     1
102
RTVSPropertyOp20
 70
     1
102
RTVSPropertyOp21
 70
     1
102
RTVSPropertyOp22
 70
     1
102
RTVSPropertyOp23
 70
     1
102
RTVSPropertyOp24
 70
     1
102
RTVSPropertyOp25
 70
     1
102
RTVSPropertyOp26
 70
     1
102
RTVSPropertyOp27
 70
     1
  0
XRECORD
  5
3D1
102
{ACAD_REACTORS
330
3D0
102
}
330
3D0
100
AcDbXrecord
280
     1
102
RTVSPropertyOp0
 70
     1
102
RTVSPropertyOp1
 70
     1
102
RTVSPropertyOp2
 70
     1
102
RTVSPropertyOp3
 70
     1
102
RTVSPropertyOp4
 70
     1
102
RTVSPropertyOp5
 70
     1
102
RTVSPropertyOp6
 70
     1
102
RTVSPropertyOp7
 70
     1
102
RTVSPropertyOp8
 70
     1
102
RTVSPropertyOp9
 70
     1
102
RTVSPropertyOp10
 70
     1
102
RTVSPropertyOp11
 70
     1
102
RTVSPropertyOp12
 70
     1
102
RTVSPropertyOp13
 70
     1
102
RTVSPropertyOp14
 70
     1
102
RTVSPropertyOp15
 70
     1
102
RTVSPropertyOp16
 70
     1
102
RTVSPropertyOp17
 70
     1
102
RTVSPropertyOp18
 70
     1
102
RTVSPropertyOp19
 70
     1
102
RTVSPropertyOp20
 70
     1
102
RTVSPropertyOp21
 70
     1
102
RTVSPropertyOp22
 70
     1
102
RTVSPropertyOp23
 70
     1
102
RTVSPropertyOp24
 70
     1
102
RTVSPropertyOp25
 70
     1
102
RTVSPropertyOp26
 70
     1
102
RTVSPropertyOp27
 70
     1
  0
XRECORD
  5
3D9
102
{ACAD_REACTORS
330
3D8
102
}
330
3D8
100
AcDbXrecord
280
     1
102
RTVSPropertyOp0
 70
     1
102
RTVSPropertyOp1
 70
     1
102
RTVSPropertyOp2
 70
     1
102
RTVSPropertyOp3
 70
     1
102
RTVSPropertyOp4
 70
     1
102
RTVSPropertyOp5
 70
     1
102
RTVSPropertyOp6
 70
     1
102
RTVSPropertyOp7
 70
     1
102
RTVSPropertyOp8
 70
     1
102
RTVSPropertyOp9
 70
     1
102
RTVSPropertyOp10
 70
     1
102
RTVSPropertyOp11
 70
     1
102
RTVSPropertyOp12
 70
     1
102
RTVSPropertyOp13
 70
     1
102
RTVSPropertyOp14
 70
     1
102
RTVSPropertyOp15
 70
     1
102
RTVSPropertyOp16
 70
     1
102
RTVSPropertyOp17
 70
     1
102
RTVSPropertyOp18
 70
     1
102
RTVSPropertyOp19
 70
     1
102
RTVSPropertyOp20
 70
     1
102
RTVSPropertyOp21
 70
     1
102
RTVSPropertyOp22
 70
     1
102
RTVSPropertyOp23
 70
     1
102
RTVSPropertyOp24
 70
     1
102
RTVSPropertyOp25
 70
     1
102
RTVSPropertyOp26
 70
     1
102
RTVSPropertyOp27
 70
     1
  0
XRECORD
  5
3BD
102
{ACAD_REACTORS
330
3BC
102
}
330
3BC
100
AcDbXrecord
280
     1
102
RTVSPropertyOp0
 70
     1
102
RTVSPropertyOp1
 70
     1
102
RTVSPropertyOp2
 70
     1
102
RTVSPropertyOp3
 70
     1
102
RTVSPropertyOp4
 70
     1
102
RTVSPropertyOp5
 70
     1
102
RTVSPropertyOp6
 70
     1
102
RTVSPropertyOp7
 70
     1
102
RTVSPropertyOp8
 70
     1
102
RTVSPropertyOp9
 70
     1
102
RTVSPropertyOp10
 70
     1
102
RTVSPropertyOp11
 70
     1
102
RTVSPropertyOp12
 70
     1
102
RTVSPropertyOp13
 70
     1
102
RTVSPropertyOp14
 70
     1
102
RTVSPropertyOp15
 70
     1
102
RTVSPropertyOp16
 70
     1
102
RTVSPropertyOp17
 70
     1
102
RTVSPropertyOp18
 70
     1
102
RTVSPropertyOp19
 70
     1
102
RTVSPropertyOp20
 70
     1
102
RTVSPropertyOp21
 70
     1
102
RTVSPropertyOp22
 70
     1
102
RTVSPropertyOp23
 70
     1
102
RTVSPropertyOp24
 70
     1
102
RTVSPropertyOp25
 70
     1
102
RTVSPropertyOp26
 70
     1
102
RTVSPropertyOp27
 70
     1
  0
XRECORD
  5
3BF
102
{ACAD_REACTORS
330
3BE
102
}
330
3BE
100
AcDbXrecord
280
     1
102
RTVSPropertyOp0
 70
     1
102
RTVSPropertyOp1
 70
     1
102
RTVSPropertyOp2
 70
     1
102
RTVSPropertyOp3
 70
     1
102
RTVSPropertyOp4
 70
     1
102
RTVSPropertyOp5
 70
     1
102
RTVSPropertyOp6
 70
     1
102
RTVSPropertyOp7
 70
     1
102
RTVSPropertyOp8
 70
     1
102
RTVSPropertyOp9
 70
     1
102
RTVSPropertyOp10
 70
     1
102
RTVSPropertyOp11
 70
     1
102
RTVSPropertyOp12
 70
     1
102
RTVSPropertyOp13
 70
     1
102
RTVSPropertyOp14
 70
     1
102
RTVSPropertyOp15
 70
     1
102
RTVSPropertyOp16
 70
     1
102
RTVSPropertyOp17
 70
     1
102
RTVSPropertyOp18
 70
     1
102
RTVSPropertyOp19
 70
     1
102
RTVSPropertyOp20
 70
     1
102
RTVSPropertyOp21
 70
     1
102
RTVSPropertyOp22
 70
     1
102
RTVSPropertyOp23
 70
     1
102
RTVSPropertyOp24
 70
     1
102
RTVSPropertyOp25
 70
     1
102
RTVSPropertyOp26
 70
     1
102
RTVSPropertyOp27
 70
     1
  0
XRECORD
  5
3C1
102
{ACAD_REACTORS
330
3C0
102
}
330
3C0
100
AcDbXrecord
280
     1
102
RTVSPropertyOp0
 70
     1
102
RTVSPropertyOp1
 70
     1
102
RTVSPropertyOp2
 70
     1
102
RTVSPropertyOp3
 70
     1
102
RTVSPropertyOp4
 70
     1
102
RTVSPropertyOp5
 70
     1
102
RTVSPropertyOp6
 70
     1
102
RTVSPropertyOp7
 70
     1
102
RTVSPropertyOp8
 70
     1
102
RTVSPropertyOp9
 70
     1
102
RTVSPropertyOp10
 70
     1
102
RTVSPropertyOp11
 70
     1
102
RTVSPropertyOp12
 70
     1
102
RTVSPropertyOp13
 70
     1
102
RTVSPropertyOp14
 70
     1
102
RTVSPropertyOp15
 70
     1
102
RTVSPropertyOp16
 70
     1
102
RTVSPropertyOp17
 70
     1
102
RTVSPropertyOp18
 70
     1
102
RTVSPropertyOp19
 70
     1
102
RTVSPropertyOp20
 70
     1
102
RTVSPropertyOp21
 70
     1
102
RTVSPropertyOp22
 70
     1
102
RTVSPropertyOp23
 70
     1
102
RTVSPropertyOp24
 70
     1
102
RTVSPropertyOp25
 70
     1
102
RTVSPropertyOp26
 70
     1
102
RTVSPropertyOp27
 70
     1
  0
XRECORD
  5
3C3
102
{ACAD_REACTORS
330
3C2
102
}
330
3C2
100
AcDbXrecord
280
     1
102
RTVSPropertyOp0
 70
     1
102
RTVSPropertyOp1
 70
     1
102
RTVSPropertyOp2
 70
     1
102
RTVSPropertyOp3
 70
     1
102
RTVSPropertyOp4
 70
     1
102
RTVSPropertyOp5
 70
     1
102
RTVSPropertyOp6
 70
     1
102
RTVSPropertyOp7
 70
     1
102
RTVSPropertyOp8
 70
     1
102
RTVSPropertyOp9
 70
     1
102
RTVSPropertyOp10
 70
     1
102
RTVSPropertyOp11
 70
     1
102
RTVSPropertyOp12
 70
     1
102
RTVSPropertyOp13
 70
     1
102
RTVSPropertyOp14
 70
     1
102
RTVSPropertyOp15
 70
     1
102
RTVSPropertyOp16
 70
     1
102
RTVSPropertyOp17
 70
     1
102
RTVSPropertyOp18
 70
     1
102
RTVSPropertyOp19
 70
     1
102
RTVSPropertyOp20
 70
     1
102
RTVSPropertyOp21
 70
     1
102
RTVSPropertyOp22
 70
     1
102
RTVSPropertyOp23
 70
     1
102
RTVSPropertyOp24
 70
     1
102
RTVSPropertyOp25
 70
     1
102
RTVSPropertyOp26
 70
     1
102
RTVSPropertyOp27
 70
     1
  0
XRECORD
  5
3D7
102
{ACAD_REACTORS
330
3D6
102
}
330
3D6
100
AcDbXrecord
280
     1
102
RTVSPropertyOp0
 70
     1
102
RTVSPropertyOp1
 70
     1
102
RTVSPropertyOp2
 70
     1
102
RTVSPropertyOp3
 70
     1
102
RTVSPropertyOp4
 70
     1
102
RTVSPropertyOp5
 70
     1
102
RTVSPropertyOp6
 70
     1
102
RTVSPropertyOp7
 70
     1
102
RTVSPropertyOp8
 70
     1
102
RTVSPropertyOp9
 70
     1
102
RTVSPropertyOp10
 70
     1
102
RTVSPropertyOp11
 70
     1
102
RTVSPropertyOp12
 70
     1
102
RTVSPropertyOp13
 70
     1
102
RTVSPropertyOp14
 70
     1
102
RTVSPropertyOp15
 70
     1
102
RTVSPropertyOp16
 70
     1
102
RTVSPropertyOp17
 70
     1
102
RTVSPropertyOp18
 70
     1
102
RTVSPropertyOp19
 70
     1
102
RTVSPropertyOp20
 70
     1
102
RTVSPropertyOp21
 70
     1
102
RTVSPropertyOp22
 70
     1
102
RTVSPropertyOp23
 70
     1
102
RTVSPropertyOp24
 70
     1
102
RTVSPropertyOp25
 70
     1
102
RTVSPropertyOp26
 70
     1
102
RTVSPropertyOp27
 70
     1
  0
XRECORD
  5
3CD
102
{ACAD_REACTORS
330
3CC
102
}
330
3CC
100
AcDbXrecord
280
     1
102
RTVSPropertyOp0
 70
     1
102
RTVSPropertyOp1
 70
     1
102
RTVSPropertyOp2
 70
     1
102
RTVSPropertyOp3
 70
     1
102
RTVSPropertyOp4
 70
     1
102
RTVSPropertyOp5
 70
     1
102
RTVSPropertyOp6
 70
     1
102
RTVSPropertyOp7
 70
     1
102
RTVSPropertyOp8
 70
     1
102
RTVSPropertyOp9
 70
     1
102
RTVSPropertyOp10
 70
     1
102
RTVSPropertyOp11
 70
     1
102
RTVSPropertyOp12
 70
     1
102
RTVSPropertyOp13
 70
     1
102
RTVSPropertyOp14
 70
     1
102
RTVSPropertyOp15
 70
     1
102
RTVSPropertyOp16
 70
     1
102
RTVSPropertyOp17
 70
     1
102
RTVSPropertyOp18
 70
     1
102
RTVSPropertyOp19
 70
     1
102
RTVSPropertyOp20
 70
     1
102
RTVSPropertyOp21
 70
     1
102
RTVSPropertyOp22
 70
     1
102
RTVSPropertyOp23
 70
     1
102
RTVSPropertyOp24
 70
     1
102
RTVSPropertyOp25
 70
     1
102
RTVSPropertyOp26
 70
     1
102
RTVSPropertyOp27
 70
     1
  0
XRECORD
  5
3D5
102
{ACAD_REACTORS
330
3D4
102
}
330
3D4
100
AcDbXrecord
280
     1
102
RTVSPropertyOp0
 70
     1
102
RTVSPropertyOp1
 70
     1
102
RTVSPropertyOp2
 70
     1
102
RTVSPropertyOp3
 70
     1
102
RTVSPropertyOp4
 70
     1
102
RTVSPropertyOp5
 70
     1
102
RTVSPropertyOp6
 70
     1
102
RTVSPropertyOp7
 70
     1
102
RTVSPropertyOp8
 70
     1
102
RTVSPropertyOp9
 70
     1
102
RTVSPropertyOp10
 70
     1
102
RTVSPropertyOp11
 70
     1
102
RTVSPropertyOp12
 70
     1
102
RTVSPropertyOp13
 70
     1
102
RTVSPropertyOp14
 70
     1
102
RTVSPropertyOp15
 70
     1
102
RTVSPropertyOp16
 70
     1
102
RTVSPropertyOp17
 70
     1
102
RTVSPropertyOp18
 70
     1
102
RTVSPropertyOp19
 70
     1
102
RTVSPropertyOp20
 70
     1
102
RTVSPropertyOp21
 70
     1
102
RTVSPropertyOp22
 70
     1
102
RTVSPropertyOp23
 70
     1
102
RTVSPropertyOp24
 70
     1
102
RTVSPropertyOp25
 70
     1
102
RTVSPropertyOp26
 70
     1
102
RTVSPropertyOp27
 70
     1
  0
ENDSEC
  0
EOF
