  0
SECTION
  2
HEADER
  9
$ACADVER
  1
AC1015
  9
$ACADMAINTVER
 70
     6
  9
$DWGCODEPAGE
  3
ANSI_1252
  9
$INSBASE
 10
0.0
 20
0.0
 30
0.0
  9
$EXTMIN
 10
0.0
 20
0.0
 30
0.0
  9
$EXTMAX
 10
594.0
 20
420.0
 30
0.0
  9
$LIMMIN
 10
0.0
 20
0.0
  9
$LIMMAX
 10
594.0
 20
420.0
  9
$ORTHOMODE
 70
     0
  9
$REGENMODE
 70
     1
  9
$FILLMODE
 70
     1
  9
$QTEXTMODE
 70
     0
  9
$MIRRTEXT
 70
     1
  9
$LTSCALE
 40
1.0
  9
$ATTMODE
 70
     1
  9
$TEXTSIZE
 40
2.5
  9
$TRACEWID
 40
1.0
  9
$TEXTSTYLE
  7
Standard
  9
$CLAYER
  8
0
  9
$CELTYPE
  6
ByLayer
  9
$CECOLOR
 62
   256
  9
$CELTSCALE
 40
1.0
  9
$DISPSILH
 70
     0
  9
$DIMSCALE
 40
1.0
  9
$DIMASZ
 40
2.5
  9
$DIMEXO
 40
0.625
  9
$DIMDLI
 40
3.75
  9
$DIMRND
 40
0.0
  9
$DIMDLE
 40
0.0
  9
$DIMEXE
 40
1.25
  9
$DIMTP
 40
0.0
  9
$DIMTM
 40
0.0
  9
$DIMTXT
 40
2.5
  9
$DIMCEN
 40
2.5
  9
$DIMTSZ
 40
0.0
  9
$DIMTOL
 70
     0
  9
$DIMLIM
 70
     0
  9
$DIMTIH
 70
     0
  9
$DIMTOH
 70
     0
  9
$DIMSE1
 70
     0
  9
$DIMSE2
 70
     0
  9
$DIMTAD
 70
     1
  9
$DIMZIN
 70
     8
  9
$DIMBLK
  1

  9
$DIMASO
 70
     1
  9
$DIMSHO
 70
     1
  9
$DIMPOST
  1

  9
$DIMAPOST
  1

  9
$DIMALT
 70
     0
  9
$DIMALTD
 70
     3
  9
$DIMALTF
 40
0.0393700787
  9
$DIMLFAC
 40
1.0
  9
$DIMTOFL
 70
     1
  9
$DIMTVP
 40
0.0
  9
$DIMTIX
 70
     0
  9
$DIMSOXD
 70
     0
  9
$DIMSAH
 70
     0
  9
$DIMBLK1
  1

  9
$DIMBLK2
  1

  9
$DIMSTYLE
  2
ISO-25
  9
$DIMCLRD
 70
     0
  9
$DIMCLRE
 70
     0
  9
$DIMCLRT
 70
     0
  9
$DIMTFAC
 40
1.0
  9
$DIMGAP
 40
0.625
  9
$DIMJUST
 70
     0
  9
$DIMSD1
 70
     0
  9
$DIMSD2
 70
     0
  9
$DIMTOLJ
 70
     0
  9
$DIMTZIN
 70
     8
  9
$DIMALTZ
 70
     0
  9
$DIMALTTZ
 70
     0
  9
$DIMUPT
 70
     0
  9
$DIMDEC
 70
     2
  9
$DIMTDEC
 70
     2
  9
$DIMALTU
 70
     2
  9
$DIMALTTD
 70
     3
  9
$DIMTXSTY
  7
Standard
  9
$DIMAUNIT
 70
     0
  9
$DIMADEC
 70
     0
  9
$DIMALTRND
 40
0.0
  9
$DIMAZIN
 70
     0
  9
$DIMDSEP
 70
    44
  9
$DIMATFIT
 70
     3
  9
$DIMFRAC
 70
     0
  9
$DIMLDRBLK
  1

  9
$DIMLUNIT
 70
     2
  9
$DIMLWD
 70
    -2
  9
$DIMLWE
 70
    -2
  9
$DIMTMOVE
 70
     0
  9
$LUNITS
 70
     2
  9
$LUPREC
 70
     4
  9
$SKETCHINC
 40
1.0
  9
$FILLETRAD
 40
10.0
  9
$AUNITS
 70
     0
  9
$AUPREC
 70
     0
  9
$MENU
  1
.
  9
$ELEVATION
 40
0.0
  9
$PELEVATION
 40
0.0
  9
$THICKNESS
 40
0.0
  9
$LIMCHECK
 70
     0
  9
$CHAMFERA
 40
10.0
  9
$CHAMFERB
 40
10.0
  9
$CHAMFERC
 40
20.0
  9
$CHAMFERD
 40
0.0
  9
$SKPOLY
 70
     0
  9
$TDCREATE
 40
2455572.627582246
  9
$TDUCREATE
 40
2455572.585915579
  9
$TDUPDATE
 40
2455572.627582257
  9
$TDUUPDATE
 40
2455572.58591559
  9
$TDINDWG
 40
0.0000000116
  9
$TDUSRTIMER
 40
0.0000000116
  9
$USRTIMER
 70
     1
  9
$ANGBASE
 50
0.0
  9
$ANGDIR
 70
     0
  9
$PDMODE
 70
     0
  9
$PDSIZE
 40
0.0
  9
$PLINEWID
 40
0.0
  9
$SPLFRAME
 70
     0
  9
$SPLINETYPE
 70
     6
  9
$SPLINESEGS
 70
     8
  9
$HANDSEED
  5
546
  9
$SURFTAB1
 70
     6
  9
$SURFTAB2
 70
     6
  9
$SURFTYPE
 70
     6
  9
$SURFU
 70
     6
  9
$SURFV
 70
     6
  9
$UCSBASE
  2

  9
$UCSNAME
  2

  9
$UCSORG
 10
0.0
 20
0.0
 30
0.0
  9
$UCSXDIR
 10
1.0
 20
0.0
 30
0.0
  9
$UCSYDIR
 10
0.0
 20
1.0
 30
0.0
  9
$UCSORTHOREF
  2

  9
$UCSORTHOVIEW
 70
     0
  9
$UCSORGTOP
 10
0.0
 20
0.0
 30
0.0
  9
$UCSORGBOTTOM
 10
0.0
 20
0.0
 30
0.0
  9
$UCSORGLEFT
 10
0.0
 20
0.0
 30
0.0
  9
$UCSORGRIGHT
 10
0.0
 20
0.0
 30
0.0
  9
$UCSORGFRONT
 10
0.0
 20
0.0
 30
0.0
  9
$UCSORGBACK
 10
0.0
 20
0.0
 30
0.0
  9
$PUCSBASE
  2

  9
$PUCSNAME
  2

  9
$PUCSORG
 10
0.0
 20
0.0
 30
0.0
  9
$PUCSXDIR
 10
1.0
 20
0.0
 30
0.0
  9
$PUCSYDIR
 10
0.0
 20
1.0
 30
0.0
  9
$PUCSORTHOREF
  2

  9
$PUCSORTHOVIEW
 70
     0
  9
$PUCSORGTOP
 10
0.0
 20
0.0
 30
0.0
  9
$PUCSORGBOTTOM
 10
0.0
 20
0.0
 30
0.0
  9
$PUCSORGLEFT
 10
0.0
 20
0.0
 30
0.0
  9
$PUCSORGRIGHT
 10
0.0
 20
0.0
 30
0.0
  9
$PUCSORGFRONT
 10
0.0
 20
0.0
 30
0.0
  9
$PUCSORGBACK
 10
0.0
 20
0.0
 30
0.0
  9
$USERI1
 70
     0
  9
$USERI2
 70
     0
  9
$USERI3
 70
     0
  9
$USERI4
 70
     0
  9
$USERI5
 70
     0
  9
$USERR1
 40
0.0
  9
$USERR2
 40
0.0
  9
$USERR3
 40
0.0
  9
$USERR4
 40
0.0
  9
$USERR5
 40
0.0
  9
$WORLDVIEW
 70
     1
  9
$SHADEDGE
 70
     3
  9
$SHADEDIF
 70
    70
  9
$TILEMODE
 70
     1
  9
$MAXACTVP
 70
    64
  9
$PINSBASE
 10
0.0
 20
0.0
 30
0.0
  9
$PLIMCHECK
 70
     0
  9
$PEXTMIN
 10
0.0
 20
0.0
 30
0.0
  9
$PEXTMAX
 10
594.0
 20
420.0
 30
0.0
  9
$PLIMMIN
 10
0.0
 20
0.0
  9
$PLIMMAX
 10
594.0
 20
420.0
  9
$UNITMODE
 70
     0
  9
$VISRETAIN
 70
     1
  9
$PLINEGEN
 70
     0
  9
$PSLTSCALE
 70
     1
  9
$TREEDEPTH
 70
  3020
  9
$CMLSTYLE
  2
Standard
  9
$CMLJUST
 70
     0
  9
$CMLSCALE
 40
20.0
  9
$PROXYGRAPHICS
 70
     1
  9
$MEASUREMENT
 70
     1
  9
$CELWEIGHT
370
    -1
  9
$ENDCAPS
280
     0
  9
$JOINSTYLE
280
     0
  9
$LWDISPLAY
290
     0
  9
$INSUNITS
 70
     4
  9
$HYPERLINKBASE
  1

  9
$STYLESHEET
  1

  9
$XEDIT
290
     1
  9
$CEPSNTYPE
380
     0
  9
$PSTYLEMODE
290
     1
  9
$FINGERPRINTGUID
  2
{0CC79DB8-F517-41E5-A90D-E42B7B72217A}
  9
$VERSIONGUID
  2
{FAEB1C32-E019-11D5-929B-00C0DF256EC4}
  9
$EXTNAMES
290
     1
  9
$PSVPSCALE
 40
0.0
  9
$OLESTARTUP
290
     0
  0
ENDSEC
  0
SECTION
  2
CLASSES
  0
CLASS
  1
ACDBDICTIONARYWDFLT
  2
AcDbDictionaryWithDefault
  3
ObjectDBX Classes
 90
        0
280
     0
281
     0
  0
CLASS
  1
VISUALSTYLE
  2
AcDbVisualStyle
  3
ObjectDBX Classes
 90
     4095
280
     0
281
     0
  0
CLASS
  1
MATERIAL
  2
AcDbMaterial
  3
ObjectDBX Classes
 90
     1153
280
     0
281
     0
  0
CLASS
  1
DICTIONARYVAR
  2
AcDbDictionaryVar
  3
ObjectDBX Classes
 90
        0
280
     0
281
     0
  0
CLASS
  1
ACDBPLACEHOLDER
  2
AcDbPlaceHolder
  3
ObjectDBX Classes
 90
        0
280
     0
281
     0
  0
CLASS
  1
LAYOUT
  2
AcDbLayout
  3
ObjectDBX Classes
 90
        0
280
     0
281
     0
  0
ENDSEC
  0
SECTION
  2
TABLES
  0
TABLE
  2
VPORT
  5
8
330
0
100
AcDbSymbolTable
 70
     1
  0
VPORT
  5
29
330
8
100
AcDbSymbolTableRecord
100
AcDbViewportTableRecord
  2
*Active
 70
     0
 10
0.0
 20
0.0
 11
1.0
 21
1.0
 12
344.1869158879
 22
148.5
 13
0.0
 23
0.0
 14
10.0
 24
10.0
 15
10.0
 25
10.0
 16
0.0
 26
0.0
 36
1.0
 17
0.0
 27
0.0
 37
0.0
 40
297.0
 41
1.9729729729
 42
50.0
 43
0.0
 44
0.0
 50
0.0
 51
0.0
 71
     0
 72
   100
 73
     1
 74
     3
 75
     0
 76
     0
 77
     0
 78
     0
281
     0
 65
     1
110
0.0
120
0.0
130
0.0
111
1.0
121
0.0
131
0.0
112
0.0
122
1.0
132
0.0
 79
     0
146
0.0
  0
ENDTAB
  0
TABLE
  2
LTYPE
  5
5
330
0
100
AcDbSymbolTable
 70
     1
  0
LTYPE
  5
14
330
5
100
AcDbSymbolTableRecord
100
AcDbLinetypeTableRecord
  2
ByBlock
 70
     0
  3

 72
    65
 73
     0
 40
0.0
  0
LTYPE
  5
15
330
5
100
AcDbSymbolTableRecord
100
AcDbLinetypeTableRecord
  2
ByLayer
 70
     0
  3

 72
    65
 73
     0
 40
0.0
  0
LTYPE
  5
16
330
5
100
AcDbSymbolTableRecord
100
AcDbLinetypeTableRecord
  2
Continuous
 70
     0
  3
Solid line
 72
    65
 73
     0
 40
0.0
  0
ENDTAB
  0
TABLE
  2
LAYER
  5
2
330
0
100
AcDbSymbolTable
 70
     3
  0
LAYER
  5
10
330
2
100
AcDbSymbolTableRecord
100
AcDbLayerTableRecord
  2
0
 70
     0
 62
     7
  6
Continuous
370
    -3
390
F
  0
LAYER
  5
3F
330
2
100
AcDbSymbolTableRecord
100
AcDbLayerTableRecord
  2
Default
 70
     0
 62
     7
  6
Continuous
370
    -3
390
F
  0
LAYER
  5
42
330
2
100
AcDbSymbolTableRecord
100
AcDbLayerTableRecord
  2
1-1MA
 70
     0
 62
     7
  6
Continuous
370
    -3
390
F
  0
ENDTAB
  0
TABLE
  2
STYLE
  5
3
330
0
100
AcDbSymbolTable
 70
     1
  0
STYLE
  5
11
330
3
100
AcDbSymbolTableRecord
100
AcDbTextStyleTableRecord
  2
Standard
 70
     0
 40
0.0
 41
1.0
 50
0.0
 71
     0
 42
2.5
  3
txt
  4

  0
ENDTAB
  0
TABLE
  2
VIEW
  5
6
330
0
100
AcDbSymbolTable
 70
     0
  0
ENDTAB
  0
TABLE
  2
UCS
  5
7
330
0
100
AcDbSymbolTable
 70
     0
  0
ENDTAB
  0
TABLE
  2
APPID
  5
9
330
0
100
AcDbSymbolTable
 70
     1
  0
APPID
  5
12
330
9
100
AcDbSymbolTableRecord
100
AcDbRegAppTableRecord
  2
ACAD
 70
     0
  0
ENDTAB
  0
TABLE
  2
DIMSTYLE
  5
A
330
0
100
AcDbSymbolTable
 70
     1
100
AcDbDimStyleTable
  0
DIMSTYLE
105
27
330
A
100
AcDbSymbolTableRecord
100
AcDbDimStyleTableRecord
  2
ISO-25
 70
     0
 41
2.5
 42
0.625
 43
3.75
 44
1.25
 73
     0
 74
     0
 77
     1
 78
     8
140
2.5
141
2.5
143
0.0393700787
147
0.625
171
     3
172
     1
178
     0
271
     2
272
     2
274
     3
278
    44
283
     0
284
     8
340
11
  0
ENDTAB
  0
TABLE
  2
BLOCK_RECORD
  5
1
330
0
100
AcDbSymbolTable
 70
     7
  0
BLOCK_RECORD
  5
1F
330
1
100
AcDbSymbolTableRecord
100
AcDbBlockTableRecord
  2
*Model_Space
340
22
  0
BLOCK_RECORD
  5
1B
330
1
100
AcDbSymbolTableRecord
100
AcDbBlockTableRecord
  2
*Paper_Space
340
1E
  0
BLOCK_RECORD
  5
40
330
1
100
AcDbSymbolTableRecord
100
AcDbBlockTableRecord
  2
SE
340
0
102
{BLKREFS
331
41
102
}
  0
BLOCK_RECORD
  5
FC
330
1
100
AcDbSymbolTableRecord
100
AcDbBlockTableRecord
  2
SE1
340
0
102
{BLKREFS
331
FD
102
}
  0
BLOCK_RECORD
  5
159
330
1
100
AcDbSymbolTableRecord
100
AcDbBlockTableRecord
  2
SE2
340
0
102
{BLKREFS
331
15A
102
}
  0
BLOCK_RECORD
  5
1D7
330
1
100
AcDbSymbolTableRecord
100
AcDbBlockTableRecord
  2
SE3
340
0
102
{BLKREFS
331
1D8
102
}
  0
BLOCK_RECORD
  5
242
330
1
100
AcDbSymbolTableRecord
100
AcDbBlockTableRecord
  2
SE4
340
0
102
{BLKREFS
331
243
102
}
  0
BLOCK_RECORD
  5
3B2
330
1
100
AcDbSymbolTableRecord
100
AcDbBlockTableRecord
  2
SE5
340
0
102
{BLKREFS
331
3B3
102
}
  0
ENDTAB
  0
ENDSEC
  0
SECTION
  2
BLOCKS
  0
BLOCK
  5
20
330
1F
100
AcDbEntity
  8
0
100
AcDbBlockBegin
  2
*Model_Space
 70
     0
 10
0.0
 20
0.0
 30
0.0
  3
*Model_Space
  1

  0
ENDBLK
  5
21
330
1F
100
AcDbEntity
  8
0
100
AcDbBlockEnd
  0
BLOCK
  5
1C
330
1B
100
AcDbEntity
 67
     1
  8
0
100
AcDbBlockBegin
  2
*Paper_Space
 70
     0
 10
0.0
 20
0.0
 30
0.0
  3
*Paper_Space
  1

  0
ENDBLK
  5
1D
330
1B
100
AcDbEntity
 67
     1
  8
0
100
AcDbBlockEnd
  0
BLOCK
  5
FA
330
40
100
AcDbEntity
  8
0
100
AcDbBlockBegin
  2
SE
 70
     0
 10
0.0
 20
0.0
 30
0.0
  3
SE
  1

  0
LINE
  5
43
330
40
100
AcDbEntity
  8
1-1MA
  6
Continuous
 62
     7
100
AcDbLine
 10
270.1140001662
 20
266.4364753997
 30
0.0
 11
202.1140001662
 21
266.4364753997
 31
0.0
  0
LINE
  5
44
330
40
100
AcDbEntity
  8
1-1MA
  6
Continuous
 62
     7
100
AcDbLine
 10
270.1140001662
 20
246.4364753997
 30
0.0
 11
202.1140001662
 21
246.4364753997
 31
0.0
  0
LINE
  5
45
330
40
100
AcDbEntity
  8
1-1MA
  6
Continuous
 62
     7
100
AcDbLine
 10
270.1140001662
 20
264.4364753997
 30
0.0
 11
270.1140001662
 21
246.4364753997
 31
0.0
  0
LINE
  5
46
330
40
100
AcDbEntity
  8
1-1MA
  6
Continuous
 62
     7
100
AcDbLine
 10
202.1140001662
 20
264.4364753997
 30
0.0
 11
270.1140001662
 21
264.4364753997
 31
0.0
  0
LINE
  5
47
330
40
100
AcDbEntity
  8
1-1MA
  6
Continuous
 62
     7
100
AcDbLine
 10
202.1140001662
 20
264.4364753997
 30
0.0
 11
202.1140001662
 21
246.4364753997
 31
0.0
  0
CIRCLE
  5
48
330
40
100
AcDbEntity
  8
1-1MA
  6
Continuous
 62
     7
100
AcDbCircle
 10
261.1140001662
 20
257.9364753997
 30
0.0
 40
2.96602540378444
  0
CIRCLE
  5
49
330
40
100
AcDbEntity
  8
1-1MA
  6
Continuous
 62
     7
100
AcDbCircle
 10
209.1140001662
 20
257.9364753997
 30
0.0
 40
2.96602540378444
  0
ARC
  5
4A
330
40
100
AcDbEntity
  8
1-1MA
  6
Continuous
 62
     7
100
AcDbCircle
 10
240.1140001662
 20
196.4364753997
 30
0.0
 40
28.5
100
AcDbArc
 50
241.3055864732
 51
298.6944135268
  0
ARC
  5
4B
330
40
100
AcDbEntity
  8
1-1MA
  6
Continuous
 62
     7
100
AcDbCircle
 10
240.1140001662
 20
196.4364753997
 30
0.0
 40
28.49999999999681
100
AcDbArc
 50
298.6944135268
 51
302.6368975036
  0
ARC
  5
4C
330
40
100
AcDbEntity
  8
1-1MA
  6
Continuous
 62
     7
100
AcDbCircle
 10
240.1140001662
 20
196.4364753997
 30
0.0
 40
28.49999999999998
100
AcDbArc
 50
302.6368975036
 51
237.3631024964
  0
CIRCLE
  5
4D
330
40
100
AcDbEntity
  8
1-1MA
  6
Continuous
 62
     7
100
AcDbCircle
 10
218.1140001662
 20
233.4364753997
 30
0.0
 40
11.0
  0
LINE
  5
4E
330
40
100
AcDbEntity
  8
1-1MA
  6
Continuous
 62
     7
100
AcDbLine
 10
201.1140001662
 20
265.4364753997
 30
0.0
 11
202.1140001662
 21
266.4364753997
 31
0.0
  0
LINE
  5
4F
330
40
100
AcDbEntity
  8
1-1MA
  6
Continuous
 62
     7
100
AcDbLine
 10
202.1140001662
 20
264.4364753997
 30
0.0
 11
201.1140001662
 21
265.4364753997
 31
0.0
  0
LINE
  5
50
330
40
100
AcDbEntity
  8
1-1MA
  6
Continuous
 62
     7
100
AcDbLine
 10
270.1140001662
 20
266.4364753997
 30
0.0
 11
270.1140001662
 21
264.4364753997
 31
0.0
  0
LINE
  5
51
330
40
100
AcDbEntity
  8
1-1MA
  6
Continuous
 62
     7
100
AcDbLine
 10
270.1140001662
 20
151.4364753997
 30
0.0
 11
202.1140001662
 21
151.4364753997
 31
0.0
  0
LINE
  5
52
330
40
100
AcDbEntity
  8
1-1MA
  6
Continuous
 62
     7
100
AcDbLine
 10
270.1140001662
 20
151.4364753997
 30
0.0
 11
270.1140001662
 21
153.4364753997
 31
0.0
  0
LINE
  5
53
330
40
100
AcDbEntity
  8
1-1MA
  6
Continuous
 62
     7
100
AcDbLine
 10
202.1140001662
 20
153.4364753997
 30
0.0
 11
270.1140001662
 21
153.4364753997
 31
0.0
  0
LINE
  5
54
330
40
100
AcDbEntity
  8
1-1MA
  6
Continuous
 62
     7
100
AcDbLine
 10
201.1140001662
 20
152.4364753997
 30
0.0
 11
202.1140001662
 21
153.4364753997
 31
0.0
  0
LINE
  5
55
330
40
100
AcDbEntity
  8
1-1MA
  6
Continuous
 62
     7
100
AcDbLine
 10
202.1140001662
 20
151.4364753997
 30
0.0
 11
201.1140001662
 21
152.4364753997
 31
0.0
  0
LINE
  5
56
330
40
100
AcDbEntity
  8
1-1MA
  6
Continuous
 62
     7
100
AcDbLine
 10
255.4844263152
 20
172.4364753997
 30
0.0
 11
270.1140001662
 21
172.4364753997
 31
0.0
  0
LINE
  5
57
330
40
100
AcDbEntity
  8
1-1MA
  6
Continuous
 62
     7
100
AcDbLine
 10
270.1140001662
 20
172.4364753997
 30
0.0
 11
270.1140001662
 21
245.4364753997
 31
0.0
  0
LINE
  5
58
330
40
100
AcDbEntity
  8
1-1MA
  6
Continuous
 62
     7
100
AcDbLine
 10
201.1140001662
 20
245.4364753997
 30
0.0
 11
270.1140001662
 21
245.4364753997
 31
0.0
  0
LINE
  5
59
330
40
100
AcDbEntity
  8
1-1MA
  6
Continuous
 62
     7
100
AcDbLine
 10
201.1140001662
 20
172.4364753997
 30
0.0
 11
201.1140001662
 21
245.4364753997
 31
0.0
  0
LINE
  5
5A
330
40
100
AcDbEntity
  8
1-1MA
  6
Continuous
 62
     7
100
AcDbLine
 10
201.1140001662
 20
172.4364753997
 30
0.0
 11
224.7435740173
 21
172.4364753997
 31
0.0
  0
LINE
  5
5B
330
40
100
AcDbEntity
  8
1-1MA
  6
Continuous
 62
     7
100
AcDbLine
 10
202.1140001662
 20
171.4364753997
 30
0.0
 11
202.1140001662
 21
153.4364753997
 31
0.0
  0
LINE
  5
5C
330
40
100
AcDbEntity
  8
1-1MA
  6
Continuous
 62
     7
100
AcDbLine
 10
270.1140001662
 20
171.4364753997
 30
0.0
 11
270.1140001662
 21
153.4364753997
 31
0.0
  0
LINE
  5
5D
330
40
100
AcDbEntity
  8
1-1MA
  6
Continuous
 62
     7
100
AcDbLine
 10
253.7979323496
 20
171.4364753997
 30
0.0
 11
270.1140001662
 21
171.4364753997
 31
0.0
  0
LINE
  5
5E
330
40
100
AcDbEntity
  8
1-1MA
  6
Continuous
 62
     7
100
AcDbLine
 10
202.1140001662
 20
171.4364753997
 30
0.0
 11
226.4300679828
 21
171.4364753997
 31
0.0
  0
CIRCLE
  5
5F
330
40
100
AcDbEntity
  8
1-1MA
  6
Continuous
 62
     7
100
AcDbCircle
 10
261.1140001662
 20
159.9364753997
 30
0.0
 40
2.96602540378444
  0
CIRCLE
  5
60
330
40
100
AcDbEntity
  8
1-1MA
  6
Continuous
 62
     7
100
AcDbCircle
 10
209.1140001662
 20
159.9364753997
 30
0.0
 40
2.96602540378444
  0
ARC
  5
61
330
40
100
AcDbEntity
  8
1-1MA
  6
Continuous
 62
     7
100
AcDbCircle
 10
240.1140001662
 20
196.4364753997
 30
0.0
 40
28.50000000000061
100
AcDbArc
 50
237.3631024964
 51
241.3055864732
  0
LINE
  5
62
330
40
100
AcDbEntity
  8
1-1MA
  6
Continuous
 62
     7
100
AcDbLine
 10
202.1140001662
 20
171.4364753997
 30
0.0
 11
201.1140001662
 21
172.4364753997
 31
0.0
  0
LINE
  5
63
330
40
100
AcDbEntity
  8
1-1MA
  6
Continuous
 62
     7
100
AcDbLine
 10
270.1140001662
 20
171.4364753997
 30
0.0
 11
270.1140001662
 21
172.4364753997
 31
0.0
  0
CIRCLE
  5
64
330
40
100
AcDbEntity
  8
1-1MA
  6
Continuous
 62
     7
100
AcDbCircle
 10
261.1140001662
 20
257.9364753997
 30
0.0
 40
2.1
  0
CIRCLE
  5
65
330
40
100
AcDbEntity
  8
1-1MA
  6
Continuous
 62
     7
100
AcDbCircle
 10
209.1140001662
 20
257.9364753997
 30
0.0
 40
2.1
  0
CIRCLE
  5
66
330
40
100
AcDbEntity
  8
1-1MA
  6
Continuous
 62
     7
100
AcDbCircle
 10
261.1140001662
 20
159.9364753997
 30
0.0
 40
2.1
  0
CIRCLE
  5
67
330
40
100
AcDbEntity
  8
1-1MA
  6
Continuous
 62
     7
100
AcDbCircle
 10
209.1140001662
 20
159.9364753997
 30
0.0
 40
2.1
  0
LINE
  5
68
330
40
100
AcDbEntity
  8
1-1MA
  6
Continuous
 62
     7
100
AcDbLine
 10
200.1140001662
 20
264.4364753997
 30
0.0
 11
200.1140001662
 21
153.4364753997
 31
0.0
  0
LINE
  5
69
330
40
100
AcDbEntity
  8
1-1MA
  6
Continuous
 62
     7
100
AcDbLine
 10
270.1140001662
 20
245.4364753997
 30
0.0
 11
270.1140001662
 21
246.4364753997
 31
0.0
  0
LINE
  5
6A
330
40
100
AcDbEntity
  8
1-1MA
  6
Continuous
 62
     7
100
AcDbLine
 10
201.1140001662
 20
265.4364753997
 30
0.0
 11
200.1140001662
 21
264.4364753997
 31
0.0
  0
LINE
  5
6B
330
40
100
AcDbEntity
  8
1-1MA
  6
Continuous
 62
     7
100
AcDbLine
 10
201.1140001662
 20
152.4364753997
 30
0.0
 11
200.1140001662
 21
153.4364753997
 31
0.0
  0
LINE
  5
6C
330
40
100
AcDbEntity
  8
1-1MA
  6
Continuous
 62
     7
100
AcDbLine
 10
201.1140001662
 20
245.4364753997
 30
0.0
 11
202.1140001662
 21
246.4364753997
 31
0.0
  0
LINE
  5
6D
330
40
100
AcDbEntity
  8
1-1MA
  6
Continuous
 62
     7
100
AcDbLine
 10
283.1152185122
 20
154.8917055529
 30
0.0
 11
283.1152185122
 21
262.9812452465
 31
0.0
  0
LINE
  5
6E
330
40
100
AcDbEntity
  8
1-1MA
  6
Continuous
 62
     7
100
AcDbLine
 10
283.1152185122
 20
262.9812452465
 30
0.0
 11
270.1140001662
 21
263.4352577955
 31
0.0
  0
LINE
  5
6F
330
40
100
AcDbEntity
  8
1-1MA
  6
Continuous
 62
     7
100
AcDbLine
 10
270.1140001662
 20
152.4364753997
 30
0.0
 11
283.1152185122
 21
152.8904879487
 31
0.0
  0
LINE
  5
70
330
40
100
AcDbEntity
  8
1-1MA
  6
Continuous
 62
     7
100
AcDbLine
 10
284.1152177705
 20
153.9260174944
 30
0.0
 11
283.1152185122
 21
154.8917055529
 31
0.0
  0
LINE
  5
71
330
40
100
AcDbEntity
  8
1-1MA
  6
Continuous
 62
     7
100
AcDbLine
 10
283.1152185122
 20
154.8917055529
 30
0.0
 11
270.1140001662
 21
154.4376930039
 31
0.0
  0
LINE
  5
72
330
40
100
AcDbEntity
  8
1-1MA
  6
Continuous
 62
     7
100
AcDbLine
 10
284.1152177705
 20
263.946933305
 30
0.0
 11
283.1152185122
 21
264.9824628507
 31
0.0
  0
LINE
  5
73
330
40
100
AcDbEntity
  8
1-1MA
  6
Continuous
 62
     7
100
AcDbLine
 10
270.1140001662
 20
265.4364753997
 30
0.0
 11
283.1152185122
 21
264.9824628507
 31
0.0
  0
LINE
  5
74
330
40
100
AcDbEntity
  8
1-1MA
  6
Continuous
 62
     7
100
AcDbLine
 10
284.1152177705
 20
153.9260174944
 30
0.0
 11
285.1140001662
 21
154.9602869421
 31
0.0
  0
LINE
  5
75
330
40
100
AcDbEntity
  8
1-1MA
  6
Continuous
 62
     7
100
AcDbLine
 10
285.1140001662
 20
154.9602869421
 30
0.0
 11
285.1140001662
 21
262.9126638573
 31
0.0
  0
LINE
  5
76
330
40
100
AcDbEntity
  8
1-1MA
  6
Continuous
 62
     7
100
AcDbLine
 10
285.1140001662
 20
262.9126638573
 30
0.0
 11
284.1152177705
 21
263.946933305
 31
0.0
  0
LINE
  5
77
330
40
100
AcDbEntity
  8
1-1MA
  6
Continuous
 62
     7
100
AcDbLine
 10
284.1152177705
 20
263.946933305
 30
0.0
 11
283.1152185122
 21
262.9812452465
 31
0.0
  0
LINE
  5
78
330
40
100
AcDbEntity
  8
1-1MA
  6
Continuous
 62
     7
100
AcDbLine
 10
284.1152177705
 20
153.9260174944
 30
0.0
 11
283.1152185122
 21
152.8904879487
 31
0.0
  0
LINE
  5
79
330
40
100
AcDbEntity
  8
1-1MA
  6
Continuous
 62
     7
100
AcDbLine
 10
285.1140001662
 20
217.4364753997
 30
0.0
 11
285.6140001662
 21
217.4364753997
 31
0.0
  0
LINE
  5
7A
330
40
100
AcDbEntity
  8
1-1MA
  6
Continuous
 62
     7
100
AcDbLine
 10
285.1140001662
 20
208.9364753997
 30
0.0
 11
285.6140001662
 21
208.9364753997
 31
0.0
  0
LINE
  5
7B
330
40
100
AcDbEntity
  8
1-1MA
  6
Continuous
 62
     7
100
AcDbLine
 10
285.6140001662
 20
208.9364753997
 30
0.0
 11
285.6140001662
 21
217.4364753997
 31
0.0
  0
LINE
  5
7C
330
40
100
AcDbEntity
  8
1-1MA
  6
Continuous
 62
     7
100
AcDbLine
 10
285.1140001662
 20
200.4364753997
 30
0.0
 11
285.6140001662
 21
200.4364753997
 31
0.0
  0
LINE
  5
7D
330
40
100
AcDbEntity
  8
1-1MA
  6
Continuous
 62
     7
100
AcDbLine
 10
285.6140001662
 20
200.4364753997
 30
0.0
 11
285.6140001662
 21
208.9364753997
 31
0.0
  0
LINE
  5
7E
330
40
100
AcDbEntity
  8
1-1MA
  6
Continuous
 62
     7
100
AcDbLine
 10
286.1140001662
 20
216.9364753997
 30
0.0
 11
286.1140001662
 21
208.9364753997
 31
0.0
  0
LINE
  5
7F
330
40
100
AcDbEntity
  8
1-1MA
  6
Continuous
 62
     7
100
AcDbLine
 10
286.1140001662
 20
208.9364753997
 30
0.0
 11
286.1140001662
 21
200.9364753997
 31
0.0
  0
LINE
  5
80
330
40
100
AcDbEntity
  8
1-1MA
  6
Continuous
 62
     7
100
AcDbLine
 10
287.1140001662
 20
215.4364753997
 30
0.0
 11
287.1140001662
 21
202.4364753997
 31
0.0
  0
LINE
  5
81
330
40
100
AcDbEntity
  8
1-1MA
  6
Continuous
 62
     7
100
AcDbLine
 10
286.1140001662
 20
200.9364753997
 30
0.0
 11
285.6140001662
 21
200.4364753997
 31
0.0
  0
LINE
  5
82
330
40
100
AcDbEntity
  8
1-1MA
  6
Continuous
 62
     7
100
AcDbLine
 10
285.6140001662
 20
208.9364753997
 30
0.0
 11
286.1140001662
 21
208.9364753997
 31
0.0
  0
LINE
  5
83
330
40
100
AcDbEntity
  8
1-1MA
  6
Continuous
 62
     7
100
AcDbLine
 10
285.6140001662
 20
217.4364753997
 30
0.0
 11
286.1140001662
 21
216.9364753997
 31
0.0
  0
CIRCLE
  5
84
330
40
100
AcDbEntity
  8
1-1MA
  6
Continuous
 62
     7
100
AcDbCircle
 10
239.8697388284
 20
196.4364753997
 30
0.0
 40
8.999999999999998
  0
CIRCLE
  5
85
330
40
100
AcDbEntity
  8
1-1MA
  6
Continuous
 62
     7
100
AcDbCircle
 10
239.8697388284
 20
196.4364753997
 30
0.0
 40
28.0
  0
ARC
  5
86
330
40
100
AcDbEntity
  8
1-1MA
  6
Continuous
 62
     7
100
AcDbCircle
 10
239.8697388284
 20
196.4364753997
 30
0.0
 40
27.49999999999996
100
AcDbArc
 50
60.0
 51
120.0
  0
ARC
  5
87
330
40
100
AcDbEntity
  8
1-1MA
  6
Continuous
 62
     7
100
AcDbCircle
 10
239.8697388284
 20
196.4364753997
 30
0.0
 40
27.49999999999995
100
AcDbArc
 50
0.0
 51
60.0
  0
ARC
  5
88
330
40
100
AcDbEntity
  8
1-1MA
  6
Continuous
 62
     7
100
AcDbCircle
 10
239.8697388284
 20
196.4364753997
 30
0.0
 40
27.5
100
AcDbArc
 50
300.0
 51
0.0
  0
ARC
  5
89
330
40
100
AcDbEntity
  8
1-1MA
  6
Continuous
 62
     7
100
AcDbCircle
 10
239.8697388284
 20
196.4364753997
 30
0.0
 40
27.49999999999995
100
AcDbArc
 50
240.0
 51
300.0
  0
CIRCLE
  5
8A
330
40
100
AcDbEntity
  8
1-1MA
  6
Continuous
 62
     7
100
AcDbCircle
 10
216.8697388284
 20
196.4364753997
 30
0.0
 40
4.499999999999999
  0
CIRCLE
  5
8B
330
40
100
AcDbEntity
  8
1-1MA
  6
Continuous
 62
     7
100
AcDbCircle
 10
228.3697388284
 20
216.3550596867
 30
0.0
 40
4.499999999999999
  0
CIRCLE
  5
8C
330
40
100
AcDbEntity
  8
1-1MA
  6
Continuous
 62
     7
100
AcDbCircle
 10
251.3697388284
 20
216.3550596867
 30
0.0
 40
4.499999999999999
  0
CIRCLE
  5
8D
330
40
100
AcDbEntity
  8
1-1MA
  6
Continuous
 62
     7
100
AcDbCircle
 10
262.8697388284
 20
196.4364753997
 30
0.0
 40
4.499999999999999
  0
CIRCLE
  5
8E
330
40
100
AcDbEntity
  8
1-1MA
  6
Continuous
 62
     7
100
AcDbCircle
 10
251.3697388284
 20
176.5178911126
 30
0.0
 40
4.499999999999999
  0
CIRCLE
  5
8F
330
40
100
AcDbEntity
  8
1-1MA
  6
Continuous
 62
     7
100
AcDbCircle
 10
228.3697388284
 20
176.5178911126
 30
0.0
 40
4.499999999999999
  0
ARC
  5
90
330
40
100
AcDbEntity
  8
1-1MA
  6
Continuous
 62
     7
100
AcDbCircle
 10
239.8697388284
 20
196.4364753997
 30
0.0
 40
27.49999999999995
100
AcDbArc
 50
180.0
 51
240.0
  0
ARC
  5
91
330
40
100
AcDbEntity
  8
1-1MA
  6
Continuous
 62
     7
100
AcDbCircle
 10
239.8697388284
 20
196.4364753997
 30
0.0
 40
27.5
100
AcDbArc
 50
120.0
 51
180.0
  0
CIRCLE
  5
92
330
40
100
AcDbEntity
  8
1-1MA
  6
Continuous
 62
     7
100
AcDbCircle
 10
239.8697388284
 20
196.4364753997
 30
0.0
 40
8.499999999999998
  0
LINE
  5
93
330
40
100
AcDbEntity
  8
1-1MA
  6
Continuous
 62
     7
100
AcDbLine
 10
241.3697388284
 20
201.7279780218
 30
0.0
 11
241.3697388284
 21
202.8364753997
 31
0.0
  0
LINE
  5
94
330
40
100
AcDbEntity
  8
1-1MA
  6
Continuous
 62
     7
100
AcDbLine
 10
241.3697388284
 20
202.8364753997
 30
0.0
 11
238.3697388284
 21
202.8364753997
 31
0.0
  0
LINE
  5
95
330
40
100
AcDbEntity
  8
1-1MA
  6
Continuous
 62
     7
100
AcDbLine
 10
238.3697388284
 20
202.8364753997
 30
0.0
 11
238.3697388284
 21
201.7279780218
 31
0.0
  0
ARC
  5
96
330
40
100
AcDbEntity
  8
1-1MA
  6
Continuous
 62
     7
100
AcDbCircle
 10
239.8697388284
 20
196.4364753997
 30
0.0
 40
4.999999999999954
100
AcDbArc
 50
107.4576031237
 51
72.5423968763
  0
CIRCLE
  5
97
330
40
100
AcDbEntity
  8
1-1MA
  6
Continuous
 62
     7
100
AcDbCircle
 10
239.8697388284
 20
196.4364753997
 30
0.0
 40
7.699999999999999
  0
ARC
  5
98
330
40
100
AcDbEntity
  8
1-1MA
  6
Continuous
 62
     7
100
AcDbCircle
 10
239.8697388284
 20
196.4364753997
 30
0.0
 40
5.500000000000013
100
AcDbArc
 50
105.8266201319
 51
74.1733798681
  0
LINE
  5
99
330
40
100
AcDbEntity
  8
1-1MA
  6
Continuous
 62
     7
100
AcDbLine
 10
241.3697388284
 20
201.7279780218
 30
0.0
 11
241.3697388284
 21
201.2061714068
 31
0.0
  0
LINE
  5
9A
330
40
100
AcDbEntity
  8
1-1MA
  6
Continuous
 62
     7
100
AcDbLine
 10
238.3697388284
 20
201.2061714068
 30
0.0
 11
238.3697388284
 21
201.7279780218
 31
0.0
  0
ARC
  5
9B
330
40
100
AcDbEntity
  8
1-1MA
  6
Continuous
 62
     7
100
AcDbCircle
 10
251.3697388284
 20
176.5178911126
 30
0.0
 40
4.229662000000098
100
AcDbArc
 50
340.6615899765
 51
19.3384100234
  0
CIRCLE
  5
9C
330
40
100
AcDbEntity
  8
1-1MA
  6
Continuous
 62
     7
100
AcDbCircle
 10
251.6140001662
 20
176.5178911126
 30
0.0
 40
1.45375
  0
ARC
  5
9D
330
40
100
AcDbEntity
  8
1-1MA
  6
Continuous
 62
     7
100
AcDbCircle
 10
251.6140001662
 20
176.5178911126
 30
0.0
 40
3.999999999999997
100
AcDbArc
 50
20.4971015548
 51
339.5028984452
  0
LINE
  5
9E
330
40
100
AcDbEntity
  8
1-1MA
  6
Continuous
 62
     7
100
AcDbLine
 10
252.886175122
 20
175.8348309285
 30
0.0
 11
251.6585401723
 21
175.0746251908
 31
0.0
  0
LINE
  5
9F
330
40
100
AcDbEntity
  8
1-1MA
  6
Continuous
 62
     7
100
AcDbLine
 10
251.6585401723
 20
175.0746251908
 30
0.0
 11
250.3863652165
 21
175.7576853749
 31
0.0
  0
LINE
  5
A0
330
40
100
AcDbEntity
  8
1-1MA
  6
Continuous
 62
     7
100
AcDbLine
 10
250.3863652165
 20
175.7576853749
 30
0.0
 11
250.3418252104
 21
177.2009512968
 31
0.0
  0
LINE
  5
A1
330
40
100
AcDbEntity
  8
1-1MA
  6
Continuous
 62
     7
100
AcDbLine
 10
250.3418252104
 20
177.2009512968
 30
0.0
 11
251.5694601601
 21
177.9611570345
 31
0.0
  0
LINE
  5
A2
330
40
100
AcDbEntity
  8
1-1MA
  6
Continuous
 62
     7
100
AcDbLine
 10
251.5694601601
 20
177.9611570345
 30
0.0
 11
252.8416351159
 21
177.2780968503
 31
0.0
  0
LINE
  5
A3
330
40
100
AcDbEntity
  8
1-1MA
  6
Continuous
 62
     7
100
AcDbLine
 10
252.8416351159
 20
177.2780968503
 30
0.0
 11
252.886175122
 21
175.8348309285
 31
0.0
  0
CIRCLE
  5
A4
330
40
100
AcDbEntity
  8
1-1MA
  6
Continuous
 62
     7
100
AcDbCircle
 10
218.1140001662
 20
233.4364753997
 30
0.0
 40
8.549999999999999
  0
CIRCLE
  5
A5
330
40
100
AcDbEntity
  8
1-1MA
  6
Continuous
 62
     7
100
AcDbCircle
 10
218.1140001662
 20
233.4364753997
 30
0.0
 40
9.499999999999998
  0
LINE
  5
A6
330
40
100
AcDbEntity
  8
1-1MA
  6
Continuous
 62
     7
100
AcDbLine
 10
218.1140001662
 20
237.1892521494
 30
0.0
 11
214.8640001662
 21
235.3128637745
 31
0.0
  0
LINE
  5
A7
330
40
100
AcDbEntity
  8
1-1MA
  6
Continuous
 62
     7
100
AcDbLine
 10
215.1140001662
 20
235.1685262072
 30
0.0
 11
218.1140001662
 21
236.9005770148
 31
0.0
  0
LINE
  5
A8
330
40
100
AcDbEntity
  8
1-1MA
  6
Continuous
 62
     7
100
AcDbLine
 10
214.8640001662
 20
235.3128637745
 30
0.0
 11
214.8640001662
 21
231.5600870248
 31
0.0
  0
LINE
  5
A9
330
40
100
AcDbEntity
  8
1-1MA
  6
Continuous
 62
     7
100
AcDbLine
 10
215.1140001662
 20
231.7044245921
 30
0.0
 11
215.1140001662
 21
235.1685262072
 31
0.0
  0
LINE
  5
AA
330
40
100
AcDbEntity
  8
1-1MA
  6
Continuous
 62
     7
100
AcDbLine
 10
215.1140001662
 20
235.1685262072
 30
0.0
 11
214.8640001662
 21
235.3128637745
 31
0.0
  0
LINE
  5
AB
330
40
100
AcDbEntity
  8
1-1MA
  6
Continuous
 62
     7
100
AcDbLine
 10
214.8640001662
 20
231.5600870248
 30
0.0
 11
218.1140001662
 21
229.6836986499
 31
0.0
  0
LINE
  5
AC
330
40
100
AcDbEntity
  8
1-1MA
  6
Continuous
 62
     7
100
AcDbLine
 10
218.1140001662
 20
229.6836986499
 30
0.0
 11
218.1140001662
 21
229.9723737845
 31
0.0
  0
LINE
  5
AD
330
40
100
AcDbEntity
  8
1-1MA
  6
Continuous
 62
     7
100
AcDbLine
 10
218.1140001662
 20
229.9723737845
 30
0.0
 11
215.1140001662
 21
231.7044245921
 31
0.0
  0
LINE
  5
AE
330
40
100
AcDbEntity
  8
1-1MA
  6
Continuous
 62
     7
100
AcDbLine
 10
215.1140001662
 20
231.7044245921
 30
0.0
 11
214.8640001662
 21
231.5600870248
 31
0.0
  0
LINE
  5
AF
330
40
100
AcDbEntity
  8
1-1MA
  6
Continuous
 62
     7
100
AcDbLine
 10
218.1140001662
 20
229.6836986499
 30
0.0
 11
221.3640001662
 21
231.5600870248
 31
0.0
  0
LINE
  5
B0
330
40
100
AcDbEntity
  8
1-1MA
  6
Continuous
 62
     7
100
AcDbLine
 10
221.1140001662
 20
231.7044245921
 30
0.0
 11
218.1140001662
 21
229.9723737845
 31
0.0
  0
LINE
  5
B1
330
40
100
AcDbEntity
  8
1-1MA
  6
Continuous
 62
     7
100
AcDbLine
 10
221.3640001662
 20
231.5600870248
 30
0.0
 11
221.3640001662
 21
235.3128637745
 31
0.0
  0
LINE
  5
B2
330
40
100
AcDbEntity
  8
1-1MA
  6
Continuous
 62
     7
100
AcDbLine
 10
221.3640001662
 20
235.3128637745
 30
0.0
 11
221.1140001662
 21
235.1685262072
 31
0.0
  0
LINE
  5
B3
330
40
100
AcDbEntity
  8
1-1MA
  6
Continuous
 62
     7
100
AcDbLine
 10
221.1140001662
 20
235.1685262072
 30
0.0
 11
221.1140001662
 21
231.7044245921
 31
0.0
  0
LINE
  5
B4
330
40
100
AcDbEntity
  8
1-1MA
  6
Continuous
 62
     7
100
AcDbLine
 10
221.1140001662
 20
231.7044245921
 30
0.0
 11
221.3640001662
 21
231.5600870248
 31
0.0
  0
LINE
  5
B5
330
40
100
AcDbEntity
  8
1-1MA
  6
Continuous
 62
     7
100
AcDbLine
 10
221.3640001662
 20
235.3128637745
 30
0.0
 11
218.1140001662
 21
237.1892521494
 31
0.0
  0
LINE
  5
B6
330
40
100
AcDbEntity
  8
1-1MA
  6
Continuous
 62
     7
100
AcDbLine
 10
218.1140001662
 20
237.1892521494
 30
0.0
 11
218.1140001662
 21
236.9005770148
 31
0.0
  0
LINE
  5
B7
330
40
100
AcDbEntity
  8
1-1MA
  6
Continuous
 62
     7
100
AcDbLine
 10
218.1140001662
 20
236.9005770148
 30
0.0
 11
221.1140001662
 21
235.1685262072
 31
0.0
  0
LINE
  5
B8
330
40
100
AcDbEntity
  8
1-1MA
  6
Continuous
 62
     7
100
AcDbLine
 10
240.1140001662
 20
266.9364753997
 30
0.0
 11
231.6140001662
 21
266.9364753997
 31
0.0
  0
LINE
  5
B9
330
40
100
AcDbEntity
  8
1-1MA
  6
Continuous
 62
     7
100
AcDbLine
 10
248.6140001662
 20
266.4364753997
 30
0.0
 11
248.6140001662
 21
266.9364753997
 31
0.0
  0
LINE
  5
BA
330
40
100
AcDbEntity
  8
1-1MA
  6
Continuous
 62
     7
100
AcDbLine
 10
248.6140001662
 20
266.9364753997
 30
0.0
 11
240.1140001662
 21
266.9364753997
 31
0.0
  0
LINE
  5
BB
330
40
100
AcDbEntity
  8
1-1MA
  6
Continuous
 62
     7
100
AcDbLine
 10
240.1140001662
 20
266.9364753997
 30
0.0
 11
240.1140001662
 21
266.4364753997
 31
0.0
  0
LINE
  5
BC
330
40
100
AcDbEntity
  8
1-1MA
  6
Continuous
 62
     7
100
AcDbLine
 10
231.6140001662
 20
266.4364753997
 30
0.0
 11
231.6140001662
 21
266.9364753997
 31
0.0
  0
LINE
  5
BD
330
40
100
AcDbEntity
  8
1-1MA
  6
Continuous
 62
     7
100
AcDbLine
 10
232.1140001662
 20
267.4364753997
 30
0.0
 11
240.1140001662
 21
267.4364753997
 31
0.0
  0
LINE
  5
BE
330
40
100
AcDbEntity
  8
1-1MA
  6
Continuous
 62
     7
100
AcDbLine
 10
240.1140001662
 20
267.4364753997
 30
0.0
 11
248.1140001662
 21
267.4364753997
 31
0.0
  0
LINE
  5
BF
330
40
100
AcDbEntity
  8
1-1MA
  6
Continuous
 62
     7
100
AcDbLine
 10
231.5955111662
 20
269.4364753997
 30
0.0
 11
248.5955111662
 21
269.4364753997
 31
0.0
  0
LINE
  5
C0
330
40
100
AcDbEntity
  8
1-1MA
  6
Continuous
 62
     7
100
AcDbLine
 10
233.0955111662
 20
279.4364753997
 30
0.0
 11
247.0955111662
 21
279.4364753997
 31
0.0
  0
LINE
  5
C1
330
40
100
AcDbEntity
  8
1-1MA
  6
Continuous
 62
     7
100
AcDbLine
 10
231.5955111662
 20
277.9364753997
 30
0.0
 11
248.5955111662
 21
277.9364753997
 31
0.0
  0
LINE
  5
C2
330
40
100
AcDbEntity
  8
1-1MA
  6
Continuous
 62
     7
100
AcDbLine
 10
240.1140001662
 20
267.4364753997
 30
0.0
 11
240.1140001662
 21
266.9364753997
 31
0.0
  0
LINE
  5
C3
330
40
100
AcDbEntity
  8
1-1MA
  6
Continuous
 62
     7
100
AcDbLine
 10
248.1140001662
 20
267.4364753997
 30
0.0
 11
248.6140001662
 21
266.9364753997
 31
0.0
  0
LINE
  5
C4
330
40
100
AcDbEntity
  8
1-1MA
  6
Continuous
 62
     7
100
AcDbLine
 10
231.6140001662
 20
266.9364753997
 30
0.0
 11
232.1140001662
 21
267.4364753997
 31
0.0
  0
ARC
  5
C5
330
40
100
AcDbEntity
  8
1-1MA
  6
Continuous
 62
     7
100
AcDbCircle
 10
262.8697388284
 20
196.4364753997
 30
0.0
 40
4.229662000000126
100
AcDbArc
 50
40.6615899766
 51
79.3384100234
  0
ARC
  5
C6
330
40
100
AcDbEntity
  8
1-1MA
  6
Continuous
 62
     7
100
AcDbCircle
 10
262.9918694973
 20
196.6480119234
 30
0.0
 40
4.0
100
AcDbArc
 50
80.4971015548
 51
39.5028984452
  0
CIRCLE
  5
C7
330
40
100
AcDbEntity
  8
1-1MA
  6
Continuous
 62
     7
100
AcDbCircle
 10
262.9918694973
 20
196.6480119234
 30
0.0
 40
1.45375
  0
LINE
  5
C8
330
40
100
AcDbEntity
  8
1-1MA
  6
Continuous
 62
     7
100
AcDbLine
 10
264.2640444531
 20
195.9649517393
 30
0.0
 11
263.0364095034
 21
195.2047460016
 31
0.0
  0
LINE
  5
C9
330
40
100
AcDbEntity
  8
1-1MA
  6
Continuous
 62
     7
100
AcDbLine
 10
261.7642345476
 20
195.8878061857
 30
0.0
 11
261.7196945415
 21
197.3310721076
 31
0.0
  0
LINE
  5
CA
330
40
100
AcDbEntity
  8
1-1MA
  6
Continuous
 62
     7
100
AcDbLine
 10
261.7196945415
 20
197.3310721076
 30
0.0
 11
262.9473294912
 21
198.0912778453
 31
0.0
  0
LINE
  5
CB
330
40
100
AcDbEntity
  8
1-1MA
  6
Continuous
 62
     7
100
AcDbLine
 10
262.9473294912
 20
198.0912778453
 30
0.0
 11
264.219504447
 21
197.4082176611
 31
0.0
  0
LINE
  5
CC
330
40
100
AcDbEntity
  8
1-1MA
  6
Continuous
 62
     7
100
AcDbLine
 10
264.219504447
 20
197.4082176611
 30
0.0
 11
264.2640444531
 21
195.9649517393
 31
0.0
  0
LINE
  5
CD
330
40
100
AcDbEntity
  8
1-1MA
  6
Continuous
 62
     7
100
AcDbLine
 10
263.0364095034
 20
195.2047460016
 30
0.0
 11
261.7642345476
 21
195.8878061857
 31
0.0
  0
ARC
  5
CE
330
40
100
AcDbEntity
  8
1-1MA
  6
Continuous
 62
     7
100
AcDbCircle
 10
251.3697388284
 20
216.3550596867
 30
0.0
 40
4.229662000000107
100
AcDbArc
 50
100.6615899765
 51
139.3384100235
  0
ARC
  5
CF
330
40
100
AcDbEntity
  8
1-1MA
  6
Continuous
 62
     7
100
AcDbCircle
 10
251.2476081594
 20
216.5665962105
 30
0.0
 40
4.000000000000006
100
AcDbArc
 50
140.4971015548
 51
99.5028984452
  0
CIRCLE
  5
D0
330
40
100
AcDbEntity
  8
1-1MA
  6
Continuous
 62
     7
100
AcDbCircle
 10
251.2476081594
 20
216.5665962105
 30
0.0
 40
1.45375
  0
LINE
  5
D1
330
40
100
AcDbEntity
  8
1-1MA
  6
Continuous
 62
     7
100
AcDbLine
 10
252.4752431091
 20
217.3268019482
 30
0.0
 11
252.5197831152
 21
215.8835360263
 31
0.0
  0
LINE
  5
D2
330
40
100
AcDbEntity
  8
1-1MA
  6
Continuous
 62
     7
100
AcDbLine
 10
251.2921481655
 20
215.1233302886
 30
0.0
 11
250.0199732097
 21
215.8063904728
 31
0.0
  0
LINE
  5
D3
330
40
100
AcDbEntity
  8
1-1MA
  6
Continuous
 62
     7
100
AcDbLine
 10
250.0199732097
 20
215.8063904728
 30
0.0
 11
249.9754332037
 21
217.2496563946
 31
0.0
  0
LINE
  5
D4
330
40
100
AcDbEntity
  8
1-1MA
  6
Continuous
 62
     7
100
AcDbLine
 10
249.9754332037
 20
217.2496563946
 30
0.0
 11
251.2030681534
 21
218.0098621323
 31
0.0
  0
LINE
  5
D5
330
40
100
AcDbEntity
  8
1-1MA
  6
Continuous
 62
     7
100
AcDbLine
 10
251.2030681534
 20
218.0098621323
 30
0.0
 11
252.4752431091
 21
217.3268019482
 31
0.0
  0
LINE
  5
D6
330
40
100
AcDbEntity
  8
1-1MA
  6
Continuous
 62
     7
100
AcDbLine
 10
252.5197831152
 20
215.8835360263
 30
0.0
 11
251.2921481655
 21
215.1233302886
 31
0.0
  0
ARC
  5
D7
330
40
100
AcDbEntity
  8
1-1MA
  6
Continuous
 62
     7
100
AcDbCircle
 10
228.3697388284
 20
216.3550596867
 30
0.0
 40
4.229662000000094
100
AcDbArc
 50
160.6615899766
 51
199.3384100224
  0
ARC
  5
D8
330
40
100
AcDbEntity
  8
1-1MA
  6
Continuous
 62
     7
100
AcDbCircle
 10
228.1254774905
 20
216.3550596867
 30
0.0
 40
3.999999999999999
100
AcDbArc
 50
200.4971015537
 51
159.5028984452
  0
CIRCLE
  5
D9
330
40
100
AcDbEntity
  8
1-1MA
  6
Continuous
 62
     7
100
AcDbCircle
 10
228.1254774905
 20
216.3550596867
 30
0.0
 40
1.45375
  0
LINE
  5
DA
330
40
100
AcDbEntity
  8
1-1MA
  6
Continuous
 62
     7
100
AcDbLine
 10
228.0809374844
 20
217.7983256086
 30
0.0
 11
229.3531124402
 21
217.1152654244
 31
0.0
  0
LINE
  5
DB
330
40
100
AcDbEntity
  8
1-1MA
  6
Continuous
 62
     7
100
AcDbLine
 10
229.3976524463
 20
215.6719995026
 30
0.0
 11
228.1700174966
 21
214.9117937649
 31
0.0
  0
LINE
  5
DC
330
40
100
AcDbEntity
  8
1-1MA
  6
Continuous
 62
     7
100
AcDbLine
 10
228.1700174966
 20
214.9117937649
 30
0.0
 11
226.8978425408
 21
215.594853949
 31
0.0
  0
LINE
  5
DD
330
40
100
AcDbEntity
  8
1-1MA
  6
Continuous
 62
     7
100
AcDbLine
 10
226.8978425408
 20
215.594853949
 30
0.0
 11
226.8533025347
 21
217.0381198709
 31
0.0
  0
LINE
  5
DE
330
40
100
AcDbEntity
  8
1-1MA
  6
Continuous
 62
     7
100
AcDbLine
 10
226.8533025347
 20
217.0381198709
 30
0.0
 11
228.0809374844
 21
217.7983256086
 31
0.0
  0
LINE
  5
DF
330
40
100
AcDbEntity
  8
1-1MA
  6
Continuous
 62
     7
100
AcDbLine
 10
229.3531124402
 20
217.1152654244
 30
0.0
 11
229.3976524463
 21
215.6719995026
 31
0.0
  0
ARC
  5
E0
330
40
100
AcDbEntity
  8
1-1MA
  6
Continuous
 62
     7
100
AcDbCircle
 10
216.8697388284
 20
196.4364753997
 30
0.0
 40
4.229662000000097
100
AcDbArc
 50
220.6615899766
 51
259.3384100235
  0
ARC
  5
E1
330
40
100
AcDbEntity
  8
1-1MA
  6
Continuous
 62
     7
100
AcDbCircle
 10
216.7476081594
 20
196.2249388759
 30
0.0
 40
3.999999999999999
100
AcDbArc
 50
260.4971015548
 51
219.5028984452
  0
CIRCLE
  5
E2
330
40
100
AcDbEntity
  8
1-1MA
  6
Continuous
 62
     7
100
AcDbCircle
 10
216.7476081594
 20
196.2249388759
 30
0.0
 40
1.45375
  0
LINE
  5
E3
330
40
100
AcDbEntity
  8
1-1MA
  6
Continuous
 62
     7
100
AcDbLine
 10
215.4754332037
 20
196.9079990601
 30
0.0
 11
216.7030681534
 21
197.6682047978
 31
0.0
  0
LINE
  5
E4
330
40
100
AcDbEntity
  8
1-1MA
  6
Continuous
 62
     7
100
AcDbLine
 10
217.9752431091
 20
196.9851446136
 30
0.0
 11
218.0197831152
 21
195.5418786918
 31
0.0
  0
LINE
  5
E5
330
40
100
AcDbEntity
  8
1-1MA
  6
Continuous
 62
     7
100
AcDbLine
 10
218.0197831152
 20
195.5418786918
 30
0.0
 11
216.7921481655
 21
194.7816729541
 31
0.0
  0
LINE
  5
E6
330
40
100
AcDbEntity
  8
1-1MA
  6
Continuous
 62
     7
100
AcDbLine
 10
216.7921481655
 20
194.7816729541
 30
0.0
 11
215.5199732097
 21
195.4647331382
 31
0.0
  0
LINE
  5
E7
330
40
100
AcDbEntity
  8
1-1MA
  6
Continuous
 62
     7
100
AcDbLine
 10
215.5199732097
 20
195.4647331382
 30
0.0
 11
215.4754332037
 21
196.9079990601
 31
0.0
  0
LINE
  5
E8
330
40
100
AcDbEntity
  8
1-1MA
  6
Continuous
 62
     7
100
AcDbLine
 10
216.7030681534
 20
197.6682047978
 30
0.0
 11
217.9752431091
 21
196.9851446136
 31
0.0
  0
ARC
  5
E9
330
40
100
AcDbEntity
  8
1-1MA
  6
Continuous
 62
     7
100
AcDbCircle
 10
228.3697388284
 20
176.5178911126
 30
0.0
 40
4.229662000000094
100
AcDbArc
 50
280.6615899765
 51
319.3384100235
  0
ARC
  5
EA
330
40
100
AcDbEntity
  8
1-1MA
  6
Continuous
 62
     7
100
AcDbCircle
 10
228.4918694973
 20
176.3063545889
 30
0.0
 40
3.999999999999998
100
AcDbArc
 50
320.4971015549
 51
279.5028984451
  0
CIRCLE
  5
EB
330
40
100
AcDbEntity
  8
1-1MA
  6
Continuous
 62
     7
100
AcDbCircle
 10
228.4918694973
 20
176.3063545889
 30
0.0
 40
1.45375
  0
LINE
  5
EC
330
40
100
AcDbEntity
  8
1-1MA
  6
Continuous
 62
     7
100
AcDbLine
 10
227.2642345476
 20
175.5461488512
 30
0.0
 11
227.2196945415
 21
176.9894147731
 31
0.0
  0
LINE
  5
ED
330
40
100
AcDbEntity
  8
1-1MA
  6
Continuous
 62
     7
100
AcDbLine
 10
228.4473294912
 20
177.7496205108
 30
0.0
 11
229.719504447
 21
177.0665603266
 31
0.0
  0
LINE
  5
EE
330
40
100
AcDbEntity
  8
1-1MA
  6
Continuous
 62
     7
100
AcDbLine
 10
229.719504447
 20
177.0665603266
 30
0.0
 11
229.7640444531
 21
175.6232944047
 31
0.0
  0
LINE
  5
EF
330
40
100
AcDbEntity
  8
1-1MA
  6
Continuous
 62
     7
100
AcDbLine
 10
229.7640444531
 20
175.6232944047
 30
0.0
 11
228.5364095034
 21
174.863088667
 31
0.0
  0
LINE
  5
F0
330
40
100
AcDbEntity
  8
1-1MA
  6
Continuous
 62
     7
100
AcDbLine
 10
228.5364095034
 20
174.863088667
 30
0.0
 11
227.2642345476
 21
175.5461488512
 31
0.0
  0
LINE
  5
F1
330
40
100
AcDbEntity
  8
1-1MA
  6
Continuous
 62
     7
100
AcDbLine
 10
227.2196945415
 20
176.9894147731
 30
0.0
 11
228.4473294912
 21
177.7496205108
 31
0.0
  0
ARC
  5
F2
330
40
100
AcDbEntity
  8
1-1MA
  6
Continuous
 62
     7
100
AcDbCircle
 10
286.1140001662
 20
215.4364753997
 30
0.0
 40
1.000000000000001
100
AcDbArc
 50
0.0
 51
90.0
  0
ARC
  5
F3
330
40
100
AcDbEntity
  8
1-1MA
  6
Continuous
 62
     7
100
AcDbCircle
 10
286.1140001662
 20
202.4364753997
 30
0.0
 40
1.000000000000001
100
AcDbArc
 50
270.0
 51
0.0
  0
LINE
  5
F4
330
40
100
AcDbEntity
  8
1-1MA
  6
Continuous
 62
     7
100
AcDbLine
 10
234.6140001662
 20
269.4364753997
 30
0.0
 11
234.6140001662
 21
267.4364753997
 31
0.0
  0
LINE
  5
F5
330
40
100
AcDbEntity
  8
1-1MA
  6
Continuous
 62
     7
100
AcDbLine
 10
245.6140001662
 20
267.4364753997
 30
0.0
 11
245.6140001662
 21
269.4364753997
 31
0.0
  0
LINE
  5
F6
330
40
100
AcDbEntity
  8
1-1MA
  6
Continuous
 62
     7
100
AcDbLine
 10
231.5955111662
 20
277.9364753997
 30
0.0
 11
231.5955111662
 21
269.4364753997
 31
0.0
  0
LINE
  5
F7
330
40
100
AcDbEntity
  8
1-1MA
  6
Continuous
 62
     7
100
AcDbLine
 10
248.5955111662
 20
269.4364753997
 30
0.0
 11
248.5955111662
 21
277.9364753997
 31
0.0
  0
ARC
  5
F8
330
40
100
AcDbEntity
  8
1-1MA
  6
Continuous
 62
     7
100
AcDbCircle
 10
233.0955111662
 20
277.9364753997
 30
0.0
 40
1.500000000000001
100
AcDbArc
 50
90.0
 51
180.0
  0
ARC
  5
F9
330
40
100
AcDbEntity
  8
1-1MA
  6
Continuous
 62
     7
100
AcDbCircle
 10
247.0955111662
 20
277.9364753997
 30
0.0
 40
1.500000000000001
100
AcDbArc
 50
0.0
 51
90.0
  0
ENDBLK
  5
FB
330
40
100
AcDbEntity
  8
0
100
AcDbBlockEnd
  0
BLOCK
  5
157
330
FC
100
AcDbEntity
  8
0
100
AcDbBlockBegin
  2
SE1
 70
     0
 10
0.0
 20
0.0
 30
0.0
  3
SE1
  1

  0
LINE
  5
FE
330
FC
100
AcDbEntity
  8
1-1MA
  6
Continuous
 62
     7
100
AcDbLine
 10
202.1140001662
 20
308.6290777242
 30
0.0
 11
270.1140001662
 21
308.6290777242
 31
0.0
  0
CIRCLE
  5
FF
330
FC
100
AcDbEntity
  8
1-1MA
  6
Continuous
 62
     7
100
AcDbCircle
 10
254.1140001662
 20
385.1290777242
 30
0.0
 40
2.1
  0
CIRCLE
  5
100
330
FC
100
AcDbEntity
  8
1-1MA
  6
Continuous
 62
     7
100
AcDbCircle
 10
254.1140001662
 20
385.1290777242
 30
0.0
 40
2.96602540378444
  0
CIRCLE
  5
101
330
FC
100
AcDbEntity
  8
1-1MA
  6
Continuous
 62
     7
100
AcDbCircle
 10
216.1140001662
 20
385.1290777242
 30
0.0
 40
2.1
  0
CIRCLE
  5
102
330
FC
100
AcDbEntity
  8
1-1MA
  6
Continuous
 62
     7
100
AcDbCircle
 10
216.1140001662
 20
385.1290777242
 30
0.0
 40
2.96602540378444
  0
CIRCLE
  5
103
330
FC
100
AcDbEntity
  8
1-1MA
  6
Continuous
 62
     7
100
AcDbCircle
 10
216.1140001662
 20
317.1290777242
 30
0.0
 40
2.1
  0
CIRCLE
  5
104
330
FC
100
AcDbEntity
  8
1-1MA
  6
Continuous
 62
     7
100
AcDbCircle
 10
216.1140001662
 20
317.1290777242
 30
0.0
 40
2.96602540378444
  0
CIRCLE
  5
105
330
FC
100
AcDbEntity
  8
1-1MA
  6
Continuous
 62
     7
100
AcDbCircle
 10
254.1140001662
 20
317.1290777242
 30
0.0
 40
2.1
  0
CIRCLE
  5
106
330
FC
100
AcDbEntity
  8
1-1MA
  6
Continuous
 62
     7
100
AcDbCircle
 10
254.1140001662
 20
317.1290777242
 30
0.0
 40
2.96602540378444
  0
LINE
  5
107
330
FC
100
AcDbEntity
  8
1-1MA
  6
Continuous
 62
     7
100
AcDbLine
 10
270.1140001662
 20
310.6290777242
 30
0.0
 11
202.1140001662
 21
310.6290777242
 31
0.0
  0
LINE
  5
108
330
FC
100
AcDbEntity
  8
1-1MA
  6
Continuous
 62
     7
100
AcDbLine
 10
201.1140001662
 20
309.6290777242
 30
0.0
 11
202.1140001662
 21
310.6290777242
 31
0.0
  0
LINE
  5
109
330
FC
100
AcDbEntity
  8
1-1MA
  6
Continuous
 62
     7
100
AcDbLine
 10
202.1140001662
 20
308.6290777242
 30
0.0
 11
201.1140001662
 21
309.6290777242
 31
0.0
  0
LINE
  5
10A
330
FC
100
AcDbEntity
  8
1-1MA
  6
Continuous
 62
     7
100
AcDbLine
 10
270.1140001662
 20
310.6290777242
 30
0.0
 11
270.1140001662
 21
308.6290777242
 31
0.0
  0
LINE
  5
10B
330
FC
100
AcDbEntity
  8
1-1MA
  6
Continuous
 62
     7
100
AcDbLine
 10
270.1140001662
 20
391.6290777242
 30
0.0
 11
202.1140001662
 21
391.6290777242
 31
0.0
  0
LINE
  5
10C
330
FC
100
AcDbEntity
  8
1-1MA
  6
Continuous
 62
     7
100
AcDbLine
 10
270.1140001662
 20
391.6290777242
 30
0.0
 11
270.1140001662
 21
393.6290777242
 31
0.0
  0
LINE
  5
10D
330
FC
100
AcDbEntity
  8
1-1MA
  6
Continuous
 62
     7
100
AcDbLine
 10
202.1140001662
 20
393.6290777242
 30
0.0
 11
270.1140001662
 21
393.6290777242
 31
0.0
  0
LINE
  5
10E
330
FC
100
AcDbEntity
  8
1-1MA
  6
Continuous
 62
     7
100
AcDbLine
 10
201.1140001662
 20
392.6290777242
 30
0.0
 11
202.1140001662
 21
393.6290777242
 31
0.0
  0
LINE
  5
10F
330
FC
100
AcDbEntity
  8
1-1MA
  6
Continuous
 62
     7
100
AcDbLine
 10
202.1140001662
 20
391.6290777242
 30
0.0
 11
201.1140001662
 21
392.6290777242
 31
0.0
  0
LINE
  5
110
330
FC
100
AcDbEntity
  8
1-1MA
  6
Continuous
 62
     7
100
AcDbLine
 10
201.1140001662
 20
329.9290777242
 30
0.0
 11
201.1140001662
 21
372.3290777242
 31
0.0
  0
LINE
  5
111
330
FC
100
AcDbEntity
  8
1-1MA
  6
Continuous
 62
     7
100
AcDbLine
 10
201.1140001662
 20
329.9290777242
 30
0.0
 11
270.1140001662
 21
329.9290777242
 31
0.0
  0
LINE
  5
112
330
FC
100
AcDbEntity
  8
1-1MA
  6
Continuous
 62
     7
100
AcDbLine
 10
270.1140001662
 20
329.9290777242
 30
0.0
 11
270.1140001662
 21
372.3290777242
 31
0.0
  0
LINE
  5
113
330
FC
100
AcDbEntity
  8
1-1MA
  6
Continuous
 62
     7
100
AcDbLine
 10
201.1140001662
 20
372.3290777242
 30
0.0
 11
270.1140001662
 21
372.3290777242
 31
0.0
  0
CIRCLE
  5
114
330
FC
100
AcDbEntity
  8
1-1MA
  6
Continuous
 62
     7
100
AcDbCircle
 10
218.1140001662
 20
351.1290777242
 30
0.0
 40
11.0
  0
LINE
  5
115
330
FC
100
AcDbEntity
  8
1-1MA
  6
Continuous
 62
     7
100
AcDbLine
 10
202.1140001662
 20
328.9290777242
 30
0.0
 11
270.1140001662
 21
328.9290777242
 31
0.0
  0
LINE
  5
116
330
FC
100
AcDbEntity
  8
1-1MA
  6
Continuous
 62
     7
100
AcDbLine
 10
202.1140001662
 20
328.9290777242
 30
0.0
 11
202.1140001662
 21
310.6290777242
 31
0.0
  0
LINE
  5
117
330
FC
100
AcDbEntity
  8
1-1MA
  6
Continuous
 62
     7
100
AcDbLine
 10
270.1140001662
 20
328.9290777242
 30
0.0
 11
270.1140001662
 21
310.6290777242
 31
0.0
  0
LINE
  5
118
330
FC
100
AcDbEntity
  8
1-1MA
  6
Continuous
 62
     7
100
AcDbLine
 10
270.1140001662
 20
328.9290777242
 30
0.0
 11
270.1140001662
 21
329.9290777242
 31
0.0
  0
LINE
  5
119
330
FC
100
AcDbEntity
  8
1-1MA
  6
Continuous
 62
     7
100
AcDbLine
 10
202.1140001662
 20
328.9290777242
 30
0.0
 11
201.1140001662
 21
329.9290777242
 31
0.0
  0
LINE
  5
11A
330
FC
100
AcDbEntity
  8
1-1MA
  6
Continuous
 62
     7
100
AcDbLine
 10
202.1140001662
 20
391.6290777242
 30
0.0
 11
202.1140001662
 21
373.3290777242
 31
0.0
  0
LINE
  5
11B
330
FC
100
AcDbEntity
  8
1-1MA
  6
Continuous
 62
     7
100
AcDbLine
 10
270.1140001662
 20
373.3290777242
 30
0.0
 11
202.1140001662
 21
373.3290777242
 31
0.0
  0
LINE
  5
11C
330
FC
100
AcDbEntity
  8
1-1MA
  6
Continuous
 62
     7
100
AcDbLine
 10
270.1140001662
 20
391.6290777242
 30
0.0
 11
270.1140001662
 21
373.3290777242
 31
0.0
  0
LINE
  5
11D
330
FC
100
AcDbEntity
  8
1-1MA
  6
Continuous
 62
     7
100
AcDbLine
 10
201.1140001662
 20
372.3290777242
 30
0.0
 11
202.1140001662
 21
373.3290777242
 31
0.0
  0
LINE
  5
11E
330
FC
100
AcDbEntity
  8
1-1MA
  6
Continuous
 62
     7
100
AcDbLine
 10
270.1140001662
 20
372.3290777242
 30
0.0
 11
270.1140001662
 21
373.3290777242
 31
0.0
  0
LINE
  5
11F
330
FC
100
AcDbEntity
  8
1-1MA
  6
Continuous
 62
     7
100
AcDbLine
 10
200.1140001662
 20
391.6290777242
 30
0.0
 11
200.1140001662
 21
310.6290777242
 31
0.0
  0
LINE
  5
120
330
FC
100
AcDbEntity
  8
1-1MA
  6
Continuous
 62
     7
100
AcDbLine
 10
201.1140001662
 20
392.6290777242
 30
0.0
 11
200.1140001662
 21
391.6290777242
 31
0.0
  0
LINE
  5
121
330
FC
100
AcDbEntity
  8
1-1MA
  6
Continuous
 62
     7
100
AcDbLine
 10
200.1140001662
 20
310.6290777242
 30
0.0
 11
201.1140001662
 21
309.6290777242
 31
0.0
  0
LINE
  5
122
330
FC
100
AcDbEntity
  8
1-1MA
  6
Continuous
 62
     7
100
AcDbLine
 10
270.1140001662
 20
390.62786012
 30
0.0
 11
283.1152185122
 21
390.173847571
 31
0.0
  0
LINE
  5
123
330
FC
100
AcDbEntity
  8
1-1MA
  6
Continuous
 62
     7
100
AcDbLine
 10
284.1152177705
 20
391.1395356295
 30
0.0
 11
283.1152185122
 21
392.1750651752
 31
0.0
  0
LINE
  5
124
330
FC
100
AcDbEntity
  8
1-1MA
  6
Continuous
 62
     7
100
AcDbLine
 10
283.1152185122
 20
392.1750651752
 30
0.0
 11
270.1140001662
 21
392.6290777242
 31
0.0
  0
LINE
  5
125
330
FC
100
AcDbEntity
  8
1-1MA
  6
Continuous
 62
     7
100
AcDbLine
 10
283.1152185122
 20
310.0830902732
 30
0.0
 11
270.1140001662
 21
309.6290777242
 31
0.0
  0
LINE
  5
126
330
FC
100
AcDbEntity
  8
1-1MA
  6
Continuous
 62
     7
100
AcDbLine
 10
270.1140001662
 20
311.6302953284
 30
0.0
 11
283.1152185122
 21
312.0843078774
 31
0.0
  0
LINE
  5
127
330
FC
100
AcDbEntity
  8
1-1MA
  6
Continuous
 62
     7
100
AcDbLine
 10
284.1140001662
 20
329.6290777242
 30
0.0
 11
285.1140001662
 21
328.6290777242
 31
0.0
  0
LINE
  5
128
330
FC
100
AcDbEntity
  8
1-1MA
  6
Continuous
 62
     7
100
AcDbLine
 10
284.1152177705
 20
391.1395356295
 30
0.0
 11
285.1140001662
 21
390.1052661818
 31
0.0
  0
LINE
  5
129
330
FC
100
AcDbEntity
  8
1-1MA
  6
Continuous
 62
     7
100
AcDbLine
 10
284.1152177705
 20
311.1186198189
 30
0.0
 11
283.1152185122
 21
310.0830902732
 31
0.0
  0
LINE
  5
12A
330
FC
100
AcDbEntity
  8
1-1MA
  6
Continuous
 62
     7
100
AcDbLine
 10
285.1140001662
 20
328.6290777242
 30
0.0
 11
285.1140001662
 21
312.1528892666
 31
0.0
  0
LINE
  5
12B
330
FC
100
AcDbEntity
  8
1-1MA
  6
Continuous
 62
     7
100
AcDbLine
 10
285.1140001662
 20
373.6290777242
 30
0.0
 11
285.1140001662
 21
390.1052661818
 31
0.0
  0
LINE
  5
12C
330
FC
100
AcDbEntity
  8
1-1MA
  6
Continuous
 62
     7
100
AcDbLine
 10
284.1152177705
 20
391.1395356295
 30
0.0
 11
283.1152185122
 21
390.173847571
 31
0.0
  0
LINE
  5
12D
330
FC
100
AcDbEntity
  8
1-1MA
  6
Continuous
 62
     7
100
AcDbLine
 10
283.1152185122
 20
390.173847571
 30
0.0
 11
283.1152185122
 21
312.0843078774
 31
0.0
  0
LINE
  5
12E
330
FC
100
AcDbEntity
  8
1-1MA
  6
Continuous
 62
     7
100
AcDbLine
 10
283.1152185122
 20
312.0843078774
 30
0.0
 11
284.1152177705
 21
311.1186198189
 31
0.0
  0
LINE
  5
12F
330
FC
100
AcDbEntity
  8
1-1MA
  6
Continuous
 62
     7
100
AcDbLine
 10
284.1152177705
 20
311.1186198189
 30
0.0
 11
285.1140001662
 21
312.1528892666
 31
0.0
  0
LINE
  5
130
330
FC
100
AcDbEntity
  8
1-1MA
  6
Continuous
 62
     7
100
AcDbLine
 10
284.1140001662
 20
329.6290777242
 30
0.0
 11
284.1140001662
 21
372.6290777242
 31
0.0
  0
LINE
  5
131
330
FC
100
AcDbEntity
  8
1-1MA
  6
Continuous
 62
     7
100
AcDbLine
 10
284.1140001662
 20
372.6290777242
 30
0.0
 11
285.1140001662
 21
373.6290777242
 31
0.0
  0
LINE
  5
132
330
FC
100
AcDbEntity
  8
1-1MA
  6
Continuous
 62
     7
100
AcDbLine
 10
284.1140001662
 20
341.314123148
 30
0.0
 11
285.6140001662
 21
341.314123148
 31
0.0
  0
LINE
  5
133
330
FC
100
AcDbEntity
  8
1-1MA
  6
Continuous
 62
     7
100
AcDbLine
 10
285.6140001662
 20
341.314123148
 30
0.0
 11
285.6140001662
 21
346.2216004361
 31
0.0
  0
LINE
  5
134
330
FC
100
AcDbEntity
  8
1-1MA
  6
Continuous
 62
     7
100
AcDbLine
 10
284.1140001662
 20
360.9440323004
 30
0.0
 11
285.6140001662
 21
360.9440323004
 31
0.0
  0
LINE
  5
135
330
FC
100
AcDbEntity
  8
1-1MA
  6
Continuous
 62
     7
100
AcDbLine
 10
284.1140001662
 20
356.0365550123
 30
0.0
 11
285.6140001662
 21
356.0365550123
 31
0.0
  0
LINE
  5
136
330
FC
100
AcDbEntity
  8
1-1MA
  6
Continuous
 62
     7
100
AcDbLine
 10
285.6140001662
 20
356.0365550123
 30
0.0
 11
285.6140001662
 21
360.9440323004
 31
0.0
  0
LINE
  5
137
330
FC
100
AcDbEntity
  8
1-1MA
  6
Continuous
 62
     7
100
AcDbLine
 10
284.1140001662
 20
346.2216004361
 30
0.0
 11
285.6140001662
 21
346.2216004361
 31
0.0
  0
LINE
  5
138
330
FC
100
AcDbEntity
  8
1-1MA
  6
Continuous
 62
     7
100
AcDbLine
 10
285.6140001662
 20
346.2216004361
 30
0.0
 11
285.6140001662
 21
356.0365550123
 31
0.0
  0
LINE
  5
139
330
FC
100
AcDbEntity
  8
1-1MA
  6
Continuous
 62
     7
100
AcDbLine
 10
286.1140001662
 20
360.3666820312
 30
0.0
 11
286.1140001662
 21
355.7478798777
 31
0.0
  0
LINE
  5
13A
330
FC
100
AcDbEntity
  8
1-1MA
  6
Continuous
 62
     7
100
AcDbLine
 10
286.1140001662
 20
355.7478798777
 30
0.0
 11
286.1140001662
 21
346.5102755707
 31
0.0
  0
LINE
  5
13B
330
FC
100
AcDbEntity
  8
1-1MA
  6
Continuous
 62
     7
100
AcDbLine
 10
286.1140001662
 20
346.5102755707
 30
0.0
 11
286.1140001662
 21
341.8914734172
 31
0.0
  0
LINE
  5
13C
330
FC
100
AcDbEntity
  8
1-1MA
  6
Continuous
 62
     7
100
AcDbLine
 10
287.1140001662
 20
344.6290777242
 30
0.0
 11
287.1140001662
 21
357.6290777242
 31
0.0
  0
LINE
  5
13D
330
FC
100
AcDbEntity
  8
1-1MA
  6
Continuous
 62
     7
100
AcDbLine
 10
286.1140001662
 20
346.5102755707
 30
0.0
 11
285.6140001662
 21
346.2216004361
 31
0.0
  0
LINE
  5
13E
330
FC
100
AcDbEntity
  8
1-1MA
  6
Continuous
 62
     7
100
AcDbLine
 10
285.6140001662
 20
341.314123148
 30
0.0
 11
286.1140001662
 21
341.8914734172
 31
0.0
  0
LINE
  5
13F
330
FC
100
AcDbEntity
  8
1-1MA
  6
Continuous
 62
     7
100
AcDbLine
 10
286.1140001662
 20
355.7478798777
 30
0.0
 11
285.6140001662
 21
356.0365550123
 31
0.0
  0
LINE
  5
140
330
FC
100
AcDbEntity
  8
1-1MA
  6
Continuous
 62
     7
100
AcDbLine
 10
285.6140001662
 20
360.9440323004
 30
0.0
 11
286.1140001662
 21
360.3666820312
 31
0.0
  0
CIRCLE
  5
141
330
FC
100
AcDbEntity
  8
1-1MA
  6
Continuous
 62
     7
100
AcDbCircle
 10
218.1140001662
 20
351.1290777242
 30
0.0
 40
8.55
  0
CIRCLE
  5
142
330
FC
100
AcDbEntity
  8
1-1MA
  6
Continuous
 62
     7
100
AcDbCircle
 10
218.1140001662
 20
351.1290777242
 30
0.0
 40
9.5
  0
LINE
  5
143
330
FC
100
AcDbEntity
  8
1-1MA
  6
Continuous
 62
     7
100
AcDbLine
 10
218.1140001662
 20
347.3763009745
 30
0.0
 11
221.3640001662
 21
349.2526893493
 31
0.0
  0
LINE
  5
144
330
FC
100
AcDbEntity
  8
1-1MA
  6
Continuous
 62
     7
100
AcDbLine
 10
221.1140001662
 20
349.3970269166
 30
0.0
 11
218.1140001662
 21
347.6649761091
 31
0.0
  0
LINE
  5
145
330
FC
100
AcDbEntity
  8
1-1MA
  6
Continuous
 62
     7
100
AcDbLine
 10
221.3640001662
 20
349.2526893493
 30
0.0
 11
221.3640001662
 21
353.0054660991
 31
0.0
  0
LINE
  5
146
330
FC
100
AcDbEntity
  8
1-1MA
  6
Continuous
 62
     7
100
AcDbLine
 10
221.1140001662
 20
352.8611285318
 30
0.0
 11
221.1140001662
 21
349.3970269166
 31
0.0
  0
LINE
  5
147
330
FC
100
AcDbEntity
  8
1-1MA
  6
Continuous
 62
     7
100
AcDbLine
 10
221.1140001662
 20
349.3970269166
 30
0.0
 11
221.3640001662
 21
349.2526893493
 31
0.0
  0
LINE
  5
148
330
FC
100
AcDbEntity
  8
1-1MA
  6
Continuous
 62
     7
100
AcDbLine
 10
221.3640001662
 20
353.0054660991
 30
0.0
 11
218.1140001662
 21
354.8818544739
 31
0.0
  0
LINE
  5
149
330
FC
100
AcDbEntity
  8
1-1MA
  6
Continuous
 62
     7
100
AcDbLine
 10
218.1140001662
 20
354.8818544739
 30
0.0
 11
218.1140001662
 21
354.5931793393
 31
0.0
  0
LINE
  5
14A
330
FC
100
AcDbEntity
  8
1-1MA
  6
Continuous
 62
     7
100
AcDbLine
 10
218.1140001662
 20
354.5931793393
 30
0.0
 11
221.1140001662
 21
352.8611285318
 31
0.0
  0
LINE
  5
14B
330
FC
100
AcDbEntity
  8
1-1MA
  6
Continuous
 62
     7
100
AcDbLine
 10
221.1140001662
 20
352.8611285318
 30
0.0
 11
221.3640001662
 21
353.0054660991
 31
0.0
  0
LINE
  5
14C
330
FC
100
AcDbEntity
  8
1-1MA
  6
Continuous
 62
     7
100
AcDbLine
 10
218.1140001662
 20
354.8818544739
 30
0.0
 11
214.8640001662
 21
353.0054660991
 31
0.0
  0
LINE
  5
14D
330
FC
100
AcDbEntity
  8
1-1MA
  6
Continuous
 62
     7
100
AcDbLine
 10
215.1140001662
 20
352.8611285318
 30
0.0
 11
218.1140001662
 21
354.5931793393
 31
0.0
  0
LINE
  5
14E
330
FC
100
AcDbEntity
  8
1-1MA
  6
Continuous
 62
     7
100
AcDbLine
 10
214.8640001662
 20
353.0054660991
 30
0.0
 11
214.8640001662
 21
349.2526893493
 31
0.0
  0
LINE
  5
14F
330
FC
100
AcDbEntity
  8
1-1MA
  6
Continuous
 62
     7
100
AcDbLine
 10
214.8640001662
 20
349.2526893493
 30
0.0
 11
215.1140001662
 21
349.3970269166
 31
0.0
  0
LINE
  5
150
330
FC
100
AcDbEntity
  8
1-1MA
  6
Continuous
 62
     7
100
AcDbLine
 10
215.1140001662
 20
349.3970269166
 30
0.0
 11
215.1140001662
 21
352.8611285318
 31
0.0
  0
LINE
  5
151
330
FC
100
AcDbEntity
  8
1-1MA
  6
Continuous
 62
     7
100
AcDbLine
 10
215.1140001662
 20
352.8611285318
 30
0.0
 11
214.8640001662
 21
353.0054660991
 31
0.0
  0
LINE
  5
152
330
FC
100
AcDbEntity
  8
1-1MA
  6
Continuous
 62
     7
100
AcDbLine
 10
214.8640001662
 20
349.2526893493
 30
0.0
 11
218.1140001662
 21
347.3763009745
 31
0.0
  0
LINE
  5
153
330
FC
100
AcDbEntity
  8
1-1MA
  6
Continuous
 62
     7
100
AcDbLine
 10
218.1140001662
 20
347.3763009745
 30
0.0
 11
218.1140001662
 21
347.6649761091
 31
0.0
  0
LINE
  5
154
330
FC
100
AcDbEntity
  8
1-1MA
  6
Continuous
 62
     7
100
AcDbLine
 10
218.1140001662
 20
347.6649761091
 30
0.0
 11
215.1140001662
 21
349.3970269166
 31
0.0
  0
ARC
  5
155
330
FC
100
AcDbEntity
  8
1-1MA
  6
Continuous
 62
     7
100
AcDbCircle
 10
286.1140001662
 20
357.6290777242
 30
0.0
 40
1.000000000000001
100
AcDbArc
 50
0.0
 51
90.0
  0
ARC
  5
156
330
FC
100
AcDbEntity
  8
1-1MA
  6
Continuous
 62
     7
100
AcDbCircle
 10
286.1140001662
 20
344.6290777242
 30
0.0
 40
1.0
100
AcDbArc
 50
270.0
 51
0.0
  0
ENDBLK
  5
158
330
FC
100
AcDbEntity
  8
0
100
AcDbBlockEnd
  0
BLOCK
  5
1D5
330
159
100
AcDbEntity
  8
0
100
AcDbBlockBegin
  2
SE2
 70
     0
 10
0.0
 20
0.0
 30
0.0
  3
SE2
  1

  0
LINE
  5
15B
330
159
100
AcDbEntity
  8
1-1MA
  6
Continuous
 62
     7
100
AcDbLine
 10
270.1140001662
 20
24.7038484247
 30
0.0
 11
202.1140001662
 21
24.7038484247
 31
0.0
  0
LINE
  5
15C
330
159
100
AcDbEntity
  8
1-1MA
  6
Continuous
 62
     7
100
AcDbLine
 10
270.1140001662
 20
42.7038484247
 30
0.0
 11
270.1140001662
 21
24.7038484247
 31
0.0
  0
LINE
  5
15D
330
159
100
AcDbEntity
  8
1-1MA
  6
Continuous
 62
     7
100
AcDbLine
 10
202.1140001662
 20
42.7038484247
 30
0.0
 11
270.1140001662
 21
42.7038484247
 31
0.0
  0
LINE
  5
15E
330
159
100
AcDbEntity
  8
1-1MA
  6
Continuous
 62
     7
100
AcDbLine
 10
202.1140001662
 20
42.7038484247
 30
0.0
 11
202.1140001662
 21
24.7038484247
 31
0.0
  0
CIRCLE
  5
15F
330
159
100
AcDbEntity
  8
1-1MA
  6
Continuous
 62
     7
100
AcDbCircle
 10
216.1140001662
 20
31.2038484247
 30
0.0
 40
2.96602540378444
  0
CIRCLE
  5
160
330
159
100
AcDbEntity
  8
1-1MA
  6
Continuous
 62
     7
100
AcDbCircle
 10
254.1140001662
 20
31.2038484247
 30
0.0
 40
2.96602540378445
  0
LINE
  5
161
330
159
100
AcDbEntity
  8
1-1MA
  6
Continuous
 62
     7
100
AcDbLine
 10
202.1140001662
 20
22.7038484247
 30
0.0
 11
270.1140001662
 21
22.7038484247
 31
0.0
  0
CIRCLE
  5
162
330
159
100
AcDbEntity
  8
1-1MA
  6
Continuous
 62
     7
100
AcDbCircle
 10
254.1140001662
 20
99.2038484247
 30
0.0
 40
2.1
  0
CIRCLE
  5
163
330
159
100
AcDbEntity
  8
1-1MA
  6
Continuous
 62
     7
100
AcDbCircle
 10
254.1140001662
 20
99.2038484247
 30
0.0
 40
2.96602540378444
  0
CIRCLE
  5
164
330
159
100
AcDbEntity
  8
1-1MA
  6
Continuous
 62
     7
100
AcDbCircle
 10
216.1140001662
 20
99.2038484247
 30
0.0
 40
2.1
  0
CIRCLE
  5
165
330
159
100
AcDbEntity
  8
1-1MA
  6
Continuous
 62
     7
100
AcDbCircle
 10
216.1140001662
 20
99.2038484247
 30
0.0
 40
2.96602540378444
  0
CIRCLE
  5
166
330
159
100
AcDbEntity
  8
1-1MA
  6
Continuous
 62
     7
100
AcDbCircle
 10
254.1140001662
 20
31.2038484247
 30
0.0
 40
2.1
  0
CIRCLE
  5
167
330
159
100
AcDbEntity
  8
1-1MA
  6
Continuous
 62
     7
100
AcDbCircle
 10
216.1140001662
 20
31.2038484247
 30
0.0
 40
2.1
  0
LINE
  5
168
330
159
100
AcDbEntity
  8
1-1MA
  6
Continuous
 62
     7
100
AcDbLine
 10
270.1140001662
 20
107.7038484247
 30
0.0
 11
202.1140001662
 21
107.7038484247
 31
0.0
  0
LINE
  5
169
330
159
100
AcDbEntity
  8
1-1MA
  6
Continuous
 62
     7
100
AcDbLine
 10
201.1140001662
 20
106.7038484247
 30
0.0
 11
202.1140001662
 21
107.7038484247
 31
0.0
  0
LINE
  5
16A
330
159
100
AcDbEntity
  8
1-1MA
  6
Continuous
 62
     7
100
AcDbLine
 10
202.1140001662
 20
105.7038484247
 30
0.0
 11
201.1140001662
 21
106.7038484247
 31
0.0
  0
LINE
  5
16B
330
159
100
AcDbEntity
  8
1-1MA
  6
Continuous
 62
     7
100
AcDbLine
 10
202.1140001662
 20
105.7038484247
 30
0.0
 11
270.1140001662
 21
105.7038484247
 31
0.0
  0
LINE
  5
16C
330
159
100
AcDbEntity
  8
1-1MA
  6
Continuous
 62
     7
100
AcDbLine
 10
270.1140001662
 20
107.7038484247
 30
0.0
 11
270.1140001662
 21
105.7038484247
 31
0.0
  0
LINE
  5
16D
330
159
100
AcDbEntity
  8
1-1MA
  6
Continuous
 62
     7
100
AcDbLine
 10
201.1140001662
 20
23.7038484247
 30
0.0
 11
202.1140001662
 21
24.7038484247
 31
0.0
  0
LINE
  5
16E
330
159
100
AcDbEntity
  8
1-1MA
  6
Continuous
 62
     7
100
AcDbLine
 10
202.1140001662
 20
22.7038484247
 30
0.0
 11
201.1140001662
 21
23.7038484247
 31
0.0
  0
LINE
  5
16F
330
159
100
AcDbEntity
  8
1-1MA
  6
Continuous
 62
     7
100
AcDbLine
 10
270.1140001662
 20
24.7038484247
 30
0.0
 11
270.1140001662
 21
22.7038484247
 31
0.0
  0
LINE
  5
170
330
159
100
AcDbEntity
  8
1-1MA
  6
Continuous
 62
     7
100
AcDbLine
 10
270.1140001662
 20
87.7038484247
 30
0.0
 11
202.1140001662
 21
87.7038484247
 31
0.0
  0
LINE
  5
171
330
159
100
AcDbEntity
  8
1-1MA
  6
Continuous
 62
     7
100
AcDbLine
 10
270.1140001662
 20
105.7038484247
 30
0.0
 11
270.1140001662
 21
87.7038484247
 31
0.0
  0
LINE
  5
172
330
159
100
AcDbEntity
  8
1-1MA
  6
Continuous
 62
     7
100
AcDbLine
 10
202.1140001662
 20
105.7038484247
 30
0.0
 11
202.1140001662
 21
87.7038484247
 31
0.0
  0
LINE
  5
173
330
159
100
AcDbEntity
  8
1-1MA
  6
Continuous
 62
     7
100
AcDbLine
 10
200.1140001662
 20
105.7038484247
 30
0.0
 11
200.1140001662
 21
24.7038484247
 31
0.0
  0
LINE
  5
174
330
159
100
AcDbEntity
  8
1-1MA
  6
Continuous
 62
     7
100
AcDbLine
 10
240.1140001662
 20
54.2038484247
 30
0.0
 11
270.1140001662
 21
54.2038484247
 31
0.0
  0
ARC
  5
175
330
159
100
AcDbEntity
  8
1-1MA
  6
Continuous
 62
     7
100
AcDbCircle
 10
240.1140001662
 20
65.2038484247
 30
0.0
 40
11.0
100
AcDbArc
 50
90.0
 51
270.0
  0
LINE
  5
176
330
159
100
AcDbEntity
  8
1-1MA
  6
Continuous
 62
     7
100
AcDbLine
 10
270.1140001662
 20
76.2038484247
 30
0.0
 11
240.1140001662
 21
76.2038484247
 31
0.0
  0
LINE
  5
177
330
159
100
AcDbEntity
  8
1-1MA
  6
Continuous
 62
     7
100
AcDbLine
 10
270.1140001662
 20
86.7038484247
 30
0.0
 11
270.1140001662
 21
87.7038484247
 31
0.0
  0
LINE
  5
178
330
159
100
AcDbEntity
  8
1-1MA
  6
Continuous
 62
     7
100
AcDbLine
 10
270.1140001662
 20
76.2038484247
 30
0.0
 11
270.1140001662
 21
86.7038484247
 31
0.0
  0
LINE
  5
179
330
159
100
AcDbEntity
  8
1-1MA
  6
Continuous
 62
     7
100
AcDbLine
 10
270.1140001662
 20
43.7038484247
 30
0.0
 11
270.1140001662
 21
54.2038484247
 31
0.0
  0
LINE
  5
17A
330
159
100
AcDbEntity
  8
1-1MA
  6
Continuous
 62
     7
100
AcDbLine
 10
270.1140001662
 20
42.7038484247
 30
0.0
 11
270.1140001662
 21
43.7038484247
 31
0.0
  0
LINE
  5
17B
330
159
100
AcDbEntity
  8
1-1MA
  6
Continuous
 62
     7
100
AcDbLine
 10
201.1140001662
 20
23.7038484247
 30
0.0
 11
200.1140001662
 21
24.7038484247
 31
0.0
  0
LINE
  5
17C
330
159
100
AcDbEntity
  8
1-1MA
  6
Continuous
 62
     7
100
AcDbLine
 10
202.1140001662
 20
42.7038484247
 30
0.0
 11
201.1140001662
 21
43.7038484247
 31
0.0
  0
LINE
  5
17D
330
159
100
AcDbEntity
  8
1-1MA
  6
Continuous
 62
     7
100
AcDbLine
 10
201.1140001662
 20
43.7038484247
 30
0.0
 11
201.1140001662
 21
86.7038484247
 31
0.0
  0
LINE
  5
17E
330
159
100
AcDbEntity
  8
1-1MA
  6
Continuous
 62
     7
100
AcDbLine
 10
201.1140001662
 20
86.7038484247
 30
0.0
 11
202.1140001662
 21
87.7038484247
 31
0.0
  0
LINE
  5
17F
330
159
100
AcDbEntity
  8
1-1MA
  6
Continuous
 62
     7
100
AcDbLine
 10
201.1140001662
 20
106.7038484247
 30
0.0
 11
200.1140001662
 21
105.7038484247
 31
0.0
  0
LINE
  5
180
330
159
100
AcDbEntity
  8
1-1MA
  6
Continuous
 62
     7
100
AcDbLine
 10
201.1140001662
 20
86.7038484247
 30
0.0
 11
270.1140001662
 21
86.7038484247
 31
0.0
  0
LINE
  5
181
330
159
100
AcDbEntity
  8
1-1MA
  6
Continuous
 62
     7
100
AcDbLine
 10
201.1140001662
 20
43.7038484247
 30
0.0
 11
270.1140001662
 21
43.7038484247
 31
0.0
  0
LINE
  5
182
330
159
100
AcDbEntity
  8
1-1MA
  6
Continuous
 62
     7
100
AcDbLine
 10
284.1152177705
 20
105.21430633
 30
0.0
 11
283.1152185122
 21
106.2498358757
 31
0.0
  0
LINE
  5
183
330
159
100
AcDbEntity
  8
1-1MA
  6
Continuous
 62
     7
100
AcDbLine
 10
283.1152185122
 20
24.1578609737
 30
0.0
 11
270.1140001662
 21
23.7038484247
 31
0.0
  0
LINE
  5
184
330
159
100
AcDbEntity
  8
1-1MA
  6
Continuous
 62
     7
100
AcDbLine
 10
270.1140001662
 20
106.7038484247
 30
0.0
 11
283.1152185122
 21
106.2498358757
 31
0.0
  0
LINE
  5
185
330
159
100
AcDbEntity
  8
1-1MA
  6
Continuous
 62
     7
100
AcDbLine
 10
284.1152177705
 20
25.1933905194
 30
0.0
 11
283.1152185122
 21
26.1590785779
 31
0.0
  0
LINE
  5
186
330
159
100
AcDbEntity
  8
1-1MA
  6
Continuous
 62
     7
100
AcDbLine
 10
283.1152185122
 20
104.2486182715
 30
0.0
 11
270.1140001662
 21
104.7026308205
 31
0.0
  0
LINE
  5
187
330
159
100
AcDbEntity
  8
1-1MA
  6
Continuous
 62
     7
100
AcDbLine
 10
270.1140001662
 20
76.2038484247
 30
0.0
 11
270.1140001662
 21
54.2038484247
 31
0.0
  0
LINE
  5
188
330
159
100
AcDbEntity
  8
1-1MA
  6
Continuous
 62
     7
100
AcDbLine
 10
270.1140001662
 20
25.7050660289
 30
0.0
 11
283.1152185122
 21
26.1590785779
 31
0.0
  0
LINE
  5
189
330
159
100
AcDbEntity
  8
1-1MA
  6
Continuous
 62
     7
100
AcDbLine
 10
285.1140001662
 20
87.7038484247
 30
0.0
 11
284.1140001662
 21
86.7038484247
 31
0.0
  0
LINE
  5
18A
330
159
100
AcDbEntity
  8
1-1MA
  6
Continuous
 62
     7
100
AcDbLine
 10
285.1140001662
 20
26.2276599671
 30
0.0
 11
284.1152177705
 21
25.1933905194
 31
0.0
  0
LINE
  5
18B
330
159
100
AcDbEntity
  8
1-1MA
  6
Continuous
 62
     7
100
AcDbLine
 10
284.1152177705
 20
25.1933905194
 30
0.0
 11
283.1152185122
 21
24.1578609737
 31
0.0
  0
LINE
  5
18C
330
159
100
AcDbEntity
  8
1-1MA
  6
Continuous
 62
     7
100
AcDbLine
 10
285.1140001662
 20
26.2276599671
 30
0.0
 11
285.1140001662
 21
42.7038484247
 31
0.0
  0
LINE
  5
18D
330
159
100
AcDbEntity
  8
1-1MA
  6
Continuous
 62
     7
100
AcDbLine
 10
285.1140001662
 20
42.7038484247
 30
0.0
 11
284.1140001662
 21
43.7038484247
 31
0.0
  0
LINE
  5
18E
330
159
100
AcDbEntity
  8
1-1MA
  6
Continuous
 62
     7
100
AcDbLine
 10
284.1140001662
 20
43.7038484247
 30
0.0
 11
284.1140001662
 21
86.7038484247
 31
0.0
  0
LINE
  5
18F
330
159
100
AcDbEntity
  8
1-1MA
  6
Continuous
 62
     7
100
AcDbLine
 10
285.1140001662
 20
87.7038484247
 30
0.0
 11
285.1140001662
 21
104.1800368823
 31
0.0
  0
LINE
  5
190
330
159
100
AcDbEntity
  8
1-1MA
  6
Continuous
 62
     7
100
AcDbLine
 10
285.1140001662
 20
104.1800368823
 30
0.0
 11
284.1152177705
 21
105.21430633
 31
0.0
  0
LINE
  5
191
330
159
100
AcDbEntity
  8
1-1MA
  6
Continuous
 62
     7
100
AcDbLine
 10
284.1152177705
 20
105.21430633
 30
0.0
 11
283.1152185122
 21
104.2486182715
 31
0.0
  0
LINE
  5
192
330
159
100
AcDbEntity
  8
1-1MA
  6
Continuous
 62
     7
100
AcDbLine
 10
283.1152185122
 20
104.2486182715
 30
0.0
 11
283.1152185122
 21
26.1590785779
 31
0.0
  0
LINE
  5
193
330
159
100
AcDbEntity
  8
1-1MA
  6
Continuous
 62
     7
100
AcDbLine
 10
284.1140001662
 20
75.0188030009
 30
0.0
 11
285.6140001662
 21
75.0188030009
 31
0.0
  0
LINE
  5
194
330
159
100
AcDbEntity
  8
1-1MA
  6
Continuous
 62
     7
100
AcDbLine
 10
284.1140001662
 20
70.1113257128
 30
0.0
 11
285.6140001662
 21
70.1113257128
 31
0.0
  0
LINE
  5
195
330
159
100
AcDbEntity
  8
1-1MA
  6
Continuous
 62
     7
100
AcDbLine
 10
285.6140001662
 20
70.1113257128
 30
0.0
 11
285.6140001662
 21
75.0188030009
 31
0.0
  0
LINE
  5
196
330
159
100
AcDbEntity
  8
1-1MA
  6
Continuous
 62
     7
100
AcDbLine
 10
284.1140001662
 20
60.2963711366
 30
0.0
 11
285.6140001662
 21
60.2963711366
 31
0.0
  0
LINE
  5
197
330
159
100
AcDbEntity
  8
1-1MA
  6
Continuous
 62
     7
100
AcDbLine
 10
285.6140001662
 20
60.2963711366
 30
0.0
 11
285.6140001662
 21
70.1113257128
 31
0.0
  0
LINE
  5
198
330
159
100
AcDbEntity
  8
1-1MA
  6
Continuous
 62
     7
100
AcDbLine
 10
284.1140001662
 20
55.3888938485
 30
0.0
 11
285.6140001662
 21
55.3888938485
 31
0.0
  0
LINE
  5
199
330
159
100
AcDbEntity
  8
1-1MA
  6
Continuous
 62
     7
100
AcDbLine
 10
285.6140001662
 20
55.3888938485
 30
0.0
 11
285.6140001662
 21
60.2963711366
 31
0.0
  0
LINE
  5
19A
330
159
100
AcDbEntity
  8
1-1MA
  6
Continuous
 62
     7
100
AcDbLine
 10
286.1140001662
 20
69.8226505782
 30
0.0
 11
286.1140001662
 21
60.5850462712
 31
0.0
  0
LINE
  5
19B
330
159
100
AcDbEntity
  8
1-1MA
  6
Continuous
 62
     7
100
AcDbLine
 10
286.1140001662
 20
60.5850462712
 30
0.0
 11
286.1140001662
 21
55.9662441177
 31
0.0
  0
LINE
  5
19C
330
159
100
AcDbEntity
  8
1-1MA
  6
Continuous
 62
     7
100
AcDbLine
 10
286.1140001662
 20
74.4414527317
 30
0.0
 11
286.1140001662
 21
69.8226505782
 31
0.0
  0
LINE
  5
19D
330
159
100
AcDbEntity
  8
1-1MA
  6
Continuous
 62
     7
100
AcDbLine
 10
287.1140001662
 20
71.7038484247
 30
0.0
 11
287.1140001662
 21
58.7038484247
 31
0.0
  0
LINE
  5
19E
330
159
100
AcDbEntity
  8
1-1MA
  6
Continuous
 62
     7
100
AcDbLine
 10
285.6140001662
 20
75.0188030009
 30
0.0
 11
286.1140001662
 21
74.4414527317
 31
0.0
  0
LINE
  5
19F
330
159
100
AcDbEntity
  8
1-1MA
  6
Continuous
 62
     7
100
AcDbLine
 10
285.6140001662
 20
55.3888938485
 30
0.0
 11
286.1140001662
 21
55.9662441177
 31
0.0
  0
LINE
  5
1A0
330
159
100
AcDbEntity
  8
1-1MA
  6
Continuous
 62
     7
100
AcDbLine
 10
286.1140001662
 20
69.8226505782
 30
0.0
 11
285.6140001662
 21
70.1113257128
 31
0.0
  0
LINE
  5
1A1
330
159
100
AcDbEntity
  8
1-1MA
  6
Continuous
 62
     7
100
AcDbLine
 10
285.6140001662
 20
60.2963711366
 30
0.0
 11
286.1140001662
 21
60.5850462712
 31
0.0
  0
LINE
  5
1A2
330
159
100
AcDbEntity
  8
1-1MA
  6
Continuous
 62
     7
100
AcDbLine
 10
240.1140001662
 20
55.3888938485
 30
0.0
 11
231.6140001662
 21
60.2963711366
 31
0.0
  0
LINE
  5
1A3
330
159
100
AcDbEntity
  8
1-1MA
  6
Continuous
 62
     7
100
AcDbLine
 10
248.6140001662
 20
60.2963711366
 30
0.0
 11
240.1140001662
 21
55.3888938485
 31
0.0
  0
LINE
  5
1A4
330
159
100
AcDbEntity
  8
1-1MA
  6
Continuous
 62
     7
100
AcDbLine
 10
248.6140001662
 20
70.1113257128
 30
0.0
 11
248.6140001662
 21
60.2963711366
 31
0.0
  0
LINE
  5
1A5
330
159
100
AcDbEntity
  8
1-1MA
  6
Continuous
 62
     7
100
AcDbLine
 10
240.1140001662
 20
75.0188030009
 30
0.0
 11
243.7002738887
 21
72.9482669019
 31
0.0
  0
LINE
  5
1A6
330
159
100
AcDbEntity
  8
1-1MA
  6
Continuous
 62
     7
100
AcDbLine
 10
244.9595954567
 20
72.2211972556
 30
0.0
 11
248.6140001662
 21
70.1113257128
 31
0.0
  0
LINE
  5
1A7
330
159
100
AcDbEntity
  8
1-1MA
  6
Continuous
 62
     7
100
AcDbLine
 10
231.6140001662
 20
70.1113257128
 30
0.0
 11
235.0759222597
 21
72.1100673654
 31
0.0
  0
LINE
  5
1A8
330
159
100
AcDbEntity
  8
1-1MA
  6
Continuous
 62
     7
100
AcDbLine
 10
236.6647420597
 20
73.0273729046
 30
0.0
 11
240.1140001662
 21
75.0188030009
 31
0.0
  0
LINE
  5
1A9
330
159
100
AcDbEntity
  8
1-1MA
  6
Continuous
 62
     7
100
AcDbLine
 10
231.6140001662
 20
60.2963711366
 30
0.0
 11
231.6140001662
 21
64.6901641326
 31
0.0
  0
LINE
  5
1AA
330
159
100
AcDbEntity
  8
1-1MA
  6
Continuous
 62
     7
100
AcDbLine
 10
231.6140001662
 20
65.8108267168
 30
0.0
 11
231.6140001662
 21
70.1113257128
 31
0.0
  0
LINE
  5
1AB
330
159
100
AcDbEntity
  8
1-1MA
  6
Continuous
 62
     7
100
AcDbLine
 10
240.1140001662
 20
74.4414527317
 30
0.0
 11
238.7244357673
 21
73.6391873519
 31
0.0
  0
LINE
  5
1AC
330
159
100
AcDbEntity
  8
1-1MA
  6
Continuous
 62
     7
100
AcDbLine
 10
233.5162285522
 20
70.6322275143
 30
0.0
 11
232.1140001662
 21
69.8226505782
 31
0.0
  0
LINE
  5
1AD
330
159
100
AcDbEntity
  8
1-1MA
  6
Continuous
 62
     7
100
AcDbLine
 10
232.1140001662
 20
69.8226505782
 30
0.0
 11
232.1140001662
 21
68.1737610912
 31
0.0
  0
LINE
  5
1AE
330
159
100
AcDbEntity
  8
1-1MA
  6
Continuous
 62
     7
100
AcDbLine
 10
232.1140001662
 20
62.3272297582
 30
0.0
 11
232.1140001662
 21
60.5850462712
 31
0.0
  0
LINE
  5
1AF
330
159
100
AcDbEntity
  8
1-1MA
  6
Continuous
 62
     7
100
AcDbLine
 10
232.1140001662
 20
60.5850462712
 30
0.0
 11
233.6689315051
 21
59.6873062441
 31
0.0
  0
LINE
  5
1B0
330
159
100
AcDbEntity
  8
1-1MA
  6
Continuous
 62
     7
100
AcDbLine
 10
238.4909378404
 20
56.9033195884
 30
0.0
 11
240.1140001662
 21
55.9662441177
 31
0.0
  0
LINE
  5
1B1
330
159
100
AcDbEntity
  8
1-1MA
  6
Continuous
 62
     7
100
AcDbLine
 10
240.1140001662
 20
55.9662441177
 30
0.0
 11
241.756025092
 21
56.9142676505
 31
0.0
  0
LINE
  5
1B2
330
159
100
AcDbEntity
  8
1-1MA
  6
Continuous
 62
     7
100
AcDbLine
 10
246.4846392275
 20
59.6443342946
 30
0.0
 11
248.1140001662
 21
60.5850462712
 31
0.0
  0
LINE
  5
1B3
330
159
100
AcDbEntity
  8
1-1MA
  6
Continuous
 62
     7
100
AcDbLine
 10
248.1140001662
 20
60.5850462712
 30
0.0
 11
248.1140001662
 21
62.430241153
 31
0.0
  0
LINE
  5
1B4
330
159
100
AcDbEntity
  8
1-1MA
  6
Continuous
 62
     7
100
AcDbLine
 10
248.1140001662
 20
68.0707496964
 30
0.0
 11
248.1140001662
 21
69.8226505782
 31
0.0
  0
LINE
  5
1B5
330
159
100
AcDbEntity
  8
1-1MA
  6
Continuous
 62
     7
100
AcDbLine
 10
248.1140001662
 20
69.8226505782
 30
0.0
 11
246.6413030497
 21
70.6729126549
 31
0.0
  0
LINE
  5
1B6
330
159
100
AcDbEntity
  8
1-1MA
  6
Continuous
 62
     7
100
AcDbLine
 10
241.5185662957
 20
73.6305260988
 30
0.0
 11
240.1140001662
 21
74.4414527317
 31
0.0
  0
CIRCLE
  5
1B7
330
159
100
AcDbEntity
  8
1-1MA
  6
Continuous
 62
     7
100
AcDbCircle
 10
240.0955111662
 20
65.2504954247
 30
0.0
 40
7.0
  0
CIRCLE
  5
1B8
330
159
100
AcDbEntity
  8
1-1MA
  6
Continuous
 62
     7
100
AcDbCircle
 10
240.0955111662
 20
65.2504954247
 30
0.0
 40
8.5
  0
LINE
  5
1B9
330
159
100
AcDbEntity
  8
1-1MA
  6
Continuous
 62
     7
100
AcDbLine
 10
240.1140001662
 20
55.9662441177
 30
0.0
 11
240.1140001662
 21
55.3888938485
 31
0.0
  0
LINE
  5
1BA
330
159
100
AcDbEntity
  8
1-1MA
  6
Continuous
 62
     7
100
AcDbLine
 10
248.1140001662
 20
60.5850462712
 30
0.0
 11
248.6140001662
 21
60.2963711366
 31
0.0
  0
LINE
  5
1BB
330
159
100
AcDbEntity
  8
1-1MA
  6
Continuous
 62
     7
100
AcDbLine
 10
248.6140001662
 20
70.1113257128
 30
0.0
 11
248.1140001662
 21
69.8226505782
 31
0.0
  0
LINE
  5
1BC
330
159
100
AcDbEntity
  8
1-1MA
  6
Continuous
 62
     7
100
AcDbLine
 10
231.6140001662
 20
60.2963711366
 30
0.0
 11
232.1140001662
 21
60.5850462712
 31
0.0
  0
LINE
  5
1BD
330
159
100
AcDbEntity
  8
1-1MA
  6
Continuous
 62
     7
100
AcDbLine
 10
240.1140001662
 20
74.4414527317
 30
0.0
 11
240.1140001662
 21
75.0188030009
 31
0.0
  0
LINE
  5
1BE
330
159
100
AcDbEntity
  8
1-1MA
  6
Continuous
 62
     7
100
AcDbLine
 10
231.6140001662
 20
70.1113257128
 30
0.0
 11
232.1140001662
 21
69.8226505782
 31
0.0
  0
CIRCLE
  5
1BF
330
159
100
AcDbEntity
  8
1-1MA
  6
Continuous
 62
     7
100
AcDbCircle
 10
260.1140001662
 20
65.2038484247
 30
0.0
 40
8.55
  0
CIRCLE
  5
1C0
330
159
100
AcDbEntity
  8
1-1MA
  6
Continuous
 62
     7
100
AcDbCircle
 10
260.1140001662
 20
65.2038484247
 30
0.0
 40
9.5
  0
LINE
  5
1C1
330
159
100
AcDbEntity
  8
1-1MA
  6
Continuous
 62
     7
100
AcDbLine
 10
260.1140001662
 20
68.9566251744
 30
0.0
 11
256.8640001662
 21
67.0802367996
 31
0.0
  0
LINE
  5
1C2
330
159
100
AcDbEntity
  8
1-1MA
  6
Continuous
 62
     7
100
AcDbLine
 10
257.1140001662
 20
66.9358992323
 30
0.0
 11
260.1140001662
 21
68.6679500398
 31
0.0
  0
LINE
  5
1C3
330
159
100
AcDbEntity
  8
1-1MA
  6
Continuous
 62
     7
100
AcDbLine
 10
256.8640001662
 20
67.0802367996
 30
0.0
 11
256.8640001662
 21
63.3274600498
 31
0.0
  0
LINE
  5
1C4
330
159
100
AcDbEntity
  8
1-1MA
  6
Continuous
 62
     7
100
AcDbLine
 10
257.1140001662
 20
63.4717976171
 30
0.0
 11
257.1140001662
 21
66.9358992323
 31
0.0
  0
LINE
  5
1C5
330
159
100
AcDbEntity
  8
1-1MA
  6
Continuous
 62
     7
100
AcDbLine
 10
257.1140001662
 20
66.9358992323
 30
0.0
 11
256.8640001662
 21
67.0802367996
 31
0.0
  0
LINE
  5
1C6
330
159
100
AcDbEntity
  8
1-1MA
  6
Continuous
 62
     7
100
AcDbLine
 10
256.8640001662
 20
63.3274600498
 30
0.0
 11
260.1140001662
 21
61.451071675
 31
0.0
  0
LINE
  5
1C7
330
159
100
AcDbEntity
  8
1-1MA
  6
Continuous
 62
     7
100
AcDbLine
 10
260.1140001662
 20
61.451071675
 30
0.0
 11
260.1140001662
 21
61.7397468096
 31
0.0
  0
LINE
  5
1C8
330
159
100
AcDbEntity
  8
1-1MA
  6
Continuous
 62
     7
100
AcDbLine
 10
260.1140001662
 20
61.7397468096
 30
0.0
 11
257.1140001662
 21
63.4717976171
 31
0.0
  0
LINE
  5
1C9
330
159
100
AcDbEntity
  8
1-1MA
  6
Continuous
 62
     7
100
AcDbLine
 10
257.1140001662
 20
63.4717976171
 30
0.0
 11
256.8640001662
 21
63.3274600498
 31
0.0
  0
LINE
  5
1CA
330
159
100
AcDbEntity
  8
1-1MA
  6
Continuous
 62
     7
100
AcDbLine
 10
260.1140001662
 20
61.451071675
 30
0.0
 11
263.3640001662
 21
63.3274600498
 31
0.0
  0
LINE
  5
1CB
330
159
100
AcDbEntity
  8
1-1MA
  6
Continuous
 62
     7
100
AcDbLine
 10
263.1140001662
 20
63.4717976171
 30
0.0
 11
260.1140001662
 21
61.7397468096
 31
0.0
  0
LINE
  5
1CC
330
159
100
AcDbEntity
  8
1-1MA
  6
Continuous
 62
     7
100
AcDbLine
 10
263.3640001662
 20
63.3274600498
 30
0.0
 11
263.3640001662
 21
67.0802367996
 31
0.0
  0
LINE
  5
1CD
330
159
100
AcDbEntity
  8
1-1MA
  6
Continuous
 62
     7
100
AcDbLine
 10
263.3640001662
 20
67.0802367996
 30
0.0
 11
263.1140001662
 21
66.9358992323
 31
0.0
  0
LINE
  5
1CE
330
159
100
AcDbEntity
  8
1-1MA
  6
Continuous
 62
     7
100
AcDbLine
 10
263.1140001662
 20
66.9358992323
 30
0.0
 11
263.1140001662
 21
63.4717976171
 31
0.0
  0
LINE
  5
1CF
330
159
100
AcDbEntity
  8
1-1MA
  6
Continuous
 62
     7
100
AcDbLine
 10
263.1140001662
 20
63.4717976171
 30
0.0
 11
263.3640001662
 21
63.3274600498
 31
0.0
  0
LINE
  5
1D0
330
159
100
AcDbEntity
  8
1-1MA
  6
Continuous
 62
     7
100
AcDbLine
 10
263.3640001662
 20
67.0802367996
 30
0.0
 11
260.1140001662
 21
68.9566251744
 31
0.0
  0
LINE
  5
1D1
330
159
100
AcDbEntity
  8
1-1MA
  6
Continuous
 62
     7
100
AcDbLine
 10
260.1140001662
 20
68.9566251744
 30
0.0
 11
260.1140001662
 21
68.6679500398
 31
0.0
  0
LINE
  5
1D2
330
159
100
AcDbEntity
  8
1-1MA
  6
Continuous
 62
     7
100
AcDbLine
 10
260.1140001662
 20
68.6679500398
 30
0.0
 11
263.1140001662
 21
66.9358992323
 31
0.0
  0
ARC
  5
1D3
330
159
100
AcDbEntity
  8
1-1MA
  6
Continuous
 62
     7
100
AcDbCircle
 10
286.1140001662
 20
71.7038484247
 30
0.0
 40
1.000000000000001
100
AcDbArc
 50
0.0
 51
90.0
  0
ARC
  5
1D4
330
159
100
AcDbEntity
  8
1-1MA
  6
Continuous
 62
     7
100
AcDbCircle
 10
286.1140001662
 20
58.7038484247
 30
0.0
 40
1.0
100
AcDbArc
 50
270.0
 51
0.0
  0
ENDBLK
  5
1D6
330
159
100
AcDbEntity
  8
0
100
AcDbBlockEnd
  0
BLOCK
  5
240
330
1D7
100
AcDbEntity
  8
0
100
AcDbBlockBegin
  2
SE3
 70
     0
 10
0.0
 20
0.0
 30
0.0
  3
SE3
  1

  0
LINE
  5
1D9
330
1D7
100
AcDbEntity
  8
1-1MA
  6
Continuous
 62
     7
100
AcDbLine
 10
408.5815005421
 20
266.4364753997
 30
0.0
 11
426.5815005421
 21
266.4364753997
 31
0.0
  0
LINE
  5
1DA
330
1D7
100
AcDbEntity
  8
1-1MA
  6
Continuous
 62
     7
100
AcDbLine
 10
428.5815005421
 20
264.4364753997
 30
0.0
 11
428.5815005421
 21
246.4364753997
 31
0.0
  0
LINE
  5
1DB
330
1D7
100
AcDbEntity
  8
1-1MA
  6
Continuous
 62
     7
100
AcDbLine
 10
343.5815005421
 20
153.4364753997
 30
0.0
 11
343.5815005421
 21
171.4364753997
 31
0.0
  0
LINE
  5
1DC
330
1D7
100
AcDbEntity
  8
1-1MA
  6
Continuous
 62
     7
100
AcDbLine
 10
344.5815005421
 20
245.4364753997
 30
0.0
 11
344.5815005421
 21
172.4364753997
 31
0.0
  0
LINE
  5
1DD
330
1D7
100
AcDbEntity
  8
1-1MA
  6
Continuous
 62
     7
100
AcDbLine
 10
344.5815005421
 20
265.4364753997
 30
0.0
 11
343.5815005421
 21
264.4364753997
 31
0.0
  0
LINE
  5
1DE
330
1D7
100
AcDbEntity
  8
1-1MA
  6
Continuous
 62
     7
100
AcDbLine
 10
345.5815005421
 20
266.4364753997
 30
0.0
 11
344.5815005421
 21
265.4364753997
 31
0.0
  0
LINE
  5
1DF
330
1D7
100
AcDbEntity
  8
1-1MA
  6
Continuous
 62
     7
100
AcDbLine
 10
344.5815005421
 20
152.4364753997
 30
0.0
 11
345.5815005421
 21
151.4364753997
 31
0.0
  0
LINE
  5
1E0
330
1D7
100
AcDbEntity
  8
1-1MA
  6
Continuous
 62
     7
100
AcDbLine
 10
343.5815005421
 20
153.4364753997
 30
0.0
 11
344.5815005421
 21
152.4364753997
 31
0.0
  0
LINE
  5
1E1
330
1D7
100
AcDbEntity
  8
1-1MA
  6
Continuous
 62
     7
100
AcDbLine
 10
427.5815005421
 20
265.4364753997
 30
0.0
 11
426.5815005421
 21
266.4364753997
 31
0.0
  0
LINE
  5
1E2
330
1D7
100
AcDbEntity
  8
1-1MA
  6
Continuous
 62
     7
100
AcDbLine
 10
428.5815005421
 20
264.4364753997
 30
0.0
 11
427.5815005421
 21
265.4364753997
 31
0.0
  0
LINE
  5
1E3
330
1D7
100
AcDbEntity
  8
1-1MA
  6
Continuous
 62
     7
100
AcDbLine
 10
427.5815005421
 20
152.4364753997
 30
0.0
 11
428.5815005421
 21
153.4364753997
 31
0.0
  0
LINE
  5
1E4
330
1D7
100
AcDbEntity
  8
1-1MA
  6
Continuous
 62
     7
100
AcDbLine
 10
426.5815005421
 20
151.4364753997
 30
0.0
 11
427.5815005421
 21
152.4364753997
 31
0.0
  0
LINE
  5
1E5
330
1D7
100
AcDbEntity
  8
1-1MA
  6
Continuous
 62
     7
100
AcDbLine
 10
343.5815005421
 20
246.4364753997
 30
0.0
 11
343.5815005421
 21
264.4364753997
 31
0.0
  0
LINE
  5
1E6
330
1D7
100
AcDbEntity
  8
1-1MA
  6
Continuous
 62
     7
100
AcDbLine
 10
427.5815005421
 20
172.4364753997
 30
0.0
 11
427.5815005421
 21
245.4364753997
 31
0.0
  0
LINE
  5
1E7
330
1D7
100
AcDbEntity
  8
1-1MA
  6
Continuous
 62
     7
100
AcDbLine
 10
364.8815005421
 20
152.4364753997
 30
0.0
 11
407.2815005421
 21
152.4364753997
 31
0.0
  0
LINE
  5
1E8
330
1D7
100
AcDbEntity
  8
1-1MA
  6
Continuous
 62
     7
100
AcDbLine
 10
363.8815005421
 20
151.4364753997
 30
0.0
 11
345.5815005421
 21
151.4364753997
 31
0.0
  0
LINE
  5
1E9
330
1D7
100
AcDbEntity
  8
1-1MA
  6
Continuous
 62
     7
100
AcDbLine
 10
363.8815005421
 20
151.4364753997
 30
0.0
 11
364.8815005421
 21
152.4364753997
 31
0.0
  0
LINE
  5
1EA
330
1D7
100
AcDbEntity
  8
1-1MA
  6
Continuous
 62
     7
100
AcDbLine
 10
428.5815005421
 20
171.4364753997
 30
0.0
 11
428.5815005421
 21
153.4364753997
 31
0.0
  0
LINE
  5
1EB
330
1D7
100
AcDbEntity
  8
1-1MA
  6
Continuous
 62
     7
100
AcDbLine
 10
345.5815005421
 20
266.4364753997
 30
0.0
 11
363.5815005421
 21
266.4364753997
 31
0.0
  0
LINE
  5
1EC
330
1D7
100
AcDbEntity
  8
1-1MA
  6
Continuous
 62
     7
100
AcDbLine
 10
344.5815005421
 20
172.4364753997
 30
0.0
 11
343.5815005421
 21
171.4364753997
 31
0.0
  0
LINE
  5
1ED
330
1D7
100
AcDbEntity
  8
1-1MA
  6
Continuous
 62
     7
100
AcDbLine
 10
428.5815005421
 20
171.4364753997
 30
0.0
 11
427.5815005421
 21
172.4364753997
 31
0.0
  0
LINE
  5
1EE
330
1D7
100
AcDbEntity
  8
1-1MA
  6
Continuous
 62
     7
100
AcDbLine
 10
426.5815005421
 20
151.4364753997
 30
0.0
 11
408.2815005421
 21
151.4364753997
 31
0.0
  0
LINE
  5
1EF
330
1D7
100
AcDbEntity
  8
1-1MA
  6
Continuous
 62
     7
100
AcDbLine
 10
407.2815005421
 20
152.4364753997
 30
0.0
 11
408.2815005421
 21
151.4364753997
 31
0.0
  0
LINE
  5
1F0
330
1D7
100
AcDbEntity
  8
1-1MA
  6
Continuous
 62
     7
100
AcDbLine
 10
426.5815005421
 20
153.4364753997
 30
0.0
 11
345.5815005421
 21
153.4364753997
 31
0.0
  0
LINE
  5
1F1
330
1D7
100
AcDbEntity
  8
1-1MA
  6
Continuous
 62
     7
100
AcDbLine
 10
426.5815005421
 20
264.4364753997
 30
0.0
 11
426.5815005421
 21
153.4364753997
 31
0.0
  0
LINE
  5
1F2
330
1D7
100
AcDbEntity
  8
1-1MA
  6
Continuous
 62
     7
100
AcDbLine
 10
345.5815005421
 20
264.4364753997
 30
0.0
 11
426.5815005421
 21
264.4364753997
 31
0.0
  0
LINE
  5
1F3
330
1D7
100
AcDbEntity
  8
1-1MA
  6
Continuous
 62
     7
100
AcDbLine
 10
345.5815005421
 20
153.4364753997
 30
0.0
 11
345.5815005421
 21
264.4364753997
 31
0.0
  0
CIRCLE
  5
1F4
330
1D7
100
AcDbEntity
  8
1-1MA
  6
Continuous
 62
     7
100
AcDbCircle
 10
372.5815005421
 20
168.9364753997
 30
0.0
 40
11.0
  0
LINE
  5
1F5
330
1D7
100
AcDbEntity
  8
1-1MA
  6
Continuous
 62
     7
100
AcDbLine
 10
427.5815005421
 20
265.4364753997
 30
0.0
 11
426.5815005421
 21
264.4364753997
 31
0.0
  0
LINE
  5
1F6
330
1D7
100
AcDbEntity
  8
1-1MA
  6
Continuous
 62
     7
100
AcDbLine
 10
408.5815005421
 20
266.4364753997
 30
0.0
 11
407.5815005421
 21
265.4364753997
 31
0.0
  0
LINE
  5
1F7
330
1D7
100
AcDbEntity
  8
1-1MA
  6
Continuous
 62
     7
100
AcDbLine
 10
407.5815005421
 20
265.4364753997
 30
0.0
 11
364.5815005421
 21
265.4364753997
 31
0.0
  0
LINE
  5
1F8
330
1D7
100
AcDbEntity
  8
1-1MA
  6
Continuous
 62
     7
100
AcDbLine
 10
364.5815005421
 20
265.4364753997
 30
0.0
 11
363.5815005421
 21
266.4364753997
 31
0.0
  0
LINE
  5
1F9
330
1D7
100
AcDbEntity
  8
1-1MA
  6
Continuous
 62
     7
100
AcDbLine
 10
344.5815005421
 20
265.4364753997
 30
0.0
 11
345.5815005421
 21
264.4364753997
 31
0.0
  0
LINE
  5
1FA
330
1D7
100
AcDbEntity
  8
1-1MA
  6
Continuous
 62
     7
100
AcDbLine
 10
427.5815005421
 20
152.4364753997
 30
0.0
 11
426.5815005421
 21
153.4364753997
 31
0.0
  0
LINE
  5
1FB
330
1D7
100
AcDbEntity
  8
1-1MA
  6
Continuous
 62
     7
100
AcDbLine
 10
427.5815005421
 20
245.4364753997
 30
0.0
 11
428.5815005421
 21
246.4364753997
 31
0.0
  0
LINE
  5
1FC
330
1D7
100
AcDbEntity
  8
1-1MA
  6
Continuous
 62
     7
100
AcDbLine
 10
343.5815005421
 20
246.4364753997
 30
0.0
 11
344.5815005421
 21
245.4364753997
 31
0.0
  0
LINE
  5
1FD
330
1D7
100
AcDbEntity
  8
1-1MA
  6
Continuous
 62
     7
100
AcDbLine
 10
345.5815005421
 20
153.4364753997
 30
0.0
 11
344.5815005421
 21
152.4364753997
 31
0.0
  0
LINE
  5
1FE
330
1D7
100
AcDbEntity
  8
1-1MA
  6
Continuous
 62
     7
100
AcDbLine
 10
428.0815005421
 20
220.2521740038
 30
0.0
 11
428.0815005421
 21
223.9364753997
 31
0.0
  0
LINE
  5
1FF
330
1D7
100
AcDbEntity
  8
1-1MA
  6
Continuous
 62
     7
100
AcDbLine
 10
428.0815005421
 20
172.6207767956
 30
0.0
 11
428.0815005421
 21
171.9364753997
 31
0.0
  0
LINE
  5
200
330
1D7
100
AcDbEntity
  8
1-1MA
  6
Continuous
 62
     7
100
AcDbLine
 10
428.0815005421
 20
172.6207767956
 30
0.0
 11
428.0815005421
 21
196.4364753997
 31
0.0
  0
LINE
  5
201
330
1D7
100
AcDbEntity
  8
1-1MA
  6
Continuous
 62
     7
100
AcDbLine
 10
428.0815005421
 20
196.4364753997
 30
0.0
 11
428.0815005421
 21
220.2521740038
 31
0.0
  0
LINE
  5
202
330
1D7
100
AcDbEntity
  8
1-1MA
  6
Continuous
 62
     7
100
AcDbLine
 10
343.5815005421
 20
204.1364753997
 30
0.0
 11
343.5815005421
 21
188.7364753997
 31
0.0
  0
LINE
  5
203
330
1D7
100
AcDbEntity
  8
1-1MA
  6
Continuous
 62
     7
100
AcDbLine
 10
428.5815005421
 20
204.1364753997
 30
0.0
 11
428.5815005421
 21
188.7364753997
 31
0.0
  0
CIRCLE
  5
204
330
1D7
100
AcDbEntity
  8
1-1MA
  6
Continuous
 62
     7
100
AcDbCircle
 10
372.5815005421
 20
168.9364753997
 30
0.0
 40
8.55
  0
CIRCLE
  5
205
330
1D7
100
AcDbEntity
  8
1-1MA
  6
Continuous
 62
     7
100
AcDbCircle
 10
372.5815005421
 20
168.9364753997
 30
0.0
 40
9.5
  0
LINE
  5
206
330
1D7
100
AcDbEntity
  8
1-1MA
  6
Continuous
 62
     7
100
AcDbLine
 10
368.8287237923
 20
168.9364753997
 30
0.0
 11
370.7051121672
 21
165.6864753997
 31
0.0
  0
LINE
  5
207
330
1D7
100
AcDbEntity
  8
1-1MA
  6
Continuous
 62
     7
100
AcDbLine
 10
370.8494497345
 20
165.9364753997
 30
0.0
 11
369.1173989269
 21
168.9364753997
 31
0.0
  0
LINE
  5
208
330
1D7
100
AcDbEntity
  8
1-1MA
  6
Continuous
 62
     7
100
AcDbLine
 10
370.7051121672
 20
165.6864753997
 30
0.0
 11
374.4578889169
 21
165.6864753997
 31
0.0
  0
LINE
  5
209
330
1D7
100
AcDbEntity
  8
1-1MA
  6
Continuous
 62
     7
100
AcDbLine
 10
374.3135513497
 20
165.9364753997
 30
0.0
 11
370.8494497345
 21
165.9364753997
 31
0.0
  0
LINE
  5
20A
330
1D7
100
AcDbEntity
  8
1-1MA
  6
Continuous
 62
     7
100
AcDbLine
 10
370.8494497345
 20
165.9364753997
 30
0.0
 11
370.7051121672
 21
165.6864753997
 31
0.0
  0
LINE
  5
20B
330
1D7
100
AcDbEntity
  8
1-1MA
  6
Continuous
 62
     7
100
AcDbLine
 10
374.4578889169
 20
165.6864753997
 30
0.0
 11
376.3342772918
 21
168.9364753997
 31
0.0
  0
LINE
  5
20C
330
1D7
100
AcDbEntity
  8
1-1MA
  6
Continuous
 62
     7
100
AcDbLine
 10
376.3342772918
 20
168.9364753997
 30
0.0
 11
376.0456021572
 21
168.9364753997
 31
0.0
  0
LINE
  5
20D
330
1D7
100
AcDbEntity
  8
1-1MA
  6
Continuous
 62
     7
100
AcDbLine
 10
376.0456021572
 20
168.9364753997
 30
0.0
 11
374.3135513497
 21
165.9364753997
 31
0.0
  0
LINE
  5
20E
330
1D7
100
AcDbEntity
  8
1-1MA
  6
Continuous
 62
     7
100
AcDbLine
 10
374.3135513497
 20
165.9364753997
 30
0.0
 11
374.4578889169
 21
165.6864753997
 31
0.0
  0
LINE
  5
20F
330
1D7
100
AcDbEntity
  8
1-1MA
  6
Continuous
 62
     7
100
AcDbLine
 10
376.3342772918
 20
168.9364753997
 30
0.0
 11
374.4578889169
 21
172.1864753997
 31
0.0
  0
LINE
  5
210
330
1D7
100
AcDbEntity
  8
1-1MA
  6
Continuous
 62
     7
100
AcDbLine
 10
374.3135513497
 20
171.9364753997
 30
0.0
 11
376.0456021572
 21
168.9364753997
 31
0.0
  0
LINE
  5
211
330
1D7
100
AcDbEntity
  8
1-1MA
  6
Continuous
 62
     7
100
AcDbLine
 10
374.4578889169
 20
172.1864753997
 30
0.0
 11
370.7051121672
 21
172.1864753997
 31
0.0
  0
LINE
  5
212
330
1D7
100
AcDbEntity
  8
1-1MA
  6
Continuous
 62
     7
100
AcDbLine
 10
370.7051121672
 20
172.1864753997
 30
0.0
 11
370.8494497345
 21
171.9364753997
 31
0.0
  0
LINE
  5
213
330
1D7
100
AcDbEntity
  8
1-1MA
  6
Continuous
 62
     7
100
AcDbLine
 10
370.8494497345
 20
171.9364753997
 30
0.0
 11
374.3135513497
 21
171.9364753997
 31
0.0
  0
LINE
  5
214
330
1D7
100
AcDbEntity
  8
1-1MA
  6
Continuous
 62
     7
100
AcDbLine
 10
374.3135513497
 20
171.9364753997
 30
0.0
 11
374.4578889169
 21
172.1864753997
 31
0.0
  0
LINE
  5
215
330
1D7
100
AcDbEntity
  8
1-1MA
  6
Continuous
 62
     7
100
AcDbLine
 10
370.7051121672
 20
172.1864753997
 30
0.0
 11
368.8287237923
 21
168.9364753997
 31
0.0
  0
LINE
  5
216
330
1D7
100
AcDbEntity
  8
1-1MA
  6
Continuous
 62
     7
100
AcDbLine
 10
368.8287237923
 20
168.9364753997
 30
0.0
 11
369.1173989269
 21
168.9364753997
 31
0.0
  0
LINE
  5
217
330
1D7
100
AcDbEntity
  8
1-1MA
  6
Continuous
 62
     7
100
AcDbLine
 10
369.1173989269
 20
168.9364753997
 30
0.0
 11
370.8494497345
 21
171.9364753997
 31
0.0
  0
LINE
  5
218
330
1D7
100
AcDbEntity
  8
1-1MA
  6
Continuous
 62
     7
100
AcDbLine
 10
344.0815005421
 20
220.2521740038
 30
0.0
 11
344.0815005421
 21
223.9364753997
 31
0.0
  0
LINE
  5
219
330
1D7
100
AcDbEntity
  8
1-1MA
  6
Continuous
 62
     7
100
AcDbLine
 10
344.0815005421
 20
220.2521740038
 30
0.0
 11
344.0815005421
 21
196.4364753997
 31
0.0
  0
LINE
  5
21A
330
1D7
100
AcDbEntity
  8
1-1MA
  6
Continuous
 62
     7
100
AcDbLine
 10
344.0815005421
 20
196.4364753997
 30
0.0
 11
344.0815005421
 21
172.6207767956
 31
0.0
  0
LINE
  5
21B
330
1D7
100
AcDbEntity
  8
1-1MA
  6
Continuous
 62
     7
100
AcDbLine
 10
344.0815005421
 20
171.9364753997
 30
0.0
 11
344.0815005421
 21
172.6207767956
 31
0.0
  0
LINE
  5
21C
330
1D7
100
AcDbEntity
  8
1-1MA
  6
Continuous
 62
     7
100
AcDbLine
 10
395.8964551183
 20
266.9364753997
 30
0.0
 11
390.9889778302
 21
266.9364753997
 31
0.0
  0
LINE
  5
21D
330
1D7
100
AcDbEntity
  8
1-1MA
  6
Continuous
 62
     7
100
AcDbLine
 10
395.8964551183
 20
266.9364753997
 30
0.0
 11
395.8964551183
 21
265.4364753997
 31
0.0
  0
LINE
  5
21E
330
1D7
100
AcDbEntity
  8
1-1MA
  6
Continuous
 62
     7
100
AcDbLine
 10
381.174023254
 20
266.9364753997
 30
0.0
 11
376.2665459659
 21
266.9364753997
 31
0.0
  0
LINE
  5
21F
330
1D7
100
AcDbEntity
  8
1-1MA
  6
Continuous
 62
     7
100
AcDbLine
 10
376.2665459659
 20
266.9364753997
 30
0.0
 11
376.2665459659
 21
265.4364753997
 31
0.0
  0
LINE
  5
220
330
1D7
100
AcDbEntity
  8
1-1MA
  6
Continuous
 62
     7
100
AcDbLine
 10
390.9889778302
 20
265.4364753997
 30
0.0
 11
390.9889778302
 21
266.9364753997
 31
0.0
  0
LINE
  5
221
330
1D7
100
AcDbEntity
  8
1-1MA
  6
Continuous
 62
     7
100
AcDbLine
 10
390.9889778302
 20
266.9364753997
 30
0.0
 11
381.174023254
 21
266.9364753997
 31
0.0
  0
LINE
  5
222
330
1D7
100
AcDbEntity
  8
1-1MA
  6
Continuous
 62
     7
100
AcDbLine
 10
381.174023254
 20
266.9364753997
 30
0.0
 11
381.174023254
 21
265.4364753997
 31
0.0
  0
LINE
  5
223
330
1D7
100
AcDbEntity
  8
1-1MA
  6
Continuous
 62
     7
100
AcDbLine
 10
376.843896235
 20
267.4364753997
 30
0.0
 11
381.4626983886
 21
267.4364753997
 31
0.0
  0
LINE
  5
224
330
1D7
100
AcDbEntity
  8
1-1MA
  6
Continuous
 62
     7
100
AcDbLine
 10
381.4626983886
 20
267.4364753997
 30
0.0
 11
390.7003026956
 21
267.4364753997
 31
0.0
  0
LINE
  5
225
330
1D7
100
AcDbEntity
  8
1-1MA
  6
Continuous
 62
     7
100
AcDbLine
 10
390.7003026956
 20
267.4364753997
 30
0.0
 11
395.3191048491
 21
267.4364753997
 31
0.0
  0
LINE
  5
226
330
1D7
100
AcDbEntity
  8
1-1MA
  6
Continuous
 62
     7
100
AcDbLine
 10
394.5348535421
 20
269.4364753997
 30
0.0
 11
377.5348535421
 21
269.4364753997
 31
0.0
  0
LINE
  5
227
330
1D7
100
AcDbEntity
  8
1-1MA
  6
Continuous
 62
     7
100
AcDbLine
 10
393.0348535421
 20
279.4364753997
 30
0.0
 11
379.0348535421
 21
279.4364753997
 31
0.0
  0
LINE
  5
228
330
1D7
100
AcDbEntity
  8
1-1MA
  6
Continuous
 62
     7
100
AcDbLine
 10
394.5348535421
 20
277.9364753997
 30
0.0
 11
377.5348535421
 21
277.9364753997
 31
0.0
  0
LINE
  5
229
330
1D7
100
AcDbEntity
  8
1-1MA
  6
Continuous
 62
     7
100
AcDbLine
 10
395.3191048491
 20
267.4364753997
 30
0.0
 11
395.8964551183
 21
266.9364753997
 31
0.0
  0
LINE
  5
22A
330
1D7
100
AcDbEntity
  8
1-1MA
  6
Continuous
 62
     7
100
AcDbLine
 10
390.9889778302
 20
266.9364753997
 30
0.0
 11
390.7003026956
 21
267.4364753997
 31
0.0
  0
LINE
  5
22B
330
1D7
100
AcDbEntity
  8
1-1MA
  6
Continuous
 62
     7
100
AcDbLine
 10
376.843896235
 20
267.4364753997
 30
0.0
 11
376.2665459659
 21
266.9364753997
 31
0.0
  0
LINE
  5
22C
330
1D7
100
AcDbEntity
  8
1-1MA
  6
Continuous
 62
     7
100
AcDbLine
 10
381.174023254
 20
266.9364753997
 30
0.0
 11
381.4626983886
 21
267.4364753997
 31
0.0
  0
CIRCLE
  5
22D
330
1D7
100
AcDbEntity
  8
1-1MA
  6
Continuous
 62
     7
100
AcDbCircle
 10
368.5200901096
 20
250.3296444154
 30
0.0
 40
2.75000000000011
  0
CIRCLE
  5
22E
330
1D7
100
AcDbEntity
  8
1-1MA
  6
Continuous
 62
     7
100
AcDbCircle
 10
403.6429109745
 20
250.3296444154
 30
0.0
 40
2.749999999999489
  0
CIRCLE
  5
22F
330
1D7
100
AcDbEntity
  8
1-1MA
  6
Continuous
 62
     7
100
AcDbCircle
 10
403.6429109745
 20
214.7433063839
 30
0.0
 40
2.749999999999291
  0
CIRCLE
  5
230
330
1D7
100
AcDbEntity
  8
1-1MA
  6
Continuous
 62
     7
100
AcDbCircle
 10
368.5200901096
 20
214.7433063839
 30
0.0
 40
2.750000000000001
  0
CIRCLE
  5
231
330
1D7
100
AcDbEntity
  8
1-1MA
  6
Continuous
 62
     7
100
AcDbCircle
 10
386.0815005421
 20
232.5364753997
 30
0.0
 40
4.000000000000004
  0
CIRCLE
  5
232
330
1D7
100
AcDbEntity
  8
1-1MA
  6
Continuous
 62
     7
100
AcDbCircle
 10
386.0815005421
 20
232.5364753997
 30
0.0
 40
20.5
  0
CIRCLE
  5
233
330
1D7
100
AcDbEntity
  8
1-1MA
  6
Continuous
 62
     7
100
AcDbCircle
 10
386.0815005421
 20
232.5364753997
 30
0.0
 40
20.0
  0
ARC
  5
234
330
1D7
100
AcDbEntity
  8
1-1MA
  6
Continuous
 62
     7
100
AcDbCircle
 10
427.5815005421
 20
223.9364753997
 30
0.0
 40
0.5000000000000004
100
AcDbArc
 50
0.0
 51
90.0
  0
LINE
  5
235
330
1D7
100
AcDbEntity
  8
1-1MA
  6
Continuous
 62
     7
100
AcDbLine
 10
344.0815005421
 20
204.6364753997
 30
0.0
 11
343.5815005421
 21
204.1364753997
 31
0.0
  0
LINE
  5
236
330
1D7
100
AcDbEntity
  8
1-1MA
  6
Continuous
 62
     7
100
AcDbLine
 10
343.5815005421
 20
188.7364753997
 30
0.0
 11
344.0815005421
 21
188.2364753997
 31
0.0
  0
LINE
  5
237
330
1D7
100
AcDbEntity
  8
1-1MA
  6
Continuous
 62
     7
100
AcDbLine
 10
428.0815005421
 20
188.2364753997
 30
0.0
 11
428.5815005421
 21
188.7364753997
 31
0.0
  0
LINE
  5
238
330
1D7
100
AcDbEntity
  8
1-1MA
  6
Continuous
 62
     7
100
AcDbLine
 10
428.5815005421
 20
204.1364753997
 30
0.0
 11
428.0815005421
 21
204.6364753997
 31
0.0
  0
ARC
  5
239
330
1D7
100
AcDbEntity
  8
1-1MA
  6
Continuous
 62
     7
100
AcDbCircle
 10
344.5815005421
 20
223.9364753997
 30
0.0
 40
0.5000000000000004
100
AcDbArc
 50
90.0
 51
180.0
  0
LINE
  5
23A
330
1D7
100
AcDbEntity
  8
1-1MA
  6
Continuous
 62
     7
100
AcDbLine
 10
380.5815005421
 20
269.4364753997
 30
0.0
 11
380.5815005421
 21
267.4364753997
 31
0.0
  0
LINE
  5
23B
330
1D7
100
AcDbEntity
  8
1-1MA
  6
Continuous
 62
     7
100
AcDbLine
 10
391.5815005421
 20
267.4364753997
 30
0.0
 11
391.5815005421
 21
269.4364753997
 31
0.0
  0
LINE
  5
23C
330
1D7
100
AcDbEntity
  8
1-1MA
  6
Continuous
 62
     7
100
AcDbLine
 10
377.5348535421
 20
277.9364753997
 30
0.0
 11
377.5348535421
 21
269.4364753997
 31
0.0
  0
LINE
  5
23D
330
1D7
100
AcDbEntity
  8
1-1MA
  6
Continuous
 62
     7
100
AcDbLine
 10
394.5348535421
 20
269.4364753997
 30
0.0
 11
394.5348535421
 21
277.9364753997
 31
0.0
  0
ARC
  5
23E
330
1D7
100
AcDbEntity
  8
1-1MA
  6
Continuous
 62
     7
100
AcDbCircle
 10
379.0348535421
 20
277.9364753997
 30
0.0
 40
1.500000000000001
100
AcDbArc
 50
90.0
 51
180.0
  0
ARC
  5
23F
330
1D7
100
AcDbEntity
  8
1-1MA
  6
Continuous
 62
     7
100
AcDbCircle
 10
393.0348535421
 20
277.9364753997
 30
0.0
 40
1.5
100
AcDbArc
 50
0.0
 51
90.0
  0
ENDBLK
  5
241
330
1D7
100
AcDbEntity
  8
0
100
AcDbBlockEnd
  0
BLOCK
  5
3B0
330
242
100
AcDbEntity
  8
0
100
AcDbBlockBegin
  2
SE4
 70
     0
 10
0.0
 20
0.0
 30
0.0
  3
SE4
  1

  0
LINE
  5
244
330
242
100
AcDbEntity
  8
1-1MA
  6
Continuous
 62
     7
100
AcDbLine
 10
94.126847333
 20
266.4364753997
 30
0.0
 11
76.126847333
 21
266.4364753997
 31
0.0
  0
LINE
  5
245
330
242
100
AcDbEntity
  8
1-1MA
  6
Continuous
 62
     7
100
AcDbLine
 10
74.126847333
 20
264.4364753997
 30
0.0
 11
74.126847333
 21
246.4364753997
 31
0.0
  0
LINE
  5
246
330
242
100
AcDbEntity
  8
1-1MA
  6
Continuous
 62
     7
100
AcDbLine
 10
159.126847333
 20
153.4364753997
 30
0.0
 11
159.126847333
 21
171.4364753997
 31
0.0
  0
LINE
  5
247
330
242
100
AcDbEntity
  8
1-1MA
  6
Continuous
 62
     7
100
AcDbLine
 10
158.126847333
 20
245.4364753997
 30
0.0
 11
158.126847333
 21
172.4364753997
 31
0.0
  0
LINE
  5
248
330
242
100
AcDbEntity
  8
1-1MA
  6
Continuous
 62
     7
100
AcDbLine
 10
159.126847333
 20
264.4364753997
 30
0.0
 11
157.126847333
 21
266.4364753997
 31
0.0
  0
LINE
  5
249
330
242
100
AcDbEntity
  8
1-1MA
  6
Continuous
 62
     7
100
AcDbLine
 10
157.126847333
 20
151.4364753997
 30
0.0
 11
159.126847333
 21
153.4364753997
 31
0.0
  0
LINE
  5
24A
330
242
100
AcDbEntity
  8
1-1MA
  6
Continuous
 62
     7
100
AcDbLine
 10
76.126847333
 20
266.4364753997
 30
0.0
 11
74.126847333
 21
264.4364753997
 31
0.0
  0
LINE
  5
24B
330
242
100
AcDbEntity
  8
1-1MA
  6
Continuous
 62
     7
100
AcDbLine
 10
76.126847333
 20
151.4364753997
 30
0.0
 11
74.126847333
 21
153.4364753997
 31
0.0
  0
LINE
  5
24C
330
242
100
AcDbEntity
  8
1-1MA
  6
Continuous
 62
     7
100
AcDbLine
 10
159.126847333
 20
246.4364753997
 30
0.0
 11
159.126847333
 21
264.4364753997
 31
0.0
  0
LINE
  5
24D
330
242
100
AcDbEntity
  8
1-1MA
  6
Continuous
 62
     7
100
AcDbLine
 10
75.126847333
 20
172.4364753997
 30
0.0
 11
75.126847333
 21
245.4364753997
 31
0.0
  0
LINE
  5
24E
330
242
100
AcDbEntity
  8
1-1MA
  6
Continuous
 62
     7
100
AcDbLine
 10
137.826847333
 20
152.4364753997
 30
0.0
 11
95.426847333
 21
152.4364753997
 31
0.0
  0
LINE
  5
24F
330
242
100
AcDbEntity
  8
1-1MA
  6
Continuous
 62
     7
100
AcDbLine
 10
138.826847333
 20
151.4364753997
 30
0.0
 11
157.126847333
 21
151.4364753997
 31
0.0
  0
LINE
  5
250
330
242
100
AcDbEntity
  8
1-1MA
  6
Continuous
 62
     7
100
AcDbLine
 10
138.826847333
 20
151.4364753997
 30
0.0
 11
137.826847333
 21
152.4364753997
 31
0.0
  0
LINE
  5
251
330
242
100
AcDbEntity
  8
1-1MA
  6
Continuous
 62
     7
100
AcDbLine
 10
74.126847333
 20
171.4364753997
 30
0.0
 11
74.126847333
 21
153.4364753997
 31
0.0
  0
LINE
  5
252
330
242
100
AcDbEntity
  8
1-1MA
  6
Continuous
 62
     7
100
AcDbLine
 10
157.126847333
 20
266.4364753997
 30
0.0
 11
139.126847333
 21
266.4364753997
 31
0.0
  0
LINE
  5
253
330
242
100
AcDbEntity
  8
1-1MA
  6
Continuous
 62
     7
100
AcDbLine
 10
76.126847333
 20
151.4364753997
 30
0.0
 11
94.426847333
 21
151.4364753997
 31
0.0
  0
LINE
  5
254
330
242
100
AcDbEntity
  8
1-1MA
  6
Continuous
 62
     7
100
AcDbLine
 10
74.126847333
 20
171.4364753997
 30
0.0
 11
75.126847333
 21
172.4364753997
 31
0.0
  0
LINE
  5
255
330
242
100
AcDbEntity
  8
1-1MA
  6
Continuous
 62
     7
100
AcDbLine
 10
95.426847333
 20
152.4364753997
 30
0.0
 11
94.426847333
 21
151.4364753997
 31
0.0
  0
LINE
  5
256
330
242
100
AcDbEntity
  8
1-1MA
  6
Continuous
 62
     7
100
AcDbLine
 10
158.126847333
 20
172.4364753997
 30
0.0
 11
159.126847333
 21
171.4364753997
 31
0.0
  0
LINE
  5
257
330
242
100
AcDbEntity
  8
1-1MA
  6
Continuous
 62
     7
100
AcDbLine
 10
159.126847333
 20
246.4364753997
 30
0.0
 11
158.126847333
 21
245.4364753997
 31
0.0
  0
LINE
  5
258
330
242
100
AcDbEntity
  8
1-1MA
  6
Continuous
 62
     7
100
AcDbLine
 10
138.126847333
 20
265.4364753997
 30
0.0
 11
139.126847333
 21
266.4364753997
 31
0.0
  0
LINE
  5
259
330
242
100
AcDbEntity
  8
1-1MA
  6
Continuous
 62
     7
100
AcDbLine
 10
127.626847333
 20
265.4364753997
 30
0.0
 11
138.126847333
 21
265.4364753997
 31
0.0
  0
LINE
  5
25A
330
242
100
AcDbEntity
  8
1-1MA
  6
Continuous
 62
     7
100
AcDbLine
 10
95.126847333
 20
265.4364753997
 30
0.0
 11
105.626847333
 21
265.4364753997
 31
0.0
  0
LINE
  5
25B
330
242
100
AcDbEntity
  8
1-1MA
  6
Continuous
 62
     7
100
AcDbLine
 10
94.126847333
 20
266.4364753997
 30
0.0
 11
95.126847333
 21
265.4364753997
 31
0.0
  0
LINE
  5
25C
330
242
100
AcDbEntity
  8
1-1MA
  6
Continuous
 62
     7
100
AcDbLine
 10
75.126847333
 20
245.4364753997
 30
0.0
 11
74.126847333
 21
246.4364753997
 31
0.0
  0
LINE
  5
25D
330
242
100
AcDbEntity
  8
1-1MA
  6
Continuous
 62
     7
100
AcDbLine
 10
158.126847333
 20
172.4364753997
 30
0.0
 11
158.126847333
 21
154.4376930039
 31
0.0
  0
LINE
  5
25E
330
242
100
AcDbEntity
  8
1-1MA
  6
Continuous
 62
     7
100
AcDbLine
 10
137.826847333
 20
152.4364753997
 30
0.0
 11
156.1256297288
 21
152.4364753997
 31
0.0
  0
LINE
  5
25F
330
242
100
AcDbEntity
  8
1-1MA
  6
Continuous
 62
     7
100
AcDbLine
 10
95.126847333
 20
265.4364753997
 30
0.0
 11
77.1280649372
 21
265.4364753997
 31
0.0
  0
LINE
  5
260
330
242
100
AcDbEntity
  8
1-1MA
  6
Continuous
 62
     7
100
AcDbLine
 10
75.126847333
 20
245.4364753997
 30
0.0
 11
75.126847333
 21
263.4352577955
 31
0.0
  0
LINE
  5
261
330
242
100
AcDbEntity
  8
1-1MA
  6
Continuous
 62
     7
100
AcDbLine
 10
158.126847333
 20
263.4352577955
 30
0.0
 11
158.126847333
 21
245.4364753997
 31
0.0
  0
LINE
  5
262
330
242
100
AcDbEntity
  8
1-1MA
  6
Continuous
 62
     7
100
AcDbLine
 10
77.1280649372
 20
152.4364753997
 30
0.0
 11
75.126847333
 21
154.4376930039
 31
0.0
  0
LINE
  5
263
330
242
100
AcDbEntity
  8
1-1MA
  6
Continuous
 62
     7
100
AcDbLine
 10
75.126847333
 20
154.4376930039
 30
0.0
 11
75.126847333
 21
172.4364753997
 31
0.0
  0
CIRCLE
  5
264
330
242
100
AcDbEntity
  8
1-1MA
  6
Continuous
 62
     7
100
AcDbCircle
 10
84.626847333
 20
242.4364753997
 30
0.0
 40
2.1
  0
CIRCLE
  5
265
330
242
100
AcDbEntity
  8
1-1MA
  6
Continuous
 62
     7
100
AcDbCircle
 10
84.626847333
 20
175.4364753997
 30
0.0
 40
2.1
  0
CIRCLE
  5
266
330
242
100
AcDbEntity
  8
1-1MA
  6
Continuous
 62
     7
100
AcDbCircle
 10
148.626847333
 20
175.4364753997
 30
0.0
 40
2.1
  0
CIRCLE
  5
267
330
242
100
AcDbEntity
  8
1-1MA
  6
Continuous
 62
     7
100
AcDbCircle
 10
148.626847333
 20
242.4364753997
 30
0.0
 40
2.1
  0
LINE
  5
268
330
242
100
AcDbEntity
  8
1-1MA
  6
Continuous
 62
     7
100
AcDbLine
 10
156.6373052383
 20
263.946933305
 30
0.0
 11
157.672834784
 21
262.9812452465
 31
0.0
  0
LINE
  5
269
330
242
100
AcDbEntity
  8
1-1MA
  6
Continuous
 62
     7
100
AcDbLine
 10
158.126847333
 20
263.4352577955
 30
0.0
 11
156.1256297288
 21
265.4364753997
 31
0.0
  0
LINE
  5
26A
330
242
100
AcDbEntity
  8
1-1MA
  6
Continuous
 62
     7
100
AcDbLine
 10
75.580859882
 20
154.8917055529
 30
0.0
 11
75.580859882
 21
262.9812452465
 31
0.0
  0
LINE
  5
26B
330
242
100
AcDbEntity
  8
1-1MA
  6
Continuous
 62
     7
100
AcDbLine
 10
75.580859882
 20
262.9812452465
 30
0.0
 11
75.126847333
 21
263.4352577955
 31
0.0
  0
LINE
  5
26C
330
242
100
AcDbEntity
  8
1-1MA
  6
Continuous
 62
     7
100
AcDbLine
 10
77.1280649372
 20
152.4364753997
 30
0.0
 11
77.5820774862
 21
152.8904879487
 31
0.0
  0
LINE
  5
26D
330
242
100
AcDbEntity
  8
1-1MA
  6
Continuous
 62
     7
100
AcDbLine
 10
76.6163894277
 20
153.9260174944
 30
0.0
 11
75.580859882
 21
154.8917055529
 31
0.0
  0
LINE
  5
26E
330
242
100
AcDbEntity
  8
1-1MA
  6
Continuous
 62
     7
100
AcDbLine
 10
75.580859882
 20
154.8917055529
 30
0.0
 11
75.126847333
 21
154.4376930039
 31
0.0
  0
LINE
  5
26F
330
242
100
AcDbEntity
  8
1-1MA
  6
Continuous
 62
     7
100
AcDbLine
 10
158.126847333
 20
263.4352577955
 30
0.0
 11
157.672834784
 21
262.9812452465
 31
0.0
  0
LINE
  5
270
330
242
100
AcDbEntity
  8
1-1MA
  6
Continuous
 62
     7
100
AcDbLine
 10
157.672834784
 20
262.9812452465
 30
0.0
 11
157.672834784
 21
154.8917055529
 31
0.0
  0
LINE
  5
271
330
242
100
AcDbEntity
  8
1-1MA
  6
Continuous
 62
     7
100
AcDbLine
 10
157.672834784
 20
154.8917055529
 30
0.0
 11
158.126847333
 21
154.4376930039
 31
0.0
  0
LINE
  5
272
330
242
100
AcDbEntity
  8
1-1MA
  6
Continuous
 62
     7
100
AcDbLine
 10
156.1256297288
 20
152.4364753997
 30
0.0
 11
158.126847333
 21
154.4376930039
 31
0.0
  0
LINE
  5
273
330
242
100
AcDbEntity
  8
1-1MA
  6
Continuous
 62
     7
100
AcDbLine
 10
77.1280649372
 20
152.4364753997
 30
0.0
 11
95.426847333
 21
152.4364753997
 31
0.0
  0
LINE
  5
274
330
242
100
AcDbEntity
  8
1-1MA
  6
Continuous
 62
     7
100
AcDbLine
 10
156.1256297288
 20
152.4364753997
 30
0.0
 11
155.6716171798
 21
152.8904879487
 31
0.0
  0
LINE
  5
275
330
242
100
AcDbEntity
  8
1-1MA
  6
Continuous
 62
     7
100
AcDbLine
 10
76.6163894277
 20
263.946933305
 30
0.0
 11
77.5820774862
 21
264.9824628507
 31
0.0
  0
LINE
  5
276
330
242
100
AcDbEntity
  8
1-1MA
  6
Continuous
 62
     7
100
AcDbLine
 10
77.1280649372
 20
265.4364753997
 30
0.0
 11
75.126847333
 21
263.4352577955
 31
0.0
  0
LINE
  5
277
330
242
100
AcDbEntity
  8
1-1MA
  6
Continuous
 62
     7
100
AcDbLine
 10
155.6716171798
 20
264.9824628507
 30
0.0
 11
156.1256297288
 21
265.4364753997
 31
0.0
  0
LINE
  5
278
330
242
100
AcDbEntity
  8
1-1MA
  6
Continuous
 62
     7
100
AcDbLine
 10
156.1256297288
 20
265.4364753997
 30
0.0
 11
138.126847333
 21
265.4364753997
 31
0.0
  0
LINE
  5
279
330
242
100
AcDbEntity
  8
1-1MA
  6
Continuous
 62
     7
100
AcDbLine
 10
127.626847333
 20
265.4364753997
 30
0.0
 11
105.626847333
 21
265.4364753997
 31
0.0
  0
LINE
  5
27A
330
242
100
AcDbEntity
  8
1-1MA
  6
Continuous
 62
     7
100
AcDbLine
 10
77.1280649372
 20
265.4364753997
 30
0.0
 11
77.5820774862
 21
264.9824628507
 31
0.0
  0
CIRCLE
  5
27B
330
242
100
AcDbEntity
  8
1-1MA
  6
Continuous
 62
     7
100
AcDbCircle
 10
146.126847333
 20
208.9364753997
 30
0.0
 40
4.5
  0
CIRCLE
  5
27C
330
242
100
AcDbEntity
  8
1-1MA
  6
Continuous
 62
     7
100
AcDbCircle
 10
87.126847333
 20
251.9364753997
 30
0.0
 40
4.6752132060986
  0
CIRCLE
  5
27D
330
242
100
AcDbEntity
  8
1-1MA
  6
Continuous
 62
     7
100
AcDbCircle
 10
146.126847333
 20
251.9364753997
 30
0.0
 40
4.5
  0
CIRCLE
  5
27E
330
242
100
AcDbEntity
  8
1-1MA
  6
Continuous
 62
     7
100
AcDbCircle
 10
87.126847333
 20
165.9364753997
 30
0.0
 40
4.6752132060986
  0
CIRCLE
  5
27F
330
242
100
AcDbEntity
  8
1-1MA
  6
Continuous
 62
     7
100
AcDbCircle
 10
146.126847333
 20
251.9364753997
 30
0.0
 40
4.675213206098591
  0
CIRCLE
  5
280
330
242
100
AcDbEntity
  8
1-1MA
  6
Continuous
 62
     7
100
AcDbCircle
 10
87.126847333
 20
251.9364753997
 30
0.0
 40
4.5
  0
CIRCLE
  5
281
330
242
100
AcDbEntity
  8
1-1MA
  6
Continuous
 62
     7
100
AcDbCircle
 10
146.126847333
 20
165.9364753997
 30
0.0
 40
4.675213206098591
  0
CIRCLE
  5
282
330
242
100
AcDbEntity
  8
1-1MA
  6
Continuous
 62
     7
100
AcDbCircle
 10
146.126847333
 20
165.9364753997
 30
0.0
 40
4.5
  0
CIRCLE
  5
283
330
242
100
AcDbEntity
  8
1-1MA
  6
Continuous
 62
     7
100
AcDbCircle
 10
87.126847333
 20
208.9364753997
 30
0.0
 40
4.6752132060986
  0
CIRCLE
  5
284
330
242
100
AcDbEntity
  8
1-1MA
  6
Continuous
 62
     7
100
AcDbCircle
 10
87.126847333
 20
165.9364753997
 30
0.0
 40
4.5
  0
CIRCLE
  5
285
330
242
100
AcDbEntity
  8
1-1MA
  6
Continuous
 62
     7
100
AcDbCircle
 10
146.126847333
 20
208.9364753997
 30
0.0
 40
4.675213206098591
  0
CIRCLE
  5
286
330
242
100
AcDbEntity
  8
1-1MA
  6
Continuous
 62
     7
100
AcDbCircle
 10
87.126847333
 20
208.9364753997
 30
0.0
 40
4.5
  0
CIRCLE
  5
287
330
242
100
AcDbEntity
  8
1-1MA
  6
Continuous
 62
     7
100
AcDbCircle
 10
84.626847333
 20
242.4364753997
 30
0.0
 40
2.96602540378444
  0
CIRCLE
  5
288
330
242
100
AcDbEntity
  8
1-1MA
  6
Continuous
 62
     7
100
AcDbCircle
 10
84.626847333
 20
175.4364753997
 30
0.0
 40
2.96602540378443
  0
CIRCLE
  5
289
330
242
100
AcDbEntity
  8
1-1MA
  6
Continuous
 62
     7
100
AcDbCircle
 10
148.626847333
 20
175.4364753997
 30
0.0
 40
2.96602540378443
  0
CIRCLE
  5
28A
330
242
100
AcDbEntity
  8
1-1MA
  6
Continuous
 62
     7
100
AcDbCircle
 10
148.626847333
 20
242.4364753997
 30
0.0
 40
2.96602540378444
  0
CIRCLE
  5
28B
330
242
100
AcDbEntity
  8
1-1MA
  6
Continuous
 62
     7
100
AcDbCircle
 10
87.126847333
 20
251.9364753997
 30
0.0
 40
5.17490861960815
  0
CIRCLE
  5
28C
330
242
100
AcDbEntity
  8
1-1MA
  6
Continuous
 62
     7
100
AcDbCircle
 10
87.126847333
 20
208.9364753997
 30
0.0
 40
5.17490861960815
  0
CIRCLE
  5
28D
330
242
100
AcDbEntity
  8
1-1MA
  6
Continuous
 62
     7
100
AcDbCircle
 10
87.126847333
 20
165.9364753997
 30
0.0
 40
5.17490861960815
  0
CIRCLE
  5
28E
330
242
100
AcDbEntity
  8
1-1MA
  6
Continuous
 62
     7
100
AcDbCircle
 10
146.126847333
 20
208.9364753997
 30
0.0
 40
5.17490861960815
  0
CIRCLE
  5
28F
330
242
100
AcDbEntity
  8
1-1MA
  6
Continuous
 62
     7
100
AcDbCircle
 10
146.126847333
 20
165.9364753997
 30
0.0
 40
5.17490861960815
  0
CIRCLE
  5
290
330
242
100
AcDbEntity
  8
1-1MA
  6
Continuous
 62
     7
100
AcDbCircle
 10
146.126847333
 20
251.9364753997
 30
0.0
 40
5.17490861960815
  0
CIRCLE
  5
291
330
242
100
AcDbEntity
  8
1-1MA
  6
Continuous
 62
     7
100
AcDbCircle
 10
116.626847333
 20
208.9364753997
 30
0.0
 40
11.0
  0
LINE
  5
292
330
242
100
AcDbEntity
  8
1-1MA
  6
Continuous
 62
     7
100
AcDbLine
 10
138.126847333
 20
263.9481941711
 30
0.0
 11
138.126847333
 21
153.9247566283
 31
0.0
  0
LINE
  5
293
330
242
100
AcDbEntity
  8
1-1MA
  6
Continuous
 62
     7
100
AcDbLine
 10
138.126847333
 20
153.9247566283
 30
0.0
 11
139.126847333
 21
154.9602869421
 31
0.0
  0
LINE
  5
294
330
242
100
AcDbEntity
  8
1-1MA
  6
Continuous
 62
     7
100
AcDbLine
 10
139.126847333
 20
262.9126638573
 30
0.0
 11
138.126847333
 21
263.9481941711
 31
0.0
  0
LINE
  5
295
330
242
100
AcDbEntity
  8
1-1MA
  6
Continuous
 62
     7
100
AcDbLine
 10
76.6163894277
 20
153.9260174944
 30
0.0
 11
77.6506588754
 21
154.9602869421
 31
0.0
  0
LINE
  5
296
330
242
100
AcDbEntity
  8
1-1MA
  6
Continuous
 62
     7
100
AcDbLine
 10
77.6506588754
 20
154.9602869421
 30
0.0
 11
77.6506588754
 21
262.9126638573
 31
0.0
  0
LINE
  5
297
330
242
100
AcDbEntity
  8
1-1MA
  6
Continuous
 62
     7
100
AcDbLine
 10
77.6506588754
 20
262.9126638573
 30
0.0
 11
76.6163894277
 21
263.946933305
 31
0.0
  0
LINE
  5
298
330
242
100
AcDbEntity
  8
1-1MA
  6
Continuous
 62
     7
100
AcDbLine
 10
76.6163894277
 20
263.946933305
 30
0.0
 11
75.580859882
 21
262.9812452465
 31
0.0
  0
LINE
  5
299
330
242
100
AcDbEntity
  8
1-1MA
  6
Continuous
 62
     7
100
AcDbLine
 10
156.6373052383
 20
153.9260174944
 30
0.0
 11
157.672834784
 21
154.8917055529
 31
0.0
  0
LINE
  5
29A
330
242
100
AcDbEntity
  8
1-1MA
  6
Continuous
 62
     7
100
AcDbLine
 10
95.126847333
 20
153.9247566283
 30
0.0
 11
95.126847333
 21
263.9481941711
 31
0.0
  0
LINE
  5
29B
330
242
100
AcDbEntity
  8
1-1MA
  6
Continuous
 62
     7
100
AcDbLine
 10
94.126847333
 20
154.9602869421
 30
0.0
 11
94.126847333
 21
262.9126638573
 31
0.0
  0
LINE
  5
29C
330
242
100
AcDbEntity
  8
1-1MA
  6
Continuous
 62
     7
100
AcDbLine
 10
139.126847333
 20
154.9602869421
 30
0.0
 11
155.6030357906
 21
154.9602869421
 31
0.0
  0
LINE
  5
29D
330
242
100
AcDbEntity
  8
1-1MA
  6
Continuous
 62
     7
100
AcDbLine
 10
155.6030357906
 20
154.9602869421
 30
0.0
 11
155.6030357906
 21
262.9126638573
 31
0.0
  0
LINE
  5
29E
330
242
100
AcDbEntity
  8
1-1MA
  6
Continuous
 62
     7
100
AcDbLine
 10
139.126847333
 20
262.9126638573
 30
0.0
 11
139.126847333
 21
154.9602869421
 31
0.0
  0
LINE
  5
29F
330
242
100
AcDbEntity
  8
1-1MA
  6
Continuous
 62
     7
100
AcDbLine
 10
77.6506588754
 20
262.9126638573
 30
0.0
 11
94.126847333
 21
262.9126638573
 31
0.0
  0
LINE
  5
2A0
330
242
100
AcDbEntity
  8
1-1MA
  6
Continuous
 62
     7
100
AcDbLine
 10
94.126847333
 20
262.9126638573
 30
0.0
 11
95.126847333
 21
263.9481941711
 31
0.0
  0
LINE
  5
2A1
330
242
100
AcDbEntity
  8
1-1MA
  6
Continuous
 62
     7
100
AcDbLine
 10
95.126847333
 20
263.9481941711
 30
0.0
 11
138.126847333
 21
263.9481941711
 31
0.0
  0
LINE
  5
2A2
330
242
100
AcDbEntity
  8
1-1MA
  6
Continuous
 62
     7
100
AcDbLine
 10
139.126847333
 20
262.9126638573
 30
0.0
 11
155.6030357906
 21
262.9126638573
 31
0.0
  0
LINE
  5
2A3
330
242
100
AcDbEntity
  8
1-1MA
  6
Continuous
 62
     7
100
AcDbLine
 10
155.6030357906
 20
262.9126638573
 30
0.0
 11
156.6373052383
 21
263.946933305
 31
0.0
  0
LINE
  5
2A4
330
242
100
AcDbEntity
  8
1-1MA
  6
Continuous
 62
     7
100
AcDbLine
 10
156.6373052383
 20
263.946933305
 30
0.0
 11
155.6716171798
 21
264.9824628507
 31
0.0
  0
LINE
  5
2A5
330
242
100
AcDbEntity
  8
1-1MA
  6
Continuous
 62
     7
100
AcDbLine
 10
155.6716171798
 20
264.9824628507
 30
0.0
 11
77.5820774862
 21
264.9824628507
 31
0.0
  0
LINE
  5
2A6
330
242
100
AcDbEntity
  8
1-1MA
  6
Continuous
 62
     7
100
AcDbLine
 10
94.126847333
 20
154.9602869421
 30
0.0
 11
77.6506588754
 21
154.9602869421
 31
0.0
  0
LINE
  5
2A7
330
242
100
AcDbEntity
  8
1-1MA
  6
Continuous
 62
     7
100
AcDbLine
 10
76.6163894277
 20
153.9260174944
 30
0.0
 11
77.5820774862
 21
152.8904879487
 31
0.0
  0
LINE
  5
2A8
330
242
100
AcDbEntity
  8
1-1MA
  6
Continuous
 62
     7
100
AcDbLine
 10
77.5820774862
 20
152.8904879487
 30
0.0
 11
155.6716171798
 21
152.8904879487
 31
0.0
  0
LINE
  5
2A9
330
242
100
AcDbEntity
  8
1-1MA
  6
Continuous
 62
     7
100
AcDbLine
 10
155.6716171798
 20
152.8904879487
 30
0.0
 11
156.6373052383
 21
153.9260174944
 31
0.0
  0
LINE
  5
2AA
330
242
100
AcDbEntity
  8
1-1MA
  6
Continuous
 62
     7
100
AcDbLine
 10
156.6373052383
 20
153.9260174944
 30
0.0
 11
155.6030357906
 21
154.9602869421
 31
0.0
  0
LINE
  5
2AB
330
242
100
AcDbEntity
  8
1-1MA
  6
Continuous
 62
     7
100
AcDbLine
 10
138.126847333
 20
153.9247566283
 30
0.0
 11
95.126847333
 21
153.9247566283
 31
0.0
  0
LINE
  5
2AC
330
242
100
AcDbEntity
  8
1-1MA
  6
Continuous
 62
     7
100
AcDbLine
 10
95.126847333
 20
153.9247566283
 30
0.0
 11
94.126847333
 21
154.9602869421
 31
0.0
  0
CIRCLE
  5
2AD
330
242
100
AcDbEntity
  8
1-1MA
  6
Continuous
 62
     7
100
AcDbCircle
 10
146.126847333
 20
165.9364753997
 30
0.0
 40
3.5
  0
CIRCLE
  5
2AE
330
242
100
AcDbEntity
  8
1-1MA
  6
Continuous
 62
     7
100
AcDbCircle
 10
146.126847333
 20
165.9364753997
 30
0.0
 40
3.15
  0
LINE
  5
2AF
330
242
100
AcDbEntity
  8
1-1MA
  6
Continuous
 62
     7
100
AcDbLine
 10
146.1266253325
 20
167.6689753855
 30
0.0
 11
146.126847333
 21
167.6691035575
 31
0.0
  0
LINE
  5
2B0
330
242
100
AcDbEntity
  8
1-1MA
  6
Continuous
 62
     7
100
AcDbLine
 10
146.126847333
 20
167.6691035575
 30
0.0
 11
146.1270693335
 21
167.6689753855
 31
0.0
  0
ARC
  5
2B1
330
242
100
AcDbEntity
  8
1-1MA
  6
Continuous
 62
     7
100
AcDbCircle
 10
146.126847333
 20
165.9364753997
 30
0.0
 40
1.732500000000003
100
AcDbArc
 50
30.0073418142
 51
89.9926581858
  0
LINE
  5
2B2
330
242
100
AcDbEntity
  8
1-1MA
  6
Continuous
 62
     7
100
AcDbLine
 10
147.6271253325
 20
166.8029176507
 30
0.0
 11
147.627347333
 21
166.8027894786
 31
0.0
  0
LINE
  5
2B3
330
242
100
AcDbEntity
  8
1-1MA
  6
Continuous
 62
     7
100
AcDbLine
 10
147.627347333
 20
166.8027894786
 30
0.0
 11
147.627347333
 21
166.8025331345
 31
0.0
  0
ARC
  5
2B4
330
242
100
AcDbEntity
  8
1-1MA
  6
Continuous
 62
     7
100
AcDbCircle
 10
146.126847333
 20
165.9364753997
 30
0.0
 40
1.732499999999999
100
AcDbArc
 50
330.0073418142
 51
29.9926581858
  0
LINE
  5
2B5
330
242
100
AcDbEntity
  8
1-1MA
  6
Continuous
 62
     7
100
AcDbLine
 10
147.627347333
 20
165.0704176649
 30
0.0
 11
147.627347333
 21
165.0701613208
 31
0.0
  0
LINE
  5
2B6
330
242
100
AcDbEntity
  8
1-1MA
  6
Continuous
 62
     7
100
AcDbLine
 10
147.627347333
 20
165.0701613208
 30
0.0
 11
147.6271253325
 21
165.0700331487
 31
0.0
  0
ARC
  5
2B7
330
242
100
AcDbEntity
  8
1-1MA
  6
Continuous
 62
     7
100
AcDbCircle
 10
146.126847333
 20
165.9364753997
 30
0.0
 40
1.732500000000003
100
AcDbArc
 50
270.0073418142
 51
329.9926581858
  0
LINE
  5
2B8
330
242
100
AcDbEntity
  8
1-1MA
  6
Continuous
 62
     7
100
AcDbLine
 10
146.1270693335
 20
164.2039754139
 30
0.0
 11
146.126847333
 21
164.2038472418
 31
0.0
  0
LINE
  5
2B9
330
242
100
AcDbEntity
  8
1-1MA
  6
Continuous
 62
     7
100
AcDbLine
 10
146.126847333
 20
164.2038472418
 30
0.0
 11
146.1266253325
 21
164.2039754139
 31
0.0
  0
ARC
  5
2BA
330
242
100
AcDbEntity
  8
1-1MA
  6
Continuous
 62
     7
100
AcDbCircle
 10
146.126847333
 20
165.9364753997
 30
0.0
 40
1.732500000000003
100
AcDbArc
 50
210.0073418142
 51
269.9926581858
  0
LINE
  5
2BB
330
242
100
AcDbEntity
  8
1-1MA
  6
Continuous
 62
     7
100
AcDbLine
 10
144.6265693335
 20
165.0700331487
 30
0.0
 11
144.626347333
 21
165.0701613208
 31
0.0
  0
LINE
  5
2BC
330
242
100
AcDbEntity
  8
1-1MA
  6
Continuous
 62
     7
100
AcDbLine
 10
144.626347333
 20
165.0701613208
 30
0.0
 11
144.626347333
 21
165.0704176649
 31
0.0
  0
ARC
  5
2BD
330
242
100
AcDbEntity
  8
1-1MA
  6
Continuous
 62
     7
100
AcDbCircle
 10
146.126847333
 20
165.9364753997
 30
0.0
 40
1.732499999999999
100
AcDbArc
 50
150.0073418142
 51
209.9926581858
  0
LINE
  5
2BE
330
242
100
AcDbEntity
  8
1-1MA
  6
Continuous
 62
     7
100
AcDbLine
 10
144.626347333
 20
166.8025331345
 30
0.0
 11
144.626347333
 21
166.8027894786
 31
0.0
  0
LINE
  5
2BF
330
242
100
AcDbEntity
  8
1-1MA
  6
Continuous
 62
     7
100
AcDbLine
 10
144.626347333
 20
166.8027894786
 30
0.0
 11
144.6265693335
 21
166.8029176507
 31
0.0
  0
ARC
  5
2C0
330
242
100
AcDbEntity
  8
1-1MA
  6
Continuous
 62
     7
100
AcDbCircle
 10
146.126847333
 20
165.9364753997
 30
0.0
 40
1.732500000000002
100
AcDbArc
 50
90.0073418142
 51
149.9926581858
  0
LINE
  5
2C1
330
242
100
AcDbEntity
  8
1-1MA
  6
Continuous
 62
     7
100
AcDbLine
 10
147.6271253325
 20
165.0700331487
 30
0.0
 11
146.1270693335
 21
164.2039754139
 31
0.0
  0
LINE
  5
2C2
330
242
100
AcDbEntity
  8
1-1MA
  6
Continuous
 62
     7
100
AcDbLine
 10
146.1266253325
 20
164.2039754139
 30
0.0
 11
144.6265693335
 21
165.0700331487
 31
0.0
  0
LINE
  5
2C3
330
242
100
AcDbEntity
  8
1-1MA
  6
Continuous
 62
     7
100
AcDbLine
 10
147.627347333
 20
166.8025331345
 30
0.0
 11
147.627347333
 21
165.0704176649
 31
0.0
  0
LINE
  5
2C4
330
242
100
AcDbEntity
  8
1-1MA
  6
Continuous
 62
     7
100
AcDbLine
 10
146.1270693335
 20
167.6689753855
 30
0.0
 11
147.6271253325
 21
166.8029176507
 31
0.0
  0
LINE
  5
2C5
330
242
100
AcDbEntity
  8
1-1MA
  6
Continuous
 62
     7
100
AcDbLine
 10
144.626347333
 20
165.0704176649
 30
0.0
 11
144.626347333
 21
166.8025331345
 31
0.0
  0
LINE
  5
2C6
330
242
100
AcDbEntity
  8
1-1MA
  6
Continuous
 62
     7
100
AcDbLine
 10
144.6265693335
 20
166.8029176507
 30
0.0
 11
146.1266253325
 21
167.6689753855
 31
0.0
  0
LINE
  5
2C7
330
242
100
AcDbEntity
  8
1-1MA
  6
Continuous
 62
     7
100
AcDbLine
 10
126.4418019092
 20
208.9364753997
 30
0.0
 11
121.5343246211
 21
200.4364753997
 31
0.0
  0
LINE
  5
2C8
330
242
100
AcDbEntity
  8
1-1MA
  6
Continuous
 62
     7
100
AcDbLine
 10
121.5343246211
 20
217.4364753997
 30
0.0
 11
126.4418019092
 21
208.9364753997
 31
0.0
  0
LINE
  5
2C9
330
242
100
AcDbEntity
  8
1-1MA
  6
Continuous
 62
     7
100
AcDbLine
 10
111.7193700449
 20
217.4364753997
 30
0.0
 11
121.5343246211
 21
217.4364753997
 31
0.0
  0
LINE
  5
2CA
330
242
100
AcDbEntity
  8
1-1MA
  6
Continuous
 62
     7
100
AcDbLine
 10
106.8118927568
 20
208.9364753997
 30
0.0
 11
111.7193700449
 21
217.4364753997
 31
0.0
  0
LINE
  5
2CB
330
242
100
AcDbEntity
  8
1-1MA
  6
Continuous
 62
     7
100
AcDbLine
 10
111.7193700449
 20
200.4364753997
 30
0.0
 11
106.8118927568
 21
208.9364753997
 31
0.0
  0
LINE
  5
2CC
330
242
100
AcDbEntity
  8
1-1MA
  6
Continuous
 62
     7
100
AcDbLine
 10
121.5343246211
 20
200.4364753997
 30
0.0
 11
111.7193700449
 21
200.4364753997
 31
0.0
  0
LINE
  5
2CD
330
242
100
AcDbEntity
  8
1-1MA
  6
Continuous
 62
     7
100
AcDbLine
 10
121.2456494865
 20
216.9364753997
 30
0.0
 11
112.0080451795
 21
216.9364753997
 31
0.0
  0
LINE
  5
2CE
330
242
100
AcDbEntity
  8
1-1MA
  6
Continuous
 62
     7
100
AcDbLine
 10
112.0080451795
 20
216.9364753997
 30
0.0
 11
107.389243026
 21
208.9364753997
 31
0.0
  0
LINE
  5
2CF
330
242
100
AcDbEntity
  8
1-1MA
  6
Continuous
 62
     7
100
AcDbLine
 10
107.389243026
 20
208.9364753997
 30
0.0
 11
112.0080451795
 21
200.9364753997
 31
0.0
  0
LINE
  5
2D0
330
242
100
AcDbEntity
  8
1-1MA
  6
Continuous
 62
     7
100
AcDbLine
 10
112.0080451795
 20
200.9364753997
 30
0.0
 11
121.2456494865
 21
200.9364753997
 31
0.0
  0
LINE
  5
2D1
330
242
100
AcDbEntity
  8
1-1MA
  6
Continuous
 62
     7
100
AcDbLine
 10
121.2456494865
 20
200.9364753997
 30
0.0
 11
125.86445164
 21
208.9364753997
 31
0.0
  0
LINE
  5
2D2
330
242
100
AcDbEntity
  8
1-1MA
  6
Continuous
 62
     7
100
AcDbLine
 10
125.86445164
 20
208.9364753997
 30
0.0
 11
121.2456494865
 21
216.9364753997
 31
0.0
  0
CIRCLE
  5
2D3
330
242
100
AcDbEntity
  8
1-1MA
  6
Continuous
 62
     7
100
AcDbCircle
 10
116.626847333
 20
208.9364753997
 30
0.0
 40
7.5
  0
CIRCLE
  5
2D4
330
242
100
AcDbEntity
  8
1-1MA
  6
Continuous
 62
     7
100
AcDbCircle
 10
116.626847333
 20
208.9364753997
 30
0.0
 40
6.5
  0
ARC
  5
2D5
330
242
100
AcDbEntity
  8
1-1MA
  6
Continuous
 62
     7
100
AcDbCircle
 10
116.626847333
 20
208.9364753997
 30
0.0
 40
4.999999999999961
100
AcDbArc
 50
158.6269265587
 51
261.3730734413
  0
ARC
  5
2D6
330
242
100
AcDbEntity
  8
1-1MA
  6
Continuous
 62
     7
100
AcDbCircle
 10
116.626847333
 20
208.9364753997
 30
0.0
 40
4.9999999999997
100
AcDbArc
 50
278.6269265587
 51
21.3730734413
  0
CIRCLE
  5
2D7
330
242
100
AcDbEntity
  8
1-1MA
  6
Continuous
 62
     7
100
AcDbCircle
 10
116.626847333
 20
208.9364753997
 30
0.0
 40
5.5
  0
LINE
  5
2D8
330
242
100
AcDbEntity
  8
1-1MA
  6
Continuous
 62
     7
100
AcDbLine
 10
119.1123959806
 20
211.2375329842
 30
0.0
 11
120.5329832804
 21
212.0577094442
 31
0.0
  0
LINE
  5
2D9
330
242
100
AcDbEntity
  8
1-1MA
  6
Continuous
 62
     7
100
AcDbLine
 10
121.2456494865
 20
200.9364753997
 30
0.0
 11
121.5343246211
 21
200.4364753997
 31
0.0
  0
LINE
  5
2DA
330
242
100
AcDbEntity
  8
1-1MA
  6
Continuous
 62
     7
100
AcDbLine
 10
126.4418019092
 20
208.9364753997
 30
0.0
 11
125.86445164
 21
208.9364753997
 31
0.0
  0
LINE
  5
2DB
330
242
100
AcDbEntity
  8
1-1MA
  6
Continuous
 62
     7
100
AcDbLine
 10
112.0080451795
 20
200.9364753997
 30
0.0
 11
111.7193700449
 21
200.4364753997
 31
0.0
  0
LINE
  5
2DC
330
242
100
AcDbEntity
  8
1-1MA
  6
Continuous
 62
     7
100
AcDbLine
 10
106.8118927568
 20
208.9364753997
 30
0.0
 11
107.389243026
 21
208.9364753997
 31
0.0
  0
LINE
  5
2DD
330
242
100
AcDbEntity
  8
1-1MA
  6
Continuous
 62
     7
100
AcDbLine
 10
121.2456494865
 20
216.9364753997
 30
0.0
 11
121.5343246211
 21
217.4364753997
 31
0.0
  0
LINE
  5
2DE
330
242
100
AcDbEntity
  8
1-1MA
  6
Continuous
 62
     7
100
AcDbLine
 10
111.7193700449
 20
217.4364753997
 30
0.0
 11
112.0080451795
 21
216.9364753997
 31
0.0
  0
ARC
  5
2DF
330
242
100
AcDbEntity
  8
1-1MA
  6
Continuous
 62
     7
100
AcDbCircle
 10
116.626847333
 20
208.9364753997
 30
0.0
 40
5.00000000000009
100
AcDbArc
 50
38.6269265587
 51
141.3730734413
  0
ARC
  5
2E0
330
242
100
AcDbEntity
  8
1-1MA
  6
Continuous
 62
     7
100
AcDbCircle
 10
116.626847333
 20
215.4216997435
 30
0.0
 40
4.866744656203696
100
AcDbArc
 50
240.711866447
 51
300.711866447
  0
ARC
  5
2E1
330
242
100
AcDbEntity
  8
1-1MA
  6
Continuous
 62
     7
100
AcDbCircle
 10
116.626847333
 20
208.9364753997
 30
0.0
 40
5.000000000000078
100
AcDbArc
 50
141.3730734413
 51
158.6269265587
  0
LINE
  5
2E2
330
242
100
AcDbEntity
  8
1-1MA
  6
Continuous
 62
     7
100
AcDbLine
 10
111.9707113856
 20
210.7586713385
 30
0.0
 11
113.3912986854
 21
209.9384948786
 31
0.0
  0
LINE
  5
2E3
330
242
100
AcDbEntity
  8
1-1MA
  6
Continuous
 62
     7
100
AcDbLine
 10
115.876847333
 20
205.7543281193
 30
0.0
 11
115.876847333
 21
203.9930454164
 31
0.0
  0
ARC
  5
2E4
330
242
100
AcDbEntity
  8
1-1MA
  6
Continuous
 62
     7
100
AcDbCircle
 10
116.626847333
 20
208.9364753997
 30
0.0
 40
4.9999999999997
100
AcDbArc
 50
261.3730734413
 51
278.6269265587
  0
LINE
  5
2E5
330
242
100
AcDbEntity
  8
1-1MA
  6
Continuous
 62
     7
100
AcDbLine
 10
119.7576677164
 20
209.878029987
 30
0.0
 11
121.2829832804
 21
210.7586713385
 31
0.0
  0
ARC
  5
2E6
330
242
100
AcDbEntity
  8
1-1MA
  6
Continuous
 62
     7
100
AcDbCircle
 10
116.626847333
 20
208.9364753997
 30
0.0
 40
4.999999999999974
100
AcDbArc
 50
21.3730734413
 51
38.6269265587
  0
ARC
  5
2E7
330
242
100
AcDbEntity
  8
1-1MA
  6
Continuous
 62
     7
100
AcDbCircle
 10
111.010478302
 20
205.6938632278
 30
0.0
 40
4.86674465620341
100
AcDbArc
 50
0.711866447
 51
60.711866447
  0
LINE
  5
2E8
330
242
100
AcDbEntity
  8
1-1MA
  6
Continuous
 62
     7
100
AcDbLine
 10
112.7207113856
 20
212.0577094442
 30
0.0
 11
114.2460269496
 21
211.1770680927
 31
0.0
  0
ARC
  5
2E9
330
242
100
AcDbEntity
  8
1-1MA
  6
Continuous
 62
     7
100
AcDbCircle
 10
122.243216364
 20
205.6938632278
 30
0.0
 40
4.8667446562031
100
AcDbArc
 50
120.711866447
 51
180.711866447
  0
LINE
  5
2EA
330
242
100
AcDbEntity
  8
1-1MA
  6
Continuous
 62
     7
100
AcDbLine
 10
117.376847333
 20
205.6333983362
 30
0.0
 11
117.376847333
 21
203.9930454164
 31
0.0
  0
CIRCLE
  5
2EB
330
242
100
AcDbEntity
  8
1-1MA
  6
Continuous
 62
     7
100
AcDbCircle
 10
148.626847333
 20
242.4364753997
 30
0.0
 40
1.8265927272727
  0
LINE
  5
2EC
330
242
100
AcDbEntity
  8
1-1MA
  6
Continuous
 62
     7
100
AcDbLine
 10
149.876347333
 20
241.7150762383
 30
0.0
 11
148.626847333
 21
240.993677077
 31
0.0
  0
LINE
  5
2ED
330
242
100
AcDbEntity
  8
1-1MA
  6
Continuous
 62
     7
100
AcDbLine
 10
148.626847333
 20
240.993677077
 30
0.0
 11
147.377347333
 21
241.7150762383
 31
0.0
  0
LINE
  5
2EE
330
242
100
AcDbEntity
  8
1-1MA
  6
Continuous
 62
     7
100
AcDbLine
 10
147.377347333
 20
241.7150762383
 30
0.0
 11
147.377347333
 21
243.157874561
 31
0.0
  0
LINE
  5
2EF
330
242
100
AcDbEntity
  8
1-1MA
  6
Continuous
 62
     7
100
AcDbLine
 10
147.377347333
 20
243.157874561
 30
0.0
 11
148.626847333
 21
243.8792737224
 31
0.0
  0
LINE
  5
2F0
330
242
100
AcDbEntity
  8
1-1MA
  6
Continuous
 62
     7
100
AcDbLine
 10
148.626847333
 20
243.8792737224
 30
0.0
 11
149.876347333
 21
243.157874561
 31
0.0
  0
LINE
  5
2F1
330
242
100
AcDbEntity
  8
1-1MA
  6
Continuous
 62
     7
100
AcDbLine
 10
149.876347333
 20
243.157874561
 30
0.0
 11
149.876347333
 21
241.7150762383
 31
0.0
  0
LINE
  5
2F2
330
242
100
AcDbEntity
  8
1-1MA
  6
Continuous
 62
     7
100
AcDbLine
 10
74.626847333
 20
220.2521740038
 30
0.0
 11
74.626847333
 21
223.9364753997
 31
0.0
  0
LINE
  5
2F3
330
242
100
AcDbEntity
  8
1-1MA
  6
Continuous
 62
     7
100
AcDbLine
 10
74.626847333
 20
220.2521740038
 30
0.0
 11
74.626847333
 21
196.4364753997
 31
0.0
  0
LINE
  5
2F4
330
242
100
AcDbEntity
  8
1-1MA
  6
Continuous
 62
     7
100
AcDbLine
 10
74.626847333
 20
196.4364753997
 30
0.0
 11
74.626847333
 21
172.6207767956
 31
0.0
  0
LINE
  5
2F5
330
242
100
AcDbEntity
  8
1-1MA
  6
Continuous
 62
     7
100
AcDbLine
 10
74.626847333
 20
172.6207767956
 30
0.0
 11
74.626847333
 21
171.9364753997
 31
0.0
  0
LINE
  5
2F6
330
242
100
AcDbEntity
  8
1-1MA
  6
Continuous
 62
     7
100
AcDbLine
 10
159.126847333
 20
204.1364753997
 30
0.0
 11
159.126847333
 21
188.7364753997
 31
0.0
  0
LINE
  5
2F7
330
242
100
AcDbEntity
  8
1-1MA
  6
Continuous
 62
     7
100
AcDbLine
 10
74.126847333
 20
204.1364753997
 30
0.0
 11
74.126847333
 21
188.7364753997
 31
0.0
  0
LINE
  5
2F8
330
242
100
AcDbEntity
  8
1-1MA
  6
Continuous
 62
     7
100
AcDbLine
 10
158.626847333
 20
220.2521740038
 30
0.0
 11
158.626847333
 21
223.9364753997
 31
0.0
  0
LINE
  5
2F9
330
242
100
AcDbEntity
  8
1-1MA
  6
Continuous
 62
     7
100
AcDbLine
 10
158.626847333
 20
171.9364753997
 30
0.0
 11
158.626847333
 21
172.6207767956
 31
0.0
  0
LINE
  5
2FA
330
242
100
AcDbEntity
  8
1-1MA
  6
Continuous
 62
     7
100
AcDbLine
 10
158.626847333
 20
172.6207767956
 30
0.0
 11
158.626847333
 21
196.4364753997
 31
0.0
  0
LINE
  5
2FB
330
242
100
AcDbEntity
  8
1-1MA
  6
Continuous
 62
     7
100
AcDbLine
 10
158.626847333
 20
196.4364753997
 30
0.0
 11
158.626847333
 21
220.2521740038
 31
0.0
  0
LINE
  5
2FC
330
242
100
AcDbEntity
  8
1-1MA
  6
Continuous
 62
     7
100
AcDbLine
 10
111.7193700449
 20
265.4364754016
 30
0.0
 11
111.7193700449
 21
266.9364753997
 31
0.0
  0
LINE
  5
2FD
330
242
100
AcDbEntity
  8
1-1MA
  6
Continuous
 62
     7
100
AcDbLine
 10
111.7193700449
 20
266.9364753997
 30
0.0
 11
106.8118927568
 21
266.9364753997
 31
0.0
  0
LINE
  5
2FE
330
242
100
AcDbEntity
  8
1-1MA
  6
Continuous
 62
     7
100
AcDbLine
 10
106.8118927568
 20
266.9364753997
 30
0.0
 11
106.8118927568
 21
265.4364753997
 31
0.0
  0
LINE
  5
2FF
330
242
100
AcDbEntity
  8
1-1MA
  6
Continuous
 62
     7
100
AcDbLine
 10
121.5343246211
 20
265.4364754016
 30
0.0
 11
121.5343246211
 21
266.9364753997
 31
0.0
  0
LINE
  5
300
330
242
100
AcDbEntity
  8
1-1MA
  6
Continuous
 62
     7
100
AcDbLine
 10
121.5343246211
 20
266.9364753997
 30
0.0
 11
111.7193700449
 21
266.9364753997
 31
0.0
  0
LINE
  5
301
330
242
100
AcDbEntity
  8
1-1MA
  6
Continuous
 62
     7
100
AcDbLine
 10
126.4418019092
 20
266.9364753997
 30
0.0
 11
121.5343246211
 21
266.9364753997
 31
0.0
  0
LINE
  5
302
330
242
100
AcDbEntity
  8
1-1MA
  6
Continuous
 62
     7
100
AcDbLine
 10
126.4418019092
 20
266.9364753997
 30
0.0
 11
126.4418019092
 21
265.4364753997
 31
0.0
  0
LINE
  5
303
330
242
100
AcDbEntity
  8
1-1MA
  6
Continuous
 62
     7
100
AcDbLine
 10
107.389243026
 20
267.4364753997
 30
0.0
 11
112.0080451795
 21
267.4364753997
 31
0.0
  0
LINE
  5
304
330
242
100
AcDbEntity
  8
1-1MA
  6
Continuous
 62
     7
100
AcDbLine
 10
112.0080451795
 20
267.4364753997
 30
0.0
 11
121.2456494865
 21
267.4364753997
 31
0.0
  0
LINE
  5
305
330
242
100
AcDbEntity
  8
1-1MA
  6
Continuous
 62
     7
100
AcDbLine
 10
121.2456494865
 20
267.4364753997
 30
0.0
 11
125.86445164
 21
267.4364753997
 31
0.0
  0
LINE
  5
306
330
242
100
AcDbEntity
  8
1-1MA
  6
Continuous
 62
     7
100
AcDbLine
 10
108.173494333
 20
269.4364753997
 30
0.0
 11
125.173494333
 21
269.4364753997
 31
0.0
  0
LINE
  5
307
330
242
100
AcDbEntity
  8
1-1MA
  6
Continuous
 62
     7
100
AcDbLine
 10
109.673494333
 20
279.4364753997
 30
0.0
 11
123.673494333
 21
279.4364753997
 31
0.0
  0
LINE
  5
308
330
242
100
AcDbEntity
  8
1-1MA
  6
Continuous
 62
     7
100
AcDbLine
 10
108.173494333
 20
277.9364753997
 30
0.0
 11
125.173494333
 21
277.9364753997
 31
0.0
  0
LINE
  5
309
330
242
100
AcDbEntity
  8
1-1MA
  6
Continuous
 62
     7
100
AcDbLine
 10
107.389243026
 20
267.4364753997
 30
0.0
 11
106.8118927568
 21
266.9364753997
 31
0.0
  0
LINE
  5
30A
330
242
100
AcDbEntity
  8
1-1MA
  6
Continuous
 62
     7
100
AcDbLine
 10
112.0080451795
 20
267.4364753997
 30
0.0
 11
111.7193700449
 21
266.9364753997
 31
0.0
  0
LINE
  5
30B
330
242
100
AcDbEntity
  8
1-1MA
  6
Continuous
 62
     7
100
AcDbLine
 10
121.5343246211
 20
266.9364753997
 30
0.0
 11
121.2456494865
 21
267.4364753997
 31
0.0
  0
LINE
  5
30C
330
242
100
AcDbEntity
  8
1-1MA
  6
Continuous
 62
     7
100
AcDbLine
 10
125.86445164
 20
267.4364753997
 30
0.0
 11
126.4418019092
 21
266.9364753997
 31
0.0
  0
LINE
  5
30D
330
242
100
AcDbEntity
  8
1-1MA
  6
Continuous
 62
     7
100
AcDbLine
 10
88.6271253325
 20
166.8029176507
 30
0.0
 11
88.627347333
 21
166.8027894786
 31
0.0
  0
LINE
  5
30E
330
242
100
AcDbEntity
  8
1-1MA
  6
Continuous
 62
     7
100
AcDbLine
 10
87.1270693335
 20
167.6689753855
 30
0.0
 11
88.6271253325
 21
166.8029176507
 31
0.0
  0
LINE
  5
30F
330
242
100
AcDbEntity
  8
1-1MA
  6
Continuous
 62
     7
100
AcDbLine
 10
87.126847333
 20
167.6691035575
 30
0.0
 11
87.1270693335
 21
167.6689753855
 31
0.0
  0
LINE
  5
310
330
242
100
AcDbEntity
  8
1-1MA
  6
Continuous
 62
     7
100
AcDbLine
 10
85.626347333
 20
166.8025331345
 30
0.0
 11
85.626347333
 21
166.8027894786
 31
0.0
  0
LINE
  5
311
330
242
100
AcDbEntity
  8
1-1MA
  6
Continuous
 62
     7
100
AcDbLine
 10
85.626347333
 20
165.0704176649
 30
0.0
 11
85.626347333
 21
166.8025331345
 31
0.0
  0
LINE
  5
312
330
242
100
AcDbEntity
  8
1-1MA
  6
Continuous
 62
     7
100
AcDbLine
 10
85.626347333
 20
165.0701613208
 30
0.0
 11
85.626347333
 21
165.0704176649
 31
0.0
  0
LINE
  5
313
330
242
100
AcDbEntity
  8
1-1MA
  6
Continuous
 62
     7
100
AcDbLine
 10
85.6265693335
 20
165.0700331487
 30
0.0
 11
85.626347333
 21
165.0701613208
 31
0.0
  0
LINE
  5
314
330
242
100
AcDbEntity
  8
1-1MA
  6
Continuous
 62
     7
100
AcDbLine
 10
87.1266253325
 20
164.2039754139
 30
0.0
 11
85.6265693335
 21
165.0700331487
 31
0.0
  0
LINE
  5
315
330
242
100
AcDbEntity
  8
1-1MA
  6
Continuous
 62
     7
100
AcDbLine
 10
87.126847333
 20
164.2038472418
 30
0.0
 11
87.1266253325
 21
164.2039754139
 31
0.0
  0
LINE
  5
316
330
242
100
AcDbEntity
  8
1-1MA
  6
Continuous
 62
     7
100
AcDbLine
 10
87.1270693335
 20
164.2039754139
 30
0.0
 11
87.126847333
 21
164.2038472418
 31
0.0
  0
LINE
  5
317
330
242
100
AcDbEntity
  8
1-1MA
  6
Continuous
 62
     7
100
AcDbLine
 10
88.6271253325
 20
165.0700331487
 30
0.0
 11
87.1270693335
 21
164.2039754139
 31
0.0
  0
LINE
  5
318
330
242
100
AcDbEntity
  8
1-1MA
  6
Continuous
 62
     7
100
AcDbLine
 10
88.627347333
 20
165.0701613208
 30
0.0
 11
88.6271253325
 21
165.0700331487
 31
0.0
  0
LINE
  5
319
330
242
100
AcDbEntity
  8
1-1MA
  6
Continuous
 62
     7
100
AcDbLine
 10
88.627347333
 20
165.0704176649
 30
0.0
 11
88.627347333
 21
165.0701613208
 31
0.0
  0
LINE
  5
31A
330
242
100
AcDbEntity
  8
1-1MA
  6
Continuous
 62
     7
100
AcDbLine
 10
88.627347333
 20
166.8025331345
 30
0.0
 11
88.627347333
 21
165.0704176649
 31
0.0
  0
LINE
  5
31B
330
242
100
AcDbEntity
  8
1-1MA
  6
Continuous
 62
     7
100
AcDbLine
 10
88.627347333
 20
166.8027894786
 30
0.0
 11
88.627347333
 21
166.8025331345
 31
0.0
  0
LINE
  5
31C
330
242
100
AcDbEntity
  8
1-1MA
  6
Continuous
 62
     7
100
AcDbLine
 10
87.1266253325
 20
167.6689753855
 30
0.0
 11
87.126847333
 21
167.6691035575
 31
0.0
  0
LINE
  5
31D
330
242
100
AcDbEntity
  8
1-1MA
  6
Continuous
 62
     7
100
AcDbLine
 10
85.6265693335
 20
166.8029176507
 30
0.0
 11
87.1266253325
 21
167.6689753855
 31
0.0
  0
LINE
  5
31E
330
242
100
AcDbEntity
  8
1-1MA
  6
Continuous
 62
     7
100
AcDbLine
 10
85.626347333
 20
166.8027894786
 30
0.0
 11
85.6265693335
 21
166.8029176507
 31
0.0
  0
ARC
  5
31F
330
242
100
AcDbEntity
  8
1-1MA
  6
Continuous
 62
     7
100
AcDbCircle
 10
87.126847333
 20
165.9364753997
 30
0.0
 40
1.732500000000002
100
AcDbArc
 50
90.0073418142
 51
149.9926581858
  0
ARC
  5
320
330
242
100
AcDbEntity
  8
1-1MA
  6
Continuous
 62
     7
100
AcDbCircle
 10
87.126847333
 20
165.9364753997
 30
0.0
 40
1.732499999999999
100
AcDbArc
 50
150.0073418142
 51
209.9926581858
  0
ARC
  5
321
330
242
100
AcDbEntity
  8
1-1MA
  6
Continuous
 62
     7
100
AcDbCircle
 10
87.126847333
 20
165.9364753997
 30
0.0
 40
1.732500000000003
100
AcDbArc
 50
30.0073418142
 51
89.9926581858
  0
ARC
  5
322
330
242
100
AcDbEntity
  8
1-1MA
  6
Continuous
 62
     7
100
AcDbCircle
 10
87.126847333
 20
165.9364753997
 30
0.0
 40
1.732499999999999
100
AcDbArc
 50
330.0073418142
 51
29.9926581858
  0
ARC
  5
323
330
242
100
AcDbEntity
  8
1-1MA
  6
Continuous
 62
     7
100
AcDbCircle
 10
87.126847333
 20
165.9364753997
 30
0.0
 40
1.732500000000003
100
AcDbArc
 50
210.0073418142
 51
269.9926581858
  0
ARC
  5
324
330
242
100
AcDbEntity
  8
1-1MA
  6
Continuous
 62
     7
100
AcDbCircle
 10
87.126847333
 20
165.9364753997
 30
0.0
 40
1.732500000000003
100
AcDbArc
 50
270.0073418142
 51
329.9926581858
  0
CIRCLE
  5
325
330
242
100
AcDbEntity
  8
1-1MA
  6
Continuous
 62
     7
100
AcDbCircle
 10
87.126847333
 20
165.9364753997
 30
0.0
 40
3.15
  0
CIRCLE
  5
326
330
242
100
AcDbEntity
  8
1-1MA
  6
Continuous
 62
     7
100
AcDbCircle
 10
87.126847333
 20
165.9364753997
 30
0.0
 40
3.5
  0
LINE
  5
327
330
242
100
AcDbEntity
  8
1-1MA
  6
Continuous
 62
     7
100
AcDbLine
 10
147.6271253325
 20
209.8029176507
 30
0.0
 11
147.627347333
 21
209.8027894786
 31
0.0
  0
LINE
  5
328
330
242
100
AcDbEntity
  8
1-1MA
  6
Continuous
 62
     7
100
AcDbLine
 10
146.1270693335
 20
210.6689753855
 30
0.0
 11
147.6271253325
 21
209.8029176507
 31
0.0
  0
LINE
  5
329
330
242
100
AcDbEntity
  8
1-1MA
  6
Continuous
 62
     7
100
AcDbLine
 10
146.126847333
 20
210.6691035575
 30
0.0
 11
146.1270693335
 21
210.6689753855
 31
0.0
  0
LINE
  5
32A
330
242
100
AcDbEntity
  8
1-1MA
  6
Continuous
 62
     7
100
AcDbLine
 10
144.626347333
 20
209.8025331345
 30
0.0
 11
144.626347333
 21
209.8027894786
 31
0.0
  0
LINE
  5
32B
330
242
100
AcDbEntity
  8
1-1MA
  6
Continuous
 62
     7
100
AcDbLine
 10
144.626347333
 20
208.0704176649
 30
0.0
 11
144.626347333
 21
209.8025331345
 31
0.0
  0
LINE
  5
32C
330
242
100
AcDbEntity
  8
1-1MA
  6
Continuous
 62
     7
100
AcDbLine
 10
144.626347333
 20
208.0701613208
 30
0.0
 11
144.626347333
 21
208.0704176649
 31
0.0
  0
LINE
  5
32D
330
242
100
AcDbEntity
  8
1-1MA
  6
Continuous
 62
     7
100
AcDbLine
 10
144.6265693335
 20
208.0700331487
 30
0.0
 11
144.626347333
 21
208.0701613208
 31
0.0
  0
LINE
  5
32E
330
242
100
AcDbEntity
  8
1-1MA
  6
Continuous
 62
     7
100
AcDbLine
 10
146.1266253325
 20
207.2039754139
 30
0.0
 11
144.6265693335
 21
208.0700331487
 31
0.0
  0
LINE
  5
32F
330
242
100
AcDbEntity
  8
1-1MA
  6
Continuous
 62
     7
100
AcDbLine
 10
146.126847333
 20
207.2038472418
 30
0.0
 11
146.1266253325
 21
207.2039754139
 31
0.0
  0
LINE
  5
330
330
242
100
AcDbEntity
  8
1-1MA
  6
Continuous
 62
     7
100
AcDbLine
 10
146.1270693335
 20
207.2039754139
 30
0.0
 11
146.126847333
 21
207.2038472418
 31
0.0
  0
LINE
  5
331
330
242
100
AcDbEntity
  8
1-1MA
  6
Continuous
 62
     7
100
AcDbLine
 10
147.6271253325
 20
208.0700331487
 30
0.0
 11
146.1270693335
 21
207.2039754139
 31
0.0
  0
LINE
  5
332
330
242
100
AcDbEntity
  8
1-1MA
  6
Continuous
 62
     7
100
AcDbLine
 10
147.627347333
 20
208.0701613208
 30
0.0
 11
147.6271253325
 21
208.0700331487
 31
0.0
  0
LINE
  5
333
330
242
100
AcDbEntity
  8
1-1MA
  6
Continuous
 62
     7
100
AcDbLine
 10
147.627347333
 20
208.0704176649
 30
0.0
 11
147.627347333
 21
208.0701613208
 31
0.0
  0
LINE
  5
334
330
242
100
AcDbEntity
  8
1-1MA
  6
Continuous
 62
     7
100
AcDbLine
 10
147.627347333
 20
209.8025331345
 30
0.0
 11
147.627347333
 21
208.0704176649
 31
0.0
  0
LINE
  5
335
330
242
100
AcDbEntity
  8
1-1MA
  6
Continuous
 62
     7
100
AcDbLine
 10
147.627347333
 20
209.8027894786
 30
0.0
 11
147.627347333
 21
209.8025331345
 31
0.0
  0
LINE
  5
336
330
242
100
AcDbEntity
  8
1-1MA
  6
Continuous
 62
     7
100
AcDbLine
 10
146.1266253325
 20
210.6689753855
 30
0.0
 11
146.126847333
 21
210.6691035575
 31
0.0
  0
LINE
  5
337
330
242
100
AcDbEntity
  8
1-1MA
  6
Continuous
 62
     7
100
AcDbLine
 10
144.6265693335
 20
209.8029176507
 30
0.0
 11
146.1266253325
 21
210.6689753855
 31
0.0
  0
LINE
  5
338
330
242
100
AcDbEntity
  8
1-1MA
  6
Continuous
 62
     7
100
AcDbLine
 10
144.626347333
 20
209.8027894786
 30
0.0
 11
144.6265693335
 21
209.8029176507
 31
0.0
  0
ARC
  5
339
330
242
100
AcDbEntity
  8
1-1MA
  6
Continuous
 62
     7
100
AcDbCircle
 10
146.126847333
 20
208.9364753997
 30
0.0
 40
1.732500000000002
100
AcDbArc
 50
90.0073418142
 51
149.9926581858
  0
ARC
  5
33A
330
242
100
AcDbEntity
  8
1-1MA
  6
Continuous
 62
     7
100
AcDbCircle
 10
146.126847333
 20
208.9364753997
 30
0.0
 40
1.732499999999995
100
AcDbArc
 50
150.0073418142
 51
209.9926581858
  0
ARC
  5
33B
330
242
100
AcDbEntity
  8
1-1MA
  6
Continuous
 62
     7
100
AcDbCircle
 10
146.126847333
 20
208.9364753997
 30
0.0
 40
1.732500000000007
100
AcDbArc
 50
30.0073418142
 51
89.9926581858
  0
ARC
  5
33C
330
242
100
AcDbEntity
  8
1-1MA
  6
Continuous
 62
     7
100
AcDbCircle
 10
146.126847333
 20
208.9364753997
 30
0.0
 40
1.732500000000005
100
AcDbArc
 50
330.0073418142
 51
29.9926581858
  0
ARC
  5
33D
330
242
100
AcDbEntity
  8
1-1MA
  6
Continuous
 62
     7
100
AcDbCircle
 10
146.126847333
 20
208.9364753997
 30
0.0
 40
1.7325
100
AcDbArc
 50
210.0073418142
 51
269.9926581858
  0
ARC
  5
33E
330
242
100
AcDbEntity
  8
1-1MA
  6
Continuous
 62
     7
100
AcDbCircle
 10
146.126847333
 20
208.9364753997
 30
0.0
 40
1.732499999999999
100
AcDbArc
 50
270.0073418142
 51
329.9926581858
  0
CIRCLE
  5
33F
330
242
100
AcDbEntity
  8
1-1MA
  6
Continuous
 62
     7
100
AcDbCircle
 10
146.126847333
 20
208.9364753997
 30
0.0
 40
3.15
  0
CIRCLE
  5
340
330
242
100
AcDbEntity
  8
1-1MA
  6
Continuous
 62
     7
100
AcDbCircle
 10
146.126847333
 20
208.9364753997
 30
0.0
 40
3.5
  0
LINE
  5
341
330
242
100
AcDbEntity
  8
1-1MA
  6
Continuous
 62
     7
100
AcDbLine
 10
88.6271253325
 20
209.8029176507
 30
0.0
 11
88.627347333
 21
209.8027894786
 31
0.0
  0
LINE
  5
342
330
242
100
AcDbEntity
  8
1-1MA
  6
Continuous
 62
     7
100
AcDbLine
 10
87.1270693335
 20
210.6689753855
 30
0.0
 11
88.6271253325
 21
209.8029176507
 31
0.0
  0
LINE
  5
343
330
242
100
AcDbEntity
  8
1-1MA
  6
Continuous
 62
     7
100
AcDbLine
 10
87.126847333
 20
210.6691035575
 30
0.0
 11
87.1270693335
 21
210.6689753855
 31
0.0
  0
LINE
  5
344
330
242
100
AcDbEntity
  8
1-1MA
  6
Continuous
 62
     7
100
AcDbLine
 10
85.626347333
 20
209.8025331345
 30
0.0
 11
85.626347333
 21
209.8027894786
 31
0.0
  0
LINE
  5
345
330
242
100
AcDbEntity
  8
1-1MA
  6
Continuous
 62
     7
100
AcDbLine
 10
85.626347333
 20
208.0704176649
 30
0.0
 11
85.626347333
 21
209.8025331345
 31
0.0
  0
LINE
  5
346
330
242
100
AcDbEntity
  8
1-1MA
  6
Continuous
 62
     7
100
AcDbLine
 10
85.626347333
 20
208.0701613208
 30
0.0
 11
85.626347333
 21
208.0704176649
 31
0.0
  0
LINE
  5
347
330
242
100
AcDbEntity
  8
1-1MA
  6
Continuous
 62
     7
100
AcDbLine
 10
85.6265693335
 20
208.0700331487
 30
0.0
 11
85.626347333
 21
208.0701613208
 31
0.0
  0
LINE
  5
348
330
242
100
AcDbEntity
  8
1-1MA
  6
Continuous
 62
     7
100
AcDbLine
 10
87.1266253325
 20
207.2039754139
 30
0.0
 11
85.6265693335
 21
208.0700331487
 31
0.0
  0
LINE
  5
349
330
242
100
AcDbEntity
  8
1-1MA
  6
Continuous
 62
     7
100
AcDbLine
 10
87.126847333
 20
207.2038472418
 30
0.0
 11
87.1266253325
 21
207.2039754139
 31
0.0
  0
LINE
  5
34A
330
242
100
AcDbEntity
  8
1-1MA
  6
Continuous
 62
     7
100
AcDbLine
 10
87.1270693335
 20
207.2039754139
 30
0.0
 11
87.126847333
 21
207.2038472418
 31
0.0
  0
LINE
  5
34B
330
242
100
AcDbEntity
  8
1-1MA
  6
Continuous
 62
     7
100
AcDbLine
 10
88.6271253325
 20
208.0700331487
 30
0.0
 11
87.1270693335
 21
207.2039754139
 31
0.0
  0
LINE
  5
34C
330
242
100
AcDbEntity
  8
1-1MA
  6
Continuous
 62
     7
100
AcDbLine
 10
88.627347333
 20
208.0701613208
 30
0.0
 11
88.6271253325
 21
208.0700331487
 31
0.0
  0
LINE
  5
34D
330
242
100
AcDbEntity
  8
1-1MA
  6
Continuous
 62
     7
100
AcDbLine
 10
88.627347333
 20
208.0704176649
 30
0.0
 11
88.627347333
 21
208.0701613208
 31
0.0
  0
LINE
  5
34E
330
242
100
AcDbEntity
  8
1-1MA
  6
Continuous
 62
     7
100
AcDbLine
 10
88.627347333
 20
209.8025331345
 30
0.0
 11
88.627347333
 21
208.0704176649
 31
0.0
  0
LINE
  5
34F
330
242
100
AcDbEntity
  8
1-1MA
  6
Continuous
 62
     7
100
AcDbLine
 10
88.627347333
 20
209.8027894786
 30
0.0
 11
88.627347333
 21
209.8025331345
 31
0.0
  0
LINE
  5
350
330
242
100
AcDbEntity
  8
1-1MA
  6
Continuous
 62
     7
100
AcDbLine
 10
87.1266253325
 20
210.6689753855
 30
0.0
 11
87.126847333
 21
210.6691035575
 31
0.0
  0
LINE
  5
351
330
242
100
AcDbEntity
  8
1-1MA
  6
Continuous
 62
     7
100
AcDbLine
 10
85.6265693335
 20
209.8029176507
 30
0.0
 11
87.1266253325
 21
210.6689753855
 31
0.0
  0
LINE
  5
352
330
242
100
AcDbEntity
  8
1-1MA
  6
Continuous
 62
     7
100
AcDbLine
 10
85.626347333
 20
209.8027894786
 30
0.0
 11
85.6265693335
 21
209.8029176507
 31
0.0
  0
ARC
  5
353
330
242
100
AcDbEntity
  8
1-1MA
  6
Continuous
 62
     7
100
AcDbCircle
 10
87.126847333
 20
208.9364753997
 30
0.0
 40
1.732500000000002
100
AcDbArc
 50
90.0073418142
 51
149.9926581858
  0
ARC
  5
354
330
242
100
AcDbEntity
  8
1-1MA
  6
Continuous
 62
     7
100
AcDbCircle
 10
87.126847333
 20
208.9364753997
 30
0.0
 40
1.732499999999995
100
AcDbArc
 50
150.0073418142
 51
209.9926581858
  0
ARC
  5
355
330
242
100
AcDbEntity
  8
1-1MA
  6
Continuous
 62
     7
100
AcDbCircle
 10
87.126847333
 20
208.9364753997
 30
0.0
 40
1.732500000000007
100
AcDbArc
 50
30.0073418142
 51
89.9926581858
  0
ARC
  5
356
330
242
100
AcDbEntity
  8
1-1MA
  6
Continuous
 62
     7
100
AcDbCircle
 10
87.126847333
 20
208.9364753997
 30
0.0
 40
1.732500000000002
100
AcDbArc
 50
330.0073418142
 51
29.9926581858
  0
ARC
  5
357
330
242
100
AcDbEntity
  8
1-1MA
  6
Continuous
 62
     7
100
AcDbCircle
 10
87.126847333
 20
208.9364753997
 30
0.0
 40
1.7325
100
AcDbArc
 50
210.0073418142
 51
269.9926581858
  0
ARC
  5
358
330
242
100
AcDbEntity
  8
1-1MA
  6
Continuous
 62
     7
100
AcDbCircle
 10
87.126847333
 20
208.9364753997
 30
0.0
 40
1.732500000000002
100
AcDbArc
 50
270.0073418142
 51
329.9926581858
  0
CIRCLE
  5
359
330
242
100
AcDbEntity
  8
1-1MA
  6
Continuous
 62
     7
100
AcDbCircle
 10
87.126847333
 20
208.9364753997
 30
0.0
 40
3.15
  0
CIRCLE
  5
35A
330
242
100
AcDbEntity
  8
1-1MA
  6
Continuous
 62
     7
100
AcDbCircle
 10
87.126847333
 20
208.9364753997
 30
0.0
 40
3.5
  0
LINE
  5
35B
330
242
100
AcDbEntity
  8
1-1MA
  6
Continuous
 62
     7
100
AcDbLine
 10
147.6271253325
 20
252.8029176507
 30
0.0
 11
147.627347333
 21
252.8027894786
 31
0.0
  0
LINE
  5
35C
330
242
100
AcDbEntity
  8
1-1MA
  6
Continuous
 62
     7
100
AcDbLine
 10
146.1270693335
 20
253.6689753855
 30
0.0
 11
147.6271253325
 21
252.8029176507
 31
0.0
  0
LINE
  5
35D
330
242
100
AcDbEntity
  8
1-1MA
  6
Continuous
 62
     7
100
AcDbLine
 10
146.126847333
 20
253.6691035575
 30
0.0
 11
146.1270693335
 21
253.6689753855
 31
0.0
  0
LINE
  5
35E
330
242
100
AcDbEntity
  8
1-1MA
  6
Continuous
 62
     7
100
AcDbLine
 10
144.626347333
 20
252.8025331345
 30
0.0
 11
144.626347333
 21
252.8027894786
 31
0.0
  0
LINE
  5
35F
330
242
100
AcDbEntity
  8
1-1MA
  6
Continuous
 62
     7
100
AcDbLine
 10
144.626347333
 20
251.0704176649
 30
0.0
 11
144.626347333
 21
252.8025331345
 31
0.0
  0
LINE
  5
360
330
242
100
AcDbEntity
  8
1-1MA
  6
Continuous
 62
     7
100
AcDbLine
 10
144.626347333
 20
251.0701613208
 30
0.0
 11
144.626347333
 21
251.0704176649
 31
0.0
  0
LINE
  5
361
330
242
100
AcDbEntity
  8
1-1MA
  6
Continuous
 62
     7
100
AcDbLine
 10
144.6265693335
 20
251.0700331487
 30
0.0
 11
144.626347333
 21
251.0701613208
 31
0.0
  0
LINE
  5
362
330
242
100
AcDbEntity
  8
1-1MA
  6
Continuous
 62
     7
100
AcDbLine
 10
146.1266253325
 20
250.2039754139
 30
0.0
 11
144.6265693335
 21
251.0700331487
 31
0.0
  0
LINE
  5
363
330
242
100
AcDbEntity
  8
1-1MA
  6
Continuous
 62
     7
100
AcDbLine
 10
146.126847333
 20
250.2038472418
 30
0.0
 11
146.1266253325
 21
250.2039754139
 31
0.0
  0
LINE
  5
364
330
242
100
AcDbEntity
  8
1-1MA
  6
Continuous
 62
     7
100
AcDbLine
 10
146.1270693335
 20
250.2039754139
 30
0.0
 11
146.126847333
 21
250.2038472418
 31
0.0
  0
LINE
  5
365
330
242
100
AcDbEntity
  8
1-1MA
  6
Continuous
 62
     7
100
AcDbLine
 10
147.6271253325
 20
251.0700331487
 30
0.0
 11
146.1270693335
 21
250.2039754139
 31
0.0
  0
LINE
  5
366
330
242
100
AcDbEntity
  8
1-1MA
  6
Continuous
 62
     7
100
AcDbLine
 10
147.627347333
 20
251.0701613208
 30
0.0
 11
147.6271253325
 21
251.0700331487
 31
0.0
  0
LINE
  5
367
330
242
100
AcDbEntity
  8
1-1MA
  6
Continuous
 62
     7
100
AcDbLine
 10
147.627347333
 20
251.0704176649
 30
0.0
 11
147.627347333
 21
251.0701613208
 31
0.0
  0
LINE
  5
368
330
242
100
AcDbEntity
  8
1-1MA
  6
Continuous
 62
     7
100
AcDbLine
 10
147.627347333
 20
252.8025331345
 30
0.0
 11
147.627347333
 21
251.0704176649
 31
0.0
  0
LINE
  5
369
330
242
100
AcDbEntity
  8
1-1MA
  6
Continuous
 62
     7
100
AcDbLine
 10
147.627347333
 20
252.8027894786
 30
0.0
 11
147.627347333
 21
252.8025331345
 31
0.0
  0
LINE
  5
36A
330
242
100
AcDbEntity
  8
1-1MA
  6
Continuous
 62
     7
100
AcDbLine
 10
146.1266253325
 20
253.6689753855
 30
0.0
 11
146.126847333
 21
253.6691035575
 31
0.0
  0
LINE
  5
36B
330
242
100
AcDbEntity
  8
1-1MA
  6
Continuous
 62
     7
100
AcDbLine
 10
144.6265693335
 20
252.8029176507
 30
0.0
 11
146.1266253325
 21
253.6689753855
 31
0.0
  0
LINE
  5
36C
330
242
100
AcDbEntity
  8
1-1MA
  6
Continuous
 62
     7
100
AcDbLine
 10
144.626347333
 20
252.8027894786
 30
0.0
 11
144.6265693335
 21
252.8029176507
 31
0.0
  0
ARC
  5
36D
330
242
100
AcDbEntity
  8
1-1MA
  6
Continuous
 62
     7
100
AcDbCircle
 10
146.126847333
 20
251.9364753997
 30
0.0
 40
1.732500000000002
100
AcDbArc
 50
90.0073418142
 51
149.9926581858
  0
ARC
  5
36E
330
242
100
AcDbEntity
  8
1-1MA
  6
Continuous
 62
     7
100
AcDbCircle
 10
146.126847333
 20
251.9364753997
 30
0.0
 40
1.732499999999995
100
AcDbArc
 50
150.0073418142
 51
209.9926581858
  0
ARC
  5
36F
330
242
100
AcDbEntity
  8
1-1MA
  6
Continuous
 62
     7
100
AcDbCircle
 10
146.126847333
 20
251.9364753997
 30
0.0
 40
1.732500000000013
100
AcDbArc
 50
30.0073418142
 51
89.9926581858
  0
ARC
  5
370
330
242
100
AcDbEntity
  8
1-1MA
  6
Continuous
 62
     7
100
AcDbCircle
 10
146.126847333
 20
251.9364753997
 30
0.0
 40
1.732500000000002
100
AcDbArc
 50
330.0073418142
 51
29.9926581858
  0
ARC
  5
371
330
242
100
AcDbEntity
  8
1-1MA
  6
Continuous
 62
     7
100
AcDbCircle
 10
146.126847333
 20
251.9364753997
 30
0.0
 40
1.7325
100
AcDbArc
 50
210.0073418142
 51
269.9926581858
  0
ARC
  5
372
330
242
100
AcDbEntity
  8
1-1MA
  6
Continuous
 62
     7
100
AcDbCircle
 10
146.126847333
 20
251.9364753997
 30
0.0
 40
1.732500000000002
100
AcDbArc
 50
270.0073418142
 51
329.9926581858
  0
CIRCLE
  5
373
330
242
100
AcDbEntity
  8
1-1MA
  6
Continuous
 62
     7
100
AcDbCircle
 10
146.126847333
 20
251.9364753997
 30
0.0
 40
3.15
  0
CIRCLE
  5
374
330
242
100
AcDbEntity
  8
1-1MA
  6
Continuous
 62
     7
100
AcDbCircle
 10
146.126847333
 20
251.9364753997
 30
0.0
 40
3.5
  0
LINE
  5
375
330
242
100
AcDbEntity
  8
1-1MA
  6
Continuous
 62
     7
100
AcDbLine
 10
88.6271253325
 20
252.8029176507
 30
0.0
 11
88.627347333
 21
252.8027894786
 31
0.0
  0
LINE
  5
376
330
242
100
AcDbEntity
  8
1-1MA
  6
Continuous
 62
     7
100
AcDbLine
 10
87.1270693335
 20
253.6689753855
 30
0.0
 11
88.6271253325
 21
252.8029176507
 31
0.0
  0
LINE
  5
377
330
242
100
AcDbEntity
  8
1-1MA
  6
Continuous
 62
     7
100
AcDbLine
 10
87.126847333
 20
253.6691035575
 30
0.0
 11
87.1270693335
 21
253.6689753855
 31
0.0
  0
LINE
  5
378
330
242
100
AcDbEntity
  8
1-1MA
  6
Continuous
 62
     7
100
AcDbLine
 10
85.626347333
 20
252.8025331345
 30
0.0
 11
85.626347333
 21
252.8027894786
 31
0.0
  0
LINE
  5
379
330
242
100
AcDbEntity
  8
1-1MA
  6
Continuous
 62
     7
100
AcDbLine
 10
85.626347333
 20
251.0704176649
 30
0.0
 11
85.626347333
 21
252.8025331345
 31
0.0
  0
LINE
  5
37A
330
242
100
AcDbEntity
  8
1-1MA
  6
Continuous
 62
     7
100
AcDbLine
 10
85.626347333
 20
251.0701613208
 30
0.0
 11
85.626347333
 21
251.0704176649
 31
0.0
  0
LINE
  5
37B
330
242
100
AcDbEntity
  8
1-1MA
  6
Continuous
 62
     7
100
AcDbLine
 10
85.6265693335
 20
251.0700331487
 30
0.0
 11
85.626347333
 21
251.0701613208
 31
0.0
  0
LINE
  5
37C
330
242
100
AcDbEntity
  8
1-1MA
  6
Continuous
 62
     7
100
AcDbLine
 10
87.1266253325
 20
250.2039754139
 30
0.0
 11
85.6265693335
 21
251.0700331487
 31
0.0
  0
LINE
  5
37D
330
242
100
AcDbEntity
  8
1-1MA
  6
Continuous
 62
     7
100
AcDbLine
 10
87.126847333
 20
250.2038472418
 30
0.0
 11
87.1266253325
 21
250.2039754139
 31
0.0
  0
LINE
  5
37E
330
242
100
AcDbEntity
  8
1-1MA
  6
Continuous
 62
     7
100
AcDbLine
 10
87.1270693335
 20
250.2039754139
 30
0.0
 11
87.126847333
 21
250.2038472418
 31
0.0
  0
LINE
  5
37F
330
242
100
AcDbEntity
  8
1-1MA
  6
Continuous
 62
     7
100
AcDbLine
 10
88.6271253325
 20
251.0700331487
 30
0.0
 11
87.1270693335
 21
250.2039754139
 31
0.0
  0
LINE
  5
380
330
242
100
AcDbEntity
  8
1-1MA
  6
Continuous
 62
     7
100
AcDbLine
 10
88.627347333
 20
251.0701613208
 30
0.0
 11
88.6271253325
 21
251.0700331487
 31
0.0
  0
LINE
  5
381
330
242
100
AcDbEntity
  8
1-1MA
  6
Continuous
 62
     7
100
AcDbLine
 10
88.627347333
 20
251.0704176649
 30
0.0
 11
88.627347333
 21
251.0701613208
 31
0.0
  0
LINE
  5
382
330
242
100
AcDbEntity
  8
1-1MA
  6
Continuous
 62
     7
100
AcDbLine
 10
88.627347333
 20
252.8025331345
 30
0.0
 11
88.627347333
 21
251.0704176649
 31
0.0
  0
LINE
  5
383
330
242
100
AcDbEntity
  8
1-1MA
  6
Continuous
 62
     7
100
AcDbLine
 10
88.627347333
 20
252.8027894786
 30
0.0
 11
88.627347333
 21
252.8025331345
 31
0.0
  0
LINE
  5
384
330
242
100
AcDbEntity
  8
1-1MA
  6
Continuous
 62
     7
100
AcDbLine
 10
87.1266253325
 20
253.6689753855
 30
0.0
 11
87.126847333
 21
253.6691035575
 31
0.0
  0
LINE
  5
385
330
242
100
AcDbEntity
  8
1-1MA
  6
Continuous
 62
     7
100
AcDbLine
 10
85.6265693335
 20
252.8029176507
 30
0.0
 11
87.1266253325
 21
253.6689753855
 31
0.0
  0
LINE
  5
386
330
242
100
AcDbEntity
  8
1-1MA
  6
Continuous
 62
     7
100
AcDbLine
 10
85.626347333
 20
252.8027894786
 30
0.0
 11
85.6265693335
 21
252.8029176507
 31
0.0
  0
ARC
  5
387
330
242
100
AcDbEntity
  8
1-1MA
  6
Continuous
 62
     7
100
AcDbCircle
 10
87.126847333
 20
251.9364753997
 30
0.0
 40
1.732500000000002
100
AcDbArc
 50
90.0073418142
 51
149.9926581858
  0
ARC
  5
388
330
242
100
AcDbEntity
  8
1-1MA
  6
Continuous
 62
     7
100
AcDbCircle
 10
87.126847333
 20
251.9364753997
 30
0.0
 40
1.732499999999995
100
AcDbArc
 50
150.0073418142
 51
209.9926581858
  0
ARC
  5
389
330
242
100
AcDbEntity
  8
1-1MA
  6
Continuous
 62
     7
100
AcDbCircle
 10
87.126847333
 20
251.9364753997
 30
0.0
 40
1.732500000000013
100
AcDbArc
 50
30.0073418142
 51
89.9926581858
  0
ARC
  5
38A
330
242
100
AcDbEntity
  8
1-1MA
  6
Continuous
 62
     7
100
AcDbCircle
 10
87.126847333
 20
251.9364753997
 30
0.0
 40
1.732500000000002
100
AcDbArc
 50
330.0073418142
 51
29.9926581858
  0
ARC
  5
38B
330
242
100
AcDbEntity
  8
1-1MA
  6
Continuous
 62
     7
100
AcDbCircle
 10
87.126847333
 20
251.9364753997
 30
0.0
 40
1.7325
100
AcDbArc
 50
210.0073418142
 51
269.9926581858
  0
ARC
  5
38C
330
242
100
AcDbEntity
  8
1-1MA
  6
Continuous
 62
     7
100
AcDbCircle
 10
87.126847333
 20
251.9364753997
 30
0.0
 40
1.732500000000002
100
AcDbArc
 50
270.0073418142
 51
329.9926581858
  0
CIRCLE
  5
38D
330
242
100
AcDbEntity
  8
1-1MA
  6
Continuous
 62
     7
100
AcDbCircle
 10
87.126847333
 20
251.9364753997
 30
0.0
 40
3.15
  0
CIRCLE
  5
38E
330
242
100
AcDbEntity
  8
1-1MA
  6
Continuous
 62
     7
100
AcDbCircle
 10
87.126847333
 20
251.9364753997
 30
0.0
 40
3.5
  0
CIRCLE
  5
38F
330
242
100
AcDbEntity
  8
1-1MA
  6
Continuous
 62
     7
100
AcDbCircle
 10
148.626847333
 20
175.4364753997
 30
0.0
 40
1.8265927272727
  0
LINE
  5
390
330
242
100
AcDbEntity
  8
1-1MA
  6
Continuous
 62
     7
100
AcDbLine
 10
148.626847333
 20
176.8792737224
 30
0.0
 11
149.876347333
 21
176.157874561
 31
0.0
  0
LINE
  5
391
330
242
100
AcDbEntity
  8
1-1MA
  6
Continuous
 62
     7
100
AcDbLine
 10
149.876347333
 20
174.7150762383
 30
0.0
 11
148.626847333
 21
173.993677077
 31
0.0
  0
LINE
  5
392
330
242
100
AcDbEntity
  8
1-1MA
  6
Continuous
 62
     7
100
AcDbLine
 10
147.377347333
 20
174.7150762383
 30
0.0
 11
147.377347333
 21
176.157874561
 31
0.0
  0
LINE
  5
393
330
242
100
AcDbEntity
  8
1-1MA
  6
Continuous
 62
     7
100
AcDbLine
 10
148.626847333
 20
173.993677077
 30
0.0
 11
147.377347333
 21
174.7150762383
 31
0.0
  0
LINE
  5
394
330
242
100
AcDbEntity
  8
1-1MA
  6
Continuous
 62
     7
100
AcDbLine
 10
149.876347333
 20
176.157874561
 30
0.0
 11
149.876347333
 21
174.7150762383
 31
0.0
  0
LINE
  5
395
330
242
100
AcDbEntity
  8
1-1MA
  6
Continuous
 62
     7
100
AcDbLine
 10
147.377347333
 20
176.157874561
 30
0.0
 11
148.626847333
 21
176.8792737224
 31
0.0
  0
CIRCLE
  5
396
330
242
100
AcDbEntity
  8
1-1MA
  6
Continuous
 62
     7
100
AcDbCircle
 10
84.626847333
 20
242.4364753997
 30
0.0
 40
1.8265927272727
  0
LINE
  5
397
330
242
100
AcDbEntity
  8
1-1MA
  6
Continuous
 62
     7
100
AcDbLine
 10
84.626847333
 20
243.8792737224
 30
0.0
 11
85.876347333
 21
243.157874561
 31
0.0
  0
LINE
  5
398
330
242
100
AcDbEntity
  8
1-1MA
  6
Continuous
 62
     7
100
AcDbLine
 10
85.876347333
 20
241.7150762383
 30
0.0
 11
84.626847333
 21
240.993677077
 31
0.0
  0
LINE
  5
399
330
242
100
AcDbEntity
  8
1-1MA
  6
Continuous
 62
     7
100
AcDbLine
 10
83.377347333
 20
241.7150762383
 30
0.0
 11
83.377347333
 21
243.157874561
 31
0.0
  0
LINE
  5
39A
330
242
100
AcDbEntity
  8
1-1MA
  6
Continuous
 62
     7
100
AcDbLine
 10
84.626847333
 20
240.993677077
 30
0.0
 11
83.377347333
 21
241.7150762383
 31
0.0
  0
LINE
  5
39B
330
242
100
AcDbEntity
  8
1-1MA
  6
Continuous
 62
     7
100
AcDbLine
 10
85.876347333
 20
243.157874561
 30
0.0
 11
85.876347333
 21
241.7150762383
 31
0.0
  0
LINE
  5
39C
330
242
100
AcDbEntity
  8
1-1MA
  6
Continuous
 62
     7
100
AcDbLine
 10
83.377347333
 20
243.157874561
 30
0.0
 11
84.626847333
 21
243.8792737224
 31
0.0
  0
CIRCLE
  5
39D
330
242
100
AcDbEntity
  8
1-1MA
  6
Continuous
 62
     7
100
AcDbCircle
 10
84.626847333
 20
175.4364753997
 30
0.0
 40
1.8265927272727
  0
LINE
  5
39E
330
242
100
AcDbEntity
  8
1-1MA
  6
Continuous
 62
     7
100
AcDbLine
 10
84.626847333
 20
176.8792737224
 30
0.0
 11
85.876347333
 21
176.157874561
 31
0.0
  0
LINE
  5
39F
330
242
100
AcDbEntity
  8
1-1MA
  6
Continuous
 62
     7
100
AcDbLine
 10
85.876347333
 20
174.7150762383
 30
0.0
 11
84.626847333
 21
173.993677077
 31
0.0
  0
LINE
  5
3A0
330
242
100
AcDbEntity
  8
1-1MA
  6
Continuous
 62
     7
100
AcDbLine
 10
83.377347333
 20
174.7150762383
 30
0.0
 11
83.377347333
 21
176.157874561
 31
0.0
  0
LINE
  5
3A1
330
242
100
AcDbEntity
  8
1-1MA
  6
Continuous
 62
     7
100
AcDbLine
 10
84.626847333
 20
173.993677077
 30
0.0
 11
83.377347333
 21
174.7150762383
 31
0.0
  0
LINE
  5
3A2
330
242
100
AcDbEntity
  8
1-1MA
  6
Continuous
 62
     7
100
AcDbLine
 10
85.876347333
 20
176.157874561
 30
0.0
 11
85.876347333
 21
174.7150762383
 31
0.0
  0
LINE
  5
3A3
330
242
100
AcDbEntity
  8
1-1MA
  6
Continuous
 62
     7
100
AcDbLine
 10
83.377347333
 20
176.157874561
 30
0.0
 11
84.626847333
 21
176.8792737224
 31
0.0
  0
ARC
  5
3A4
330
242
100
AcDbEntity
  8
1-1MA
  6
Continuous
 62
     7
100
AcDbCircle
 10
75.126847333
 20
223.9364753997
 30
0.0
 40
0.5000000000000004
100
AcDbArc
 50
90.0
 51
180.0
  0
LINE
  5
3A5
330
242
100
AcDbEntity
  8
1-1MA
  6
Continuous
 62
     7
100
AcDbLine
 10
158.626847333
 20
188.2364753997
 30
0.0
 11
159.126847333
 21
188.7364753997
 31
0.0
  0
LINE
  5
3A6
330
242
100
AcDbEntity
  8
1-1MA
  6
Continuous
 62
     7
100
AcDbLine
 10
159.126847333
 20
204.1364753997
 30
0.0
 11
158.626847333
 21
204.6364753997
 31
0.0
  0
LINE
  5
3A7
330
242
100
AcDbEntity
  8
1-1MA
  6
Continuous
 62
     7
100
AcDbLine
 10
74.626847333
 20
204.6364753997
 30
0.0
 11
74.126847333
 21
204.1364753997
 31
0.0
  0
LINE
  5
3A8
330
242
100
AcDbEntity
  8
1-1MA
  6
Continuous
 62
     7
100
AcDbLine
 10
74.126847333
 20
188.7364753997
 30
0.0
 11
74.626847333
 21
188.2364753997
 31
0.0
  0
ARC
  5
3A9
330
242
100
AcDbEntity
  8
1-1MA
  6
Continuous
 62
     7
100
AcDbCircle
 10
158.126847333
 20
223.9364753997
 30
0.0
 40
0.5000000000000004
100
AcDbArc
 50
0.0
 51
90.0
  0
LINE
  5
3AA
330
242
100
AcDbEntity
  8
1-1MA
  6
Continuous
 62
     7
100
AcDbLine
 10
111.126847333
 20
269.4364753997
 30
0.0
 11
111.126847333
 21
267.4364753997
 31
0.0
  0
LINE
  5
3AB
330
242
100
AcDbEntity
  8
1-1MA
  6
Continuous
 62
     7
100
AcDbLine
 10
122.126847333
 20
267.4364753997
 30
0.0
 11
122.126847333
 21
269.4364753997
 31
0.0
  0
LINE
  5
3AC
330
242
100
AcDbEntity
  8
1-1MA
  6
Continuous
 62
     7
100
AcDbLine
 10
108.173494333
 20
277.9364753997
 30
0.0
 11
108.173494333
 21
269.4364753997
 31
0.0
  0
LINE
  5
3AD
330
242
100
AcDbEntity
  8
1-1MA
  6
Continuous
 62
     7
100
AcDbLine
 10
125.173494333
 20
269.4364753997
 30
0.0
 11
125.173494333
 21
277.9364753997
 31
0.0
  0
ARC
  5
3AE
330
242
100
AcDbEntity
  8
1-1MA
  6
Continuous
 62
     7
100
AcDbCircle
 10
109.673494333
 20
277.9364753997
 30
0.0
 40
1.500000000000001
100
AcDbArc
 50
90.0
 51
180.0
  0
ARC
  5
3AF
330
242
100
AcDbEntity
  8
1-1MA
  6
Continuous
 62
     7
100
AcDbCircle
 10
123.673494333
 20
277.9364753997
 30
0.0
 40
1.500000000000001
100
AcDbArc
 50
0.0
 51
90.0
  0
ENDBLK
  5
3B1
330
242
100
AcDbEntity
  8
0
100
AcDbBlockEnd
  0
BLOCK
  5
517
330
3B2
100
AcDbEntity
  8
0
100
AcDbBlockBegin
  2
SE5
 70
     0
 10
0.0
 20
0.0
 30
0.0
  3
SE5
  1

  0
LINE
  5
3B4
330
3B2
100
AcDbEntity
  8
1-1MA
  6
Continuous
 62
     7
100
AcDbLine
 10
566.0285387942
 20
139.3604031023
 30
0.0
 11
517.9452776735
 21
111.5995193507
 31
0.0
  0
LINE
  5
3B5
330
3B2
100
AcDbEntity
  8
1-1MA
  6
Continuous
 62
     7
100
AcDbLine
 10
553.3006167329
 20
146.7088723306
 30
0.0
 11
566.0285387942
 21
139.3604031023
 31
0.0
  0
LINE
  5
3B6
330
3B2
100
AcDbEntity
  8
1-1MA
  6
Continuous
 62
     7
100
AcDbLine
 10
505.2173556122
 20
118.9479885791
 30
0.0
 11
553.3006167329
 21
146.7088723306
 31
0.0
  0
LINE
  5
3B7
330
3B2
100
AcDbEntity
  8
1-1MA
  6
Continuous
 62
     7
100
AcDbLine
 10
505.2173556122
 20
118.9479885791
 30
0.0
 11
517.9452776735
 21
111.5995193507
 31
0.0
  0
ELLIPSE
  5
3B8
330
3B2
100
AcDbEntity
  8
1-1MA
  6
Continuous
 62
     7
100
AcDbEllipse
 10
523.2485785324
 20
119.9686093052
 30
0.0
 11
-2.96602540378444
 21
-2.710505431213761E-15
 31
0.0
210
0.0
220
0.0
230
1.0
 40
0.5773502692
 41
0.0
 42
6.283185307179586
  0
ELLIPSE
  5
3B9
330
3B2
100
AcDbEntity
  8
1-1MA
  6
Continuous
 62
     7
100
AcDbEllipse
 10
550.1186362175
 20
135.4820443429
 30
0.0
 11
-2.966025403784449
 21
2.927345865710862E-15
 31
0.0
210
0.0
220
0.0
230
1.0
 40
0.5773502692
 41
0.0
 42
6.283185307179586
  0
LINE
  5
3BA
330
3B2
100
AcDbEntity
  8
1-1MA
  6
Continuous
 62
     7
100
AcDbLine
 10
567.4427523566
 20
122.2139749028
 30
0.0
 11
519.3594912359
 21
94.4530911512
 31
0.0
  0
LINE
  5
3BB
330
3B2
100
AcDbEntity
  8
1-1MA
  6
Continuous
 62
     7
100
AcDbLine
 10
567.4427523566
 20
136.9109133595
 30
0.0
 11
567.4427523566
 21
122.2139749028
 31
0.0
  0
LINE
  5
3BC
330
3B2
100
AcDbEntity
  8
1-1MA
  6
Continuous
 62
     7
100
AcDbLine
 10
519.3594912359
 20
109.1500296079
 30
0.0
 11
567.4427523566
 21
136.9109133595
 31
0.0
  0
LINE
  5
3BD
330
3B2
100
AcDbEntity
  8
1-1MA
  6
Continuous
 62
     7
100
AcDbLine
 10
519.3594912359
 20
109.1500296079
 30
0.0
 11
519.3594912359
 21
94.4530911512
 31
0.0
  0
ELLIPSE
  5
3BE
330
3B2
100
AcDbEntity
  8
1-1MA
  6
Continuous
 62
     7
100
AcDbEllipse
 10
561.0787913259
 20
127.9294509693
 30
0.0
 11
-1.483012701892083
 21
-2.568653347947397
 31
0.0
210
0.0
220
0.0
230
0.9999999999999999
 40
0.5773502692
 41
0.0
 42
6.283185307179586
  0
ELLIPSE
  5
3BF
330
3B2
100
AcDbEntity
  8
1-1MA
  6
Continuous
 62
     7
100
AcDbEllipse
 10
524.3092387042
 20
106.7005398652
 30
0.0
 11
-1.48301270189209
 21
-2.568653347947387
 31
0.0
210
0.0
220
0.0
230
0.9999999999999999
 40
0.5773502692
 41
0.0
 42
6.283185307179586
  0
ELLIPSE
  5
3C0
330
3B2
100
AcDbEntity
  8
1-1MA
  6
Continuous
 62
     7
100
AcDbEllipse
 10
546.229548921
 20
69.1416971425
 30
0.0
 11
-14.24999999999875
 21
-24.68172400785718
 31
0.0
210
0.0
220
0.0
230
1.0
 40
0.5773502692
 41
0.2845861704260079
 42
1.286210156368724
  0
ELLIPSE
  5
3C1
330
3B2
100
AcDbEntity
  8
1-1MA
  6
Continuous
 62
     7
100
AcDbEllipse
 10
528.5518793958
 20
79.3479044002
 30
0.0
 11
20.1525432588582
 21
-34.90522883099683
 31
0.0
210
0.0
220
0.0
230
1.0
 40
0.5773502692
 41
0.5008119930391914
 42
0.5696213191463018
  0
ELLIPSE
  5
3C2
330
3B2
100
AcDbEntity
  8
1-1MA
  6
Continuous
 62
     7
100
AcDbEllipse
 10
545.5224421398
 20
69.5499454329
 30
0.0
 11
-14.24999999999876
 21
-24.68172400785718
 31
0.0
210
0.0
220
0.0
230
0.9999999999999998
 40
0.5773502692
 41
1.355019482470297
 42
6.498962151504019
  0
ELLIPSE
  5
3C3
330
3B2
100
AcDbEntity
  8
1-1MA
  6
Continuous
 62
     7
100
AcDbEllipse
 10
502.0353750968
 20
162.8346798039
 30
0.0
 11
-2.1
 21
3.252606517456513E-16
 31
0.0
210
0.0
220
0.0
230
1.0
 40
0.5773502692
 41
0.0
 42
6.283185307179586
  0
ELLIPSE
  5
3C4
330
3B2
100
AcDbEntity
  8
1-1MA
  6
Continuous
 62
     7
100
AcDbEllipse
 10
502.0353750968
 20
163.2429280944
 30
0.0
 11
-2.96602540378444
 21
-2.385244779468110E-15
 31
0.0
210
0.0
220
0.0
230
1.0
 40
0.5773502692
 41
0.0
 42
6.283185307179586
  0
ELLIPSE
  5
3C5
330
3B2
100
AcDbEntity
  8
1-1MA
  6
Continuous
 62
     7
100
AcDbEllipse
 10
475.1653174117
 20
147.3212447663
 30
0.0
 11
-2.1
 21
3.252606517456513E-16
 31
0.0
210
0.0
220
0.0
230
1.0
 40
0.5773502692
 41
0.0
 42
6.283185307179586
  0
ELLIPSE
  5
3C6
330
3B2
100
AcDbEntity
  8
1-1MA
  6
Continuous
 62
     7
100
AcDbEllipse
 10
475.1653174117
 20
147.7294930568
 30
0.0
 11
-2.966025403784443
 21
1.843143693225358E-15
 31
0.0
210
0.0
220
0.0
230
1.0
 40
0.5773502692
 41
0.0
 42
6.283185307179586
  0
ELLIPSE
  5
3C7
330
3B2
100
AcDbEntity
  8
1-1MA
  6
Continuous
 62
     7
100
AcDbEllipse
 10
550.1186362175
 20
135.0737960524
 30
0.0
 11
-2.100000000000003
 21
2.168404344971009E-15
 31
0.0
210
0.0
220
0.0
230
1.0
 40
0.5773502692
 41
0.0
 42
6.283185307179586
  0
ELLIPSE
  5
3C8
330
3B2
100
AcDbEntity
  8
1-1MA
  6
Continuous
 62
     7
100
AcDbEllipse
 10
523.2485785324
 20
119.5603610148
 30
0.0
 11
-2.100000000000003
 21
2.168404344971009E-15
 31
0.0
210
0.0
220
0.0
230
1.0
 40
0.5773502692
 41
0.0
 42
6.283185307179586
  0
ELLIPSE
  5
3C9
330
3B2
100
AcDbEntity
  8
1-1MA
  6
Continuous
 62
     7
100
AcDbEllipse
 10
529.9660929537
 20
90.7788565371
 30
0.0
 11
-5.499999999999527
 21
-9.526279441629093
 31
0.0
210
0.0
220
0.0
230
1.0
 40
0.5773502692
 41
0.0
 42
6.283185307179586
  0
ELLIPSE
  5
3CA
330
3B2
100
AcDbEntity
  8
1-1MA
  6
Continuous
 62
     7
100
AcDbEllipse
 10
527.4912192195
 20
92.2077255537
 30
0.0
 11
-5.499999999999532
 21
-9.526279441629097
 31
0.0
210
0.0
220
0.0
230
1.0
 40
0.5773502692
 41
0.2269312554065732
 42
0.5652973381372564
  0
ELLIPSE
  5
3CB
330
3B2
100
AcDbEntity
  8
1-1MA
  6
Continuous
 62
     7
100
AcDbEllipse
 10
527.4912192195
 20
92.2077255537
 30
0.0
 11
-5.499999999999532
 21
-9.526279441629097
 31
0.0
210
0.0
220
0.0
230
1.0
 40
0.5773502692
 41
2.579479496973186
 42
2.914661398183802
  0
LINE
  5
3CC
330
3B2
100
AcDbEntity
  8
1-1MA
  6
Continuous
 62
     7
100
AcDbLine
 10
460.6696283974
 20
144.6676308783
 30
0.0
 11
459.255414835
 21
143.8511342974
 31
0.0
  0
LINE
  5
3CD
330
3B2
100
AcDbEntity
  8
1-1MA
  6
Continuous
 62
     7
100
AcDbLine
 10
460.6696283974
 20
144.6676308783
 30
0.0
 11
508.7528895181
 21
172.4285146298
 31
0.0
  0
LINE
  5
3CE
330
3B2
100
AcDbEntity
  8
1-1MA
  6
Continuous
 62
     7
100
AcDbLine
 10
517.9452776735
 20
109.9665261889
 30
0.0
 11
517.9452776735
 21
111.5995193507
 31
0.0
  0
LINE
  5
3CF
330
3B2
100
AcDbEntity
  8
1-1MA
  6
Continuous
 62
     7
100
AcDbLine
 10
519.3594912359
 20
109.1500296079
 30
0.0
 11
517.9452776735
 21
109.9665261889
 31
0.0
  0
LINE
  5
3D0
330
3B2
100
AcDbEntity
  8
1-1MA
  6
Continuous
 62
     7
100
AcDbLine
 10
566.0285387942
 20
139.3604031023
 30
0.0
 11
567.4427523566
 21
136.9109133595
 31
0.0
  0
LINE
  5
3D1
330
3B2
100
AcDbEntity
  8
1-1MA
  6
Continuous
 62
     7
100
AcDbLine
 10
519.3594912359
 20
18.518909125
 30
0.0
 11
567.4427523566
 21
46.2797928765
 31
0.0
  0
LINE
  5
3D2
330
3B2
100
AcDbEntity
  8
1-1MA
  6
Continuous
 62
     7
100
AcDbLine
 10
517.9452776735
 20
17.702412544
 30
0.0
 11
519.3594912359
 21
18.518909125
 31
0.0
  0
LINE
  5
3D3
330
3B2
100
AcDbEntity
  8
1-1MA
  6
Continuous
 62
     7
100
AcDbLine
 10
556.3909746994
 20
56.2289776897
 30
0.0
 11
566.7356455754
 21
62.2014762046
 31
0.0
  0
LINE
  5
3D4
330
3B2
100
AcDbEntity
  8
1-1MA
  6
Continuous
 62
     7
100
AcDbLine
 10
566.7356455754
 20
62.2014762046
 30
0.0
 11
566.7356455754
 21
121.8057266123
 31
0.0
  0
LINE
  5
3D5
330
3B2
100
AcDbEntity
  8
1-1MA
  6
Continuous
 62
     7
100
AcDbLine
 10
517.9452776735
 20
34.0323441626
 30
0.0
 11
517.9452776735
 21
93.6365945703
 31
0.0
  0
LINE
  5
3D6
330
3B2
100
AcDbEntity
  8
1-1MA
  6
Continuous
 62
     7
100
AcDbLine
 10
517.9452776735
 20
34.0323441626
 30
0.0
 11
534.6539095802
 21
43.6790772917
 31
0.0
  0
LINE
  5
3D7
330
3B2
100
AcDbEntity
  8
1-1MA
  6
Continuous
 62
     7
100
AcDbLine
 10
519.3594912359
 20
33.2158475817
 30
0.0
 11
519.3594912359
 21
18.518909125
 31
0.0
  0
LINE
  5
3D8
330
3B2
100
AcDbEntity
  8
1-1MA
  6
Continuous
 62
     7
100
AcDbLine
 10
567.4427523566
 20
60.9767313332
 30
0.0
 11
567.4427523566
 21
46.2797928765
 31
0.0
  0
LINE
  5
3D9
330
3B2
100
AcDbEntity
  8
1-1MA
  6
Continuous
 62
     7
100
AcDbLine
 10
555.9055501612
 20
54.31572454
 30
0.0
 11
567.4427523566
 21
60.9767313332
 31
0.0
  0
LINE
  5
3DA
330
3B2
100
AcDbEntity
  8
1-1MA
  6
Continuous
 62
     7
100
AcDbLine
 10
519.3594912359
 20
33.2158475817
 30
0.0
 11
536.5535476808
 21
43.1428406986
 31
0.0
  0
ELLIPSE
  5
3DB
330
3B2
100
AcDbEntity
  8
1-1MA
  6
Continuous
 62
     7
100
AcDbEllipse
 10
561.0787913259
 20
47.9127860384
 30
0.0
 11
-1.483012701892095
 21
-2.568653347947395
 31
0.0
210
0.0
220
0.0
230
1.0
 40
0.5773502692
 41
0.0
 42
6.283185307179586
  0
ELLIPSE
  5
3DC
330
3B2
100
AcDbEntity
  8
1-1MA
  6
Continuous
 62
     7
100
AcDbEllipse
 10
524.3092387042
 20
26.6838749342
 30
0.0
 11
-1.483012701892088
 21
-2.568653347947398
 31
0.0
210
0.0
220
0.0
230
1.0
 40
0.5773502692
 41
0.0
 42
6.283185307179586
  0
LINE
  5
3DD
330
3B2
100
AcDbEntity
  8
1-1MA
  6
Continuous
 62
     7
100
AcDbLine
 10
521.4808115795
 20
165.0800454015
 30
0.0
 11
473.3975504588
 21
137.3191616499
 31
0.0
  0
LINE
  5
3DE
330
3B2
100
AcDbEntity
  8
1-1MA
  6
Continuous
 62
     7
100
AcDbLine
 10
508.7528895181
 20
172.4285146298
 30
0.0
 11
521.4808115795
 21
165.0800454015
 31
0.0
  0
LINE
  5
3DF
330
3B2
100
AcDbEntity
  8
1-1MA
  6
Continuous
 62
     7
100
AcDbLine
 10
460.6696283974
 20
144.6676308783
 30
0.0
 11
473.3975504588
 21
137.3191616499
 31
0.0
  0
ELLIPSE
  5
3E0
330
3B2
100
AcDbEntity
  8
1-1MA
  6
Continuous
 62
     7
100
AcDbEllipse
 10
528.5518793914
 20
79.3479044038
 30
0.0
 11
20.15254326379462
 21
-34.90522883440835
 31
0.0
210
0.0
220
0.0
230
1.0
 40
0.5773502692
 41
-0.5696213190760062
 42
-0.5008119929742083
  0
LINE
  5
3E1
330
3B2
100
AcDbEntity
  8
1-1MA
  6
Continuous
 62
     7
100
AcDbLine
 10
519.3594912359
 20
33.2158475817
 30
0.0
 11
517.9452776735
 21
34.0323441626
 31
0.0
  0
LINE
  5
3E2
330
3B2
100
AcDbEntity
  8
1-1MA
  6
Continuous
 62
     7
100
AcDbLine
 10
567.4427523566
 20
60.9767313332
 30
0.0
 11
566.7356455754
 21
62.2014762046
 31
0.0
  0
ELLIPSE
  5
3E3
330
3B2
100
AcDbEntity
  8
1-1MA
  6
Continuous
 62
     7
100
AcDbEllipse
 10
560.7252379353
 20
128.1335751145
 30
0.0
 11
-1.049999999999912
 21
-1.818653347947373
 31
0.0
210
0.0
220
0.0
230
1.0
 40
0.5773502692
 41
0.0
 42
6.283185307179586
  0
ELLIPSE
  5
3E4
330
3B2
100
AcDbEntity
  8
1-1MA
  6
Continuous
 62
     7
100
AcDbEllipse
 10
523.9556853136
 20
106.9046640104
 30
0.0
 11
-1.049999999999907
 21
-1.818653347947376
 31
0.0
210
0.0
220
0.0
230
0.9999999999999999
 40
0.5773502692
 41
0.0
 42
6.283185307179586
  0
ELLIPSE
  5
3E5
330
3B2
100
AcDbEntity
  8
1-1MA
  6
Continuous
 62
     7
100
AcDbEllipse
 10
560.7252379353
 20
48.1169101836
 30
0.0
 11
-1.049999999999912
 21
-1.818653347947375
 31
0.0
210
0.0
220
0.0
230
1.0
 40
0.5773502692
 41
0.0
 42
6.283185307179586
  0
ELLIPSE
  5
3E6
330
3B2
100
AcDbEntity
  8
1-1MA
  6
Continuous
 62
     7
100
AcDbEllipse
 10
523.9556853136
 20
26.8879990795
 30
0.0
 11
-1.049999999999911
 21
-1.818653347947373
 31
0.0
210
0.0
220
0.0
230
1.0
 40
0.5773502692
 41
0.0
 42
6.283185307179586
  0
LINE
  5
3E7
330
3B2
100
AcDbEntity
  8
1-1MA
  6
Continuous
 62
     7
100
AcDbLine
 10
516.5310641112
 20
18.518909125
 30
0.0
 11
459.255414835
 21
51.5870206525
 31
0.0
  0
LINE
  5
3E8
330
3B2
100
AcDbEntity
  8
1-1MA
  6
Continuous
 62
     7
100
AcDbLine
 10
516.5310641112
 20
109.1500296079
 30
0.0
 11
516.5310641112
 21
18.518909125
 31
0.0
  0
LINE
  5
3E9
330
3B2
100
AcDbEntity
  8
1-1MA
  6
Continuous
 62
     7
100
AcDbLine
 10
459.255414835
 20
142.2181411355
 30
0.0
 11
516.5310641112
 21
109.1500296079
 31
0.0
  0
LINE
  5
3EA
330
3B2
100
AcDbEntity
  8
1-1MA
  6
Continuous
 62
     7
100
AcDbLine
 10
459.255414835
 20
51.5870206525
 30
0.0
 11
459.255414835
 21
142.2181411355
 31
0.0
  0
ELLIPSE
  5
3EB
330
3B2
100
AcDbEntity
  8
1-1MA
  6
Continuous
 62
     7
100
AcDbEllipse
 10
478.3472979271
 20
53.2200138144
 30
0.0
 11
5.499999999999521
 21
-9.526279441629098
 31
0.0
210
0.0
220
0.0
230
0.9999999999999998
 40
0.5773502692
 41
0.0
 42
6.283185307179586
  0
LINE
  5
3EC
330
3B2
100
AcDbEntity
  8
1-1MA
  6
Continuous
 62
     7
100
AcDbLine
 10
528.334174929
 20
155.9728912814
 30
0.0
 11
529.6125395631
 21
156.710955447
 31
0.0
  0
ELLIPSE
  5
3ED
330
3B2
100
AcDbEntity
  8
1-1MA
  6
Continuous
 62
     7
100
AcDbEllipse
 10
516.1775107206
 20
139.972775538
 30
0.0
 11
11.0
 21
-1.734723475976807E-15
 31
0.0
210
0.0
220
0.0
230
1.0
 40
0.5773502692
 41
2.529005959869422
 42
2.9146613981826
  0
LINE
  5
3EE
330
3B2
100
AcDbEntity
  8
1-1MA
  6
Continuous
 62
     7
100
AcDbLine
 10
523.9556853136
 20
138.3397823761
 30
0.0
 11
545.1688887492
 21
150.58723109
 31
0.0
  0
ELLIPSE
  5
3EF
330
3B2
100
AcDbEntity
  8
1-1MA
  6
Continuous
 62
     7
100
AcDbEllipse
 10
516.1775107206
 20
142.8305135712
 30
0.0
 11
11.0
 21
1.561251128379126E-14
 31
0.0
210
0.0
220
0.0
230
1.0
 40
0.5773502692
 41
2.460546331802022
 42
5.497787143782131
  0
LINE
  5
3F0
330
3B2
100
AcDbEntity
  8
1-1MA
  6
Continuous
 62
     7
100
AcDbLine
 10
529.6125395631
 20
159.5686934802
 30
0.0
 11
523.3923395002
 21
155.9774592995
 31
0.0
  0
LINE
  5
3F1
330
3B2
100
AcDbEntity
  8
1-1MA
  6
Continuous
 62
     7
100
AcDbLine
 10
522.1879183606
 20
163.8553005301
 30
0.0
 11
521.4808115795
 21
165.0800454015
 31
0.0
  0
LINE
  5
3F2
330
3B2
100
AcDbEntity
  8
1-1MA
  6
Continuous
 62
     7
100
AcDbLine
 10
529.6125395631
 20
159.5686934802
 30
0.0
 11
522.1879183606
 21
163.8553005301
 31
0.0
  0
LINE
  5
3F3
330
3B2
100
AcDbEntity
  8
1-1MA
  6
Continuous
 62
     7
100
AcDbLine
 10
552.5935099517
 20
146.3006240401
 30
0.0
 11
545.1688887492
 21
150.58723109
 31
0.0
  0
ELLIPSE
  5
3F4
330
3B2
100
AcDbEntity
  8
1-1MA
  6
Continuous
 62
     7
100
AcDbEllipse
 10
481.5292784424
 20
55.0571311215
 30
0.0
 11
5.499999999999519
 21
-9.526279441629098
 31
0.0
210
0.0
220
0.0
230
1.0
 40
0.5773502692
 41
3.435057798852354
 42
3.701251454821713
  0
ELLIPSE
  5
3F5
330
3B2
100
AcDbEntity
  8
1-1MA
  6
Continuous
 62
     7
100
AcDbEllipse
 10
481.5292784424
 20
55.0571311215
 30
0.0
 11
5.499999999999519
 21
-9.526279441629098
 31
0.0
210
0.0
220
0.0
230
1.0
 40
0.5773502692
 41
5.719472616720085
 42
5.989720161917043
  0
LINE
  5
3F6
330
3B2
100
AcDbEntity
  8
1-1MA
  6
Continuous
 62
     7
100
AcDbLine
 10
517.9452776735
 20
109.9665261889
 30
0.0
 11
516.5310641112
 21
109.1500296079
 31
0.0
  0
LINE
  5
3F7
330
3B2
100
AcDbEntity
  8
1-1MA
  6
Continuous
 62
     7
100
AcDbLine
 10
505.2173556122
 20
118.9479885791
 30
0.0
 11
503.8031420498
 21
118.1314919981
 31
0.0
  0
LINE
  5
3F8
330
3B2
100
AcDbEntity
  8
1-1MA
  6
Continuous
 62
     7
100
AcDbLine
 10
503.8031420498
 20
118.1314919981
 30
0.0
 11
473.3975504588
 21
135.6861684881
 31
0.0
  0
LINE
  5
3F9
330
3B2
100
AcDbEntity
  8
1-1MA
  6
Continuous
 62
     7
100
AcDbLine
 10
473.3975504588
 20
135.6861684881
 30
0.0
 11
473.3975504588
 21
137.3191616499
 31
0.0
  0
LINE
  5
3FA
330
3B2
100
AcDbEntity
  8
1-1MA
  6
Continuous
 62
     7
100
AcDbLine
 10
459.255414835
 20
143.8511342974
 30
0.0
 11
459.255414835
 21
142.2181411355
 31
0.0
  0
LINE
  5
3FB
330
3B2
100
AcDbEntity
  8
1-1MA
  6
Continuous
 62
     7
100
AcDbLine
 10
517.9452776735
 20
17.702412544
 30
0.0
 11
516.5310641112
 21
18.518909125
 31
0.0
  0
LINE
  5
3FC
330
3B2
100
AcDbEntity
  8
1-1MA
  6
Continuous
 62
     7
100
AcDbLine
 10
517.9452776735
 20
93.6365945703
 30
0.0
 11
519.3594912359
 21
94.4530911512
 31
0.0
  0
LINE
  5
3FD
330
3B2
100
AcDbEntity
  8
1-1MA
  6
Continuous
 62
     7
100
AcDbLine
 10
473.3975504588
 20
135.6861684881
 30
0.0
 11
509.374692822
 21
156.4575813162
 31
0.0
  0
LINE
  5
3FE
330
3B2
100
AcDbEntity
  8
1-1MA
  6
Continuous
 62
     7
100
AcDbLine
 10
511.6934358267
 20
157.7963082141
 30
0.0
 11
522.1879183606
 21
163.8553005301
 31
0.0
  0
ELLIPSE
  5
3FF
330
3B2
100
AcDbEntity
  8
1-1MA
  6
Continuous
 62
     7
100
AcDbEllipse
 10
543.7546751868
 20
70.5705661591
 30
0.0
 11
14.24999999999879
 21
24.68172400785721
 31
0.0
210
0.0
220
0.0
230
1.0
 40
0.5773502692
 41
6.017609442459912
 42
6.221118554449602
  0
ELLIPSE
  5
400
330
3B2
100
AcDbEntity
  8
1-1MA
  6
Continuous
 62
     7
100
AcDbEllipse
 10
543.7546751868
 20
70.5705661591
 30
0.0
 11
14.24999999999879
 21
24.68172400785721
 31
0.0
210
0.0
220
0.0
230
1.0
 40
0.5773502692
 41
3.20365940631573
 42
3.298028815637188
  0
LINE
  5
401
330
3B2
100
AcDbEntity
  8
1-1MA
  6
Continuous
 62
     7
100
AcDbLine
 10
529.6125395631
 20
156.710955447
 30
0.0
 11
529.6125395631
 21
159.5686934802
 31
0.0
  0
LINE
  5
402
330
3B2
100
AcDbEntity
  8
1-1MA
  6
Continuous
 62
     7
100
AcDbLine
 10
542.6940150151
 20
149.1583620734
 30
0.0
 11
539.7617039218
 21
150.8513326724
 31
0.0
  0
LINE
  5
403
330
3B2
100
AcDbEntity
  8
1-1MA
  6
Continuous
 62
     7
100
AcDbLine
 10
530.6680212678
 20
156.1015728006
 30
0.0
 11
529.6125395631
 21
156.710955447
 31
0.0
  0
LINE
  5
404
330
3B2
100
AcDbEntity
  8
1-1MA
  6
Continuous
 62
     7
100
AcDbLine
 10
575.6078598794
 20
53.3693066222
 30
0.0
 11
575.6078598794
 21
141.624046216
 31
0.0
  0
LINE
  5
405
330
3B2
100
AcDbEntity
  8
1-1MA
  6
Continuous
 62
     7
100
AcDbLine
 10
575.6078598794
 20
141.624046216
 30
0.0
 11
567.4427523566
 21
136.9099191898
 31
0.0
  0
LINE
  5
406
330
3B2
100
AcDbEntity
  8
1-1MA
  6
Continuous
 62
     7
100
AcDbLine
 10
575.6078598794
 20
53.3693066222
 30
0.0
 11
567.4427523566
 21
47.9728690123
 31
0.0
  0
LINE
  5
407
330
3B2
100
AcDbEntity
  8
1-1MA
  6
Continuous
 62
     7
100
AcDbLine
 10
575.5827361722
 20
143.2435283685
 30
0.0
 11
574.1927853408
 21
144.0750272134
 31
0.0
  0
LINE
  5
408
330
3B2
100
AcDbEntity
  8
1-1MA
  6
Continuous
 62
     7
100
AcDbLine
 10
518.9751422837
 20
175.9549482964
 30
0.0
 11
510.2191364623
 21
171.5819765619
 31
0.0
  0
LINE
  5
409
330
3B2
100
AcDbEntity
  8
1-1MA
  6
Continuous
 62
     7
100
AcDbLine
 10
529.6125395631
 20
159.5686934802
 30
0.0
 11
545.1688887492
 21
150.58723109
 31
0.0
  0
LINE
  5
40A
330
3B2
100
AcDbEntity
  8
1-1MA
  6
Continuous
 62
     7
100
AcDbLine
 10
566.027677818
 20
139.3609001871
 30
0.0
 11
574.1927853408
 21
144.0750272134
 31
0.0
  0
LINE
  5
40B
330
3B2
100
AcDbEntity
  8
1-1MA
  6
Continuous
 62
     7
100
AcDbLine
 10
575.5827361722
 20
143.2435283685
 30
0.0
 11
575.6078598794
 21
141.624046216
 31
0.0
  0
LINE
  5
40C
330
3B2
100
AcDbEntity
  8
1-1MA
  6
Continuous
 62
     7
100
AcDbLine
 10
518.9751422837
 20
175.9549482964
 30
0.0
 11
574.1927853408
 21
144.0750272134
 31
0.0
  0
ELLIPSE
  5
40D
330
3B2
100
AcDbEntity
  8
1-1MA
  6
Continuous
 62
     7
100
AcDbEllipse
 10
544.6426165102
 20
69.8584744498
 30
0.0
 11
-4.499999999999612
 21
-7.794228634060172
 31
0.0
210
0.0
220
0.0
230
1.0
 40
0.5773502692
 41
0.1181256529810102
 42
0.3905798107761528
  0
ELLIPSE
  5
40E
330
3B2
100
AcDbEntity
  8
1-1MA
  6
Continuous
 62
     7
100
AcDbEllipse
 10
544.6426165102
 20
69.8584744498
 30
0.0
 11
-4.499999999999612
 21
-7.794228634060172
 31
0.0
210
0.0
220
0.0
230
1.0
 40
0.5773502692
 41
2.751012842763446
 42
3.023467000623673
  0
ELLIPSE
  5
40F
330
3B2
100
AcDbEntity
  8
1-1MA
  6
Continuous
 62
     7
100
AcDbEllipse
 10
545.703276682
 20
69.2461020141
 30
0.0
 11
-4.499999999999623
 21
-7.794228634060174
 31
0.0
210
0.0
220
0.0
230
1.0
 40
0.5773502692
 41
0.0
 42
6.283185307179586
  0
ELLIPSE
  5
410
330
3B2
100
AcDbEntity
  8
1-1MA
  6
Continuous
 62
     7
100
AcDbEllipse
 10
543.5819563385
 20
70.4708468855
 30
0.0
 11
-13.9999999999988
 21
-24.24871130596499
 31
0.0
210
0.0
220
0.0
230
1.0
 40
0.5773502692
 41
3.14159265358979
 42
3.257792572806668
  0
ELLIPSE
  5
411
330
3B2
100
AcDbEntity
  8
1-1MA
  6
Continuous
 62
     7
100
AcDbEllipse
 10
543.5819563385
 20
70.4708468855
 30
0.0
 11
-13.9999999999988
 21
-24.24871130596499
 31
0.0
210
0.0
220
0.0
230
1.0
 40
0.5773502692
 41
6.260071875340398
 42
6.283185307179586
  0
ELLIPSE
  5
412
330
3B2
100
AcDbEntity
  8
1-1MA
  6
Continuous
 62
     7
100
AcDbEllipse
 10
545.3497232914
 20
69.4502261593
 30
0.0
 11
13.9999999999988
 21
24.24871130596498
 31
0.0
210
0.0
220
0.0
230
1.0
 40
0.5773502692
 41
6.142607707460924
 42
6.283185307179576
  0
ELLIPSE
  5
413
330
3B2
100
AcDbEntity
  8
1-1MA
  6
Continuous
 62
     7
100
AcDbEllipse
 10
545.3497232914
 20
69.4502261593
 30
0.0
 11
13.9999999999988
 21
24.24871130596498
 31
0.0
210
0.0
220
0.0
230
1.0
 40
0.5773502692
 41
3.012427402339063
 42
3.282155556908358
  0
ELLIPSE
  5
414
330
3B2
100
AcDbEntity
  8
1-1MA
  6
Continuous
 62
     7
100
AcDbEllipse
 10
545.3497232914
 20
69.4502261593
 30
0.0
 11
13.9999999999988
 21
24.24871130596498
 31
0.0
210
0.0
220
0.0
230
1.0
 40
0.5773502692
 41
0.133036248701582
 42
3.012427402339063
  0
ELLIPSE
  5
415
330
3B2
100
AcDbEntity
  8
1-1MA
  6
Continuous
 62
     7
100
AcDbEllipse
 10
545.3497232914
 20
69.4502261593
 30
0.0
 11
13.9999999999988
 21
24.24871130596498
 31
0.0
210
0.0
220
0.0
230
1.0
 40
0.5773502692
 41
0.0
 42
0.133036248701582
  0
ELLIPSE
  5
416
330
3B2
100
AcDbEntity
  8
1-1MA
  6
Continuous
 62
     7
100
AcDbEllipse
 10
545.703276682
 20
69.2461020141
 30
0.0
 11
13.74999999999878
 21
23.81569860407269
 31
0.0
210
0.0
220
0.0
230
1.0
 40
0.5773502692
 41
0.2617993877990679
 42
1.308996938995662
  0
ELLIPSE
  5
417
330
3B2
100
AcDbEntity
  8
1-1MA
  6
Continuous
 62
     7
100
AcDbEllipse
 10
545.703276682
 20
69.2461020141
 30
0.0
 11
-13.74999999999849
 21
-23.81569860407245
 31
0.0
210
0.0
220
0.0
230
1.0
 40
0.5773502692
 41
2.356194490192254
 42
3.403392041388849
  0
ELLIPSE
  5
418
330
3B2
100
AcDbEntity
  8
1-1MA
  6
Continuous
 62
     7
100
AcDbEllipse
 10
545.703276682
 20
69.2461020141
 30
0.0
 11
13.74999999999873
 21
23.81569860407269
 31
0.0
210
0.0
220
0.0
230
1.0
 40
0.5773502692
 41
4.450589592585452
 42
5.497787143782051
  0
ELLIPSE
  5
419
330
3B2
100
AcDbEntity
  8
1-1MA
  6
Continuous
 62
     7
100
AcDbEllipse
 10
545.703276682
 20
69.2461020141
 30
0.0
 11
-13.74999999999881
 21
-23.8156986040727
 31
0.0
210
0.0
220
0.0
230
1.0
 40
0.5773502692
 41
0.2617993877990665
 42
1.308996938995665
  0
ELLIPSE
  5
41A
330
3B2
100
AcDbEntity
  8
1-1MA
  6
Continuous
 62
     7
100
AcDbEllipse
 10
529.4398207147
 20
59.8563913334
 30
0.0
 11
-2.249999999999806
 21
-3.897114317030088
 31
0.0
210
0.0
220
0.0
230
1.0
 40
0.5773502692
 41
0.0
 42
6.283185307179586
  0
ELLIPSE
  5
41B
330
3B2
100
AcDbEntity
  8
1-1MA
  6
Continuous
 62
     7
100
AcDbEllipse
 10
537.5715486984
 20
80.8147026411
 30
0.0
 11
-2.249999999999806
 21
-3.897114317030079
 31
0.0
210
0.0
220
0.0
230
1.0
 40
0.5773502692
 41
0.0
 42
6.283185307179586
  0
ELLIPSE
  5
41C
330
3B2
100
AcDbEntity
  8
1-1MA
  6
Continuous
 62
     7
100
AcDbEllipse
 10
553.8350046657
 20
90.2044133217
 30
0.0
 11
-2.249999999999812
 21
-3.897114317030094
 31
0.0
210
0.0
220
0.0
230
1.0
 40
0.5773502692
 41
0.0
 42
6.283185307179586
  0
ELLIPSE
  5
41D
330
3B2
100
AcDbEntity
  8
1-1MA
  6
Continuous
 62
     7
100
AcDbEllipse
 10
561.9667326493
 20
78.6358126948
 30
0.0
 11
-2.249999999999812
 21
-3.897114317030094
 31
0.0
210
0.0
220
0.0
230
1.0
 40
0.5773502692
 41
0.0
 42
6.283185307179586
  0
ELLIPSE
  5
41E
330
3B2
100
AcDbEntity
  8
1-1MA
  6
Continuous
 62
     7
100
AcDbEllipse
 10
553.8350046657
 20
57.6775013871
 30
0.0
 11
-2.249999999999806
 21
-3.897114317030088
 31
0.0
210
0.0
220
0.0
230
1.0
 40
0.5773502692
 41
0.0
 42
6.283185307179586
  0
ELLIPSE
  5
41F
330
3B2
100
AcDbEntity
  8
1-1MA
  6
Continuous
 62
     7
100
AcDbEllipse
 10
537.5715486984
 20
48.2877907065
 30
0.0
 11
-2.249999999999806
 21
-3.897114317030088
 31
0.0
210
0.0
220
0.0
230
1.0
 40
0.5773502692
 41
0.0
 42
6.283185307179586
  0
ELLIPSE
  5
420
330
3B2
100
AcDbEntity
  8
1-1MA
  6
Continuous
 62
     7
100
AcDbEllipse
 10
545.703276682
 20
69.2461020141
 30
0.0
 11
13.74999999999868
 21
23.81569860407259
 31
0.0
210
0.0
220
0.0
230
1.0
 40
0.5773502692
 41
2.356194490192257
 42
3.403392041388861
  0
ELLIPSE
  5
421
330
3B2
100
AcDbEntity
  8
1-1MA
  6
Continuous
 62
     7
100
AcDbEllipse
 10
545.703276682
 20
69.2461020141
 30
0.0
 11
-13.74999999999873
 21
-23.8156986040727
 31
0.0
210
0.0
220
0.0
230
1.0
 40
0.5773502692
 41
4.450589592585448
 42
5.497787143782054
  0
ELLIPSE
  5
422
330
3B2
100
AcDbEntity
  8
1-1MA
  6
Continuous
 62
     7
100
AcDbEllipse
 10
545.4911446477
 20
69.3685765012
 30
0.0
 11
4.249999999999632
 21
7.36121593216794
 31
0.0
210
0.0
220
0.0
230
1.0
 40
0.5773502692
 41
5.497787143782049
 42
6.283185307179581
  0
ELLIPSE
  5
423
330
3B2
100
AcDbEntity
  8
1-1MA
  6
Continuous
 62
     7
100
AcDbEllipse
 10
545.4911446477
 20
69.3685765012
 30
0.0
 11
4.249999999999632
 21
7.36121593216794
 31
0.0
210
0.0
220
0.0
230
1.0
 40
0.5773502692
 41
0.0
 42
3.926990816987331
  0
LINE
  5
424
330
3B2
100
AcDbEntity
  8
1-1MA
  6
Continuous
 62
     7
100
AcDbLine
 10
545.9646912356
 20
74.2143596045
 30
0.0
 11
546.7639368538
 21
73.7529149316
 31
0.0
  0
LINE
  5
425
330
3B2
100
AcDbEntity
  8
1-1MA
  6
Continuous
 62
     7
100
AcDbLine
 10
547.1174902444
 20
73.9748441035
 30
0.0
 11
547.1174902444
 21
74.8799284225
 31
0.0
  0
LINE
  5
426
330
3B2
100
AcDbEntity
  8
1-1MA
  6
Continuous
 62
     7
100
AcDbLine
 10
547.1174902444
 20
74.8799284225
 30
0.0
 11
544.9961699008
 21
73.6551835511
 31
0.0
  0
LINE
  5
427
330
3B2
100
AcDbEntity
  8
1-1MA
  6
Continuous
 62
     7
100
AcDbLine
 10
544.9961699008
 20
73.6551835511
 30
0.0
 11
544.9961699008
 21
72.7500992321
 31
0.0
  0
ELLIPSE
  5
428
330
3B2
100
AcDbEntity
  8
1-1MA
  6
Continuous
 62
     7
100
AcDbEllipse
 10
545.703276682
 20
69.2461020141
 30
0.0
 11
2.499999999999771
 21
4.330127018922276
 31
0.0
210
0.0
220
0.0
230
1.0
 40
0.5773502692
 41
2.405022058421004
 42
6.763890816561529
  0
ELLIPSE
  5
429
330
3B2
100
AcDbEntity
  8
1-1MA
  6
Continuous
 62
     7
100
AcDbEllipse
 10
546.0568300726
 20
69.0419778689
 30
0.0
 11
3.849999999999672
 21
6.668395609140371
 31
0.0
210
0.0
220
0.0
230
0.9999999999999999
 40
0.5773502692
 41
0.0
 42
6.283185307179586
  0
ELLIPSE
  5
42A
330
3B2
100
AcDbEntity
  8
1-1MA
  6
Continuous
 62
     7
100
AcDbEllipse
 10
546.0568300726
 20
69.0419778689
 30
0.0
 11
2.74999999999977
 21
4.763139720814568
 31
0.0
210
0.0
220
0.0
230
1.0
 40
0.5773502692
 41
1.06162479416092
 42
6.79235683981334
  0
ARC
  5
42B
330
3B2
100
AcDbEntity
  8
1-1MA
  6
Continuous
 62
     7
100
AcDbCircle
 10
577.153232349
 20
25.7325844261
 30
0.0
 40
56.82835051765349
100
AcDbArc
 50
121.9064882287
 51
122.3273583921
  0
SPLINE
  5
42C
330
3B2
100
AcDbEntity
  8
1-1MA
  6
Continuous
 62
     7
100
AcDbSpline
210
0.0
220
0.0
230
1.0
 70
     8
 71
     3
 72
    16
 73
    12
 74
     0
 42
0.0000000023136358
 43
0.0000000001
 40
0.2124044386373765
 40
0.2124044386373765
 40
0.2124044386373765
 40
0.2124044386373765
 40
0.25
 40
0.25
 40
0.375
 40
0.375
 40
0.5
 40
0.5
 40
0.625
 40
0.625
 40
0.7219287550912816
 40
0.7219287550912816
 40
0.7219287550912816
 40
0.7219287550912816
 10
553.6738367329838
 20
61.25155406038137
 30
0.0
 10
553.7316878747716
 20
61.28083668278797
 30
0.0
 10
553.7894164663984
 20
61.3082526230013
 30
0.0
 10
554.0375367680517
 20
61.41820584601426
 30
0.0
 10
554.2257406284745
 20
61.48193304611778
 30
0.0
 10
554.5970102688021
 20
61.56727630296866
 30
0.0
 10
554.7792348477896
 20
61.58816509601042
 30
0.0
 10
555.1230845279869
 20
61.58552786140226
 30
0.0
 10
555.286735975569
 20
61.56256269107241
 30
0.0
 10
555.5620513998723
 20
61.4818365651732
 30
0.0
 10
555.6745644533469
 20
61.43372178121116
 30
0.0
 10
555.7790472615845
 20
61.37335869687136
 30
0.0
  0
ELLIPSE
  5
42D
330
3B2
100
AcDbEntity
  8
1-1MA
  6
Continuous
 62
     7
100
AcDbEllipse
 10
553.6438468327
 20
57.7878664135
 30
0.0
 11
2.114831000000092
 21
3.662994741421991
 31
0.0
210
0.0
220
0.0
230
0.9999999999999997
 40
0.5773502692
 41
5.160268216771959
 42
5.835306070791657
  0
ELLIPSE
  5
42E
330
3B2
100
AcDbEntity
  8
1-1MA
  6
Continuous
 62
     7
100
AcDbEllipse
 10
553.816565681
 20
57.8875856871
 30
0.0
 11
0.726874999999939
 21
1.258984430751663
 31
0.0
210
0.0
220
0.0
230
1.0
 40
0.5773502692
 41
0.0
 42
6.283185307179586
  0
ELLIPSE
  5
42F
330
3B2
100
AcDbEntity
  8
1-1MA
  6
Continuous
 62
     7
100
AcDbEllipse
 10
553.816565681
 20
57.8875856871
 30
0.0
 11
-1.999999999999832
 21
-3.464101615137847
 31
0.0
210
0.0
220
0.0
230
1.0
 40
0.5773502692
 41
2.71393639943902
 42
8.281637888124573
  0
ELLIPSE
  5
430
330
3B2
100
AcDbEntity
  8
1-1MA
  6
Continuous
 62
     7
100
AcDbEllipse
 10
553.6044336467
 20
58.0100601742
 30
0.0
 11
1.999999999999822
 21
3.464101615137862
 31
0.0
210
0.0
220
0.0
230
1.0
 40
0.5773502692
 41
2.062329898810632
 42
3.141592653589793
  0
ARC
  5
431
330
3B2
100
AcDbEntity
  8
1-1MA
  6
Continuous
 62
     7
100
AcDbCircle
 10
559.0018432577
 20
53.6359767421
 30
0.0
 40
6.011972694463484
100
AcDbArc
 50
135.4935830367
 51
149.0439353286
  0
ARC
  5
432
330
3B2
100
AcDbEntity
  8
1-1MA
  6
Continuous
 62
     7
100
AcDbCircle
 10
553.1781637187
 20
51.6283839649
 30
0.0
 40
5.143601448756253
100
AcDbArc
 50
82.5374618814
 51
92.5798633595
  0
ARC
  5
433
330
3B2
100
AcDbEntity
  8
1-1MA
  6
Continuous
 62
     7
100
AcDbCircle
 10
557.5686621301
 20
57.4727829998
 30
0.0
 40
4.675632112646646
100
AcDbArc
 50
174.4250476864
 51
188.6847638198
  0
LINE
  5
434
330
3B2
100
AcDbEntity
  8
1-1MA
  6
Continuous
 62
     7
100
AcDbLine
 10
553.846204001
 20
56.7284190672
 30
0.0
 11
552.9062479213
 21
57.2711029629
 31
0.0
  0
LINE
  5
435
330
3B2
100
AcDbEntity
  8
1-1MA
  6
Continuous
 62
     7
100
AcDbLine
 10
553.4412186811
 20
58.6621175207
 30
0.0
 11
553.443337013
 21
58.5840795559
 31
0.0
  0
LINE
  5
436
330
3B2
100
AcDbEntity
  8
1-1MA
  6
Continuous
 62
     7
100
AcDbLine
 10
554.7142729988
 20
57.8503043224
 30
0.0
 11
553.443337013
 21
58.5840795559
 31
0.0
  0
LINE
  5
437
330
3B2
100
AcDbEntity
  8
1-1MA
  6
Continuous
 62
     7
100
AcDbLine
 10
553.443337013
 20
58.5840795559
 30
0.0
 11
552.9139125786
 21
57.8998557577
 31
0.0
  0
ARC
  5
438
330
3B2
100
AcDbEntity
  8
1-1MA
  6
Continuous
 62
     7
100
AcDbCircle
 10
558.0707851792
 20
54.8345681053
 30
0.0
 40
6.011972694469791
100
AcDbArc
 50
135.4935830367
 51
149.0439353286
  0
ARC
  5
439
330
3B2
100
AcDbEntity
  8
1-1MA
  6
Continuous
 62
     7
100
AcDbCircle
 10
554.0147381582
 20
53.9105071086
 30
0.0
 40
5.143601868144501
100
AcDbArc
 50
82.5374622919
 51
92.5798629491
  0
ARC
  5
43A
330
3B2
100
AcDbEntity
  8
1-1MA
  6
Continuous
 62
     7
100
AcDbCircle
 10
559.3362948399
 20
58.5563152056
 30
0.0
 40
4.675632285254015
100
AcDbArc
 50
174.4250479509
 51
188.6847635552
  0
LINE
  5
43B
330
3B2
100
AcDbEntity
  8
1-1MA
  6
Continuous
 62
     7
100
AcDbLine
 10
527.6679959148
 20
89.5992116318
 30
0.0
 11
529.6125395631
 21
92.0182568627
 31
0.0
  0
LINE
  5
43C
330
3B2
100
AcDbEntity
  8
1-1MA
  6
Continuous
 62
     7
100
AcDbLine
 10
529.6125395631
 20
92.0182568627
 30
0.0
 11
529.6125395631
 21
93.4031595166
 31
0.0
  0
LINE
  5
43D
330
3B2
100
AcDbEntity
  8
1-1MA
  6
Continuous
 62
     7
100
AcDbLine
 10
527.6679959148
 20
89.2772363563
 30
0.0
 11
529.7893162584
 21
88.0524914849
 31
0.0
  0
LINE
  5
43E
330
3B2
100
AcDbEntity
  8
1-1MA
  6
Continuous
 62
     7
100
AcDbLine
 10
529.6125395631
 20
92.0182568627
 30
0.0
 11
531.910636602
 21
90.6914499187
 31
0.0
  0
ELLIPSE
  5
43F
330
3B2
100
AcDbEntity
  8
1-1MA
  6
Continuous
 62
     7
100
AcDbEllipse
 10
529.9660929537
 20
90.7788565371
 30
0.0
 11
-4.274999999999632
 21
-7.404517202357161
 31
0.0
210
0.0
220
0.0
230
1.0
 40
0.5773502692
 41
0.0
 42
6.283185307179586
  0
ELLIPSE
  5
440
330
3B2
100
AcDbEntity
  8
1-1MA
  6
Continuous
 62
     7
100
AcDbEllipse
 10
529.2943415116
 20
91.166692413
 30
0.0
 11
-4.749999999999591
 21
-8.227241335952399
 31
0.0
210
0.0
220
0.0
230
0.9999999999999998
 40
0.5773502692
 41
0.0
 42
0.0074501579529393
  0
ELLIPSE
  5
441
330
3B2
100
AcDbEntity
  8
1-1MA
  6
Continuous
 62
     7
100
AcDbEllipse
 10
529.2943415116
 20
91.166692413
 30
0.0
 11
-4.749999999999591
 21
-8.227241335952399
 31
0.0
210
0.0
220
0.0
230
0.9999999999999998
 40
0.5773502692
 41
3.136237462564312
 42
3.141592653589782
  0
ELLIPSE
  5
442
330
3B2
100
AcDbEntity
  8
1-1MA
  6
Continuous
 62
     7
100
AcDbEllipse
 10
529.2943415116
 20
91.166692413
 30
0.0
 11
-4.749999999999591
 21
-8.227241335952399
 31
0.0
210
0.0
220
0.0
230
0.9999999999999998
 40
0.5773502692
 41
3.141592653589782
 42
6.283185307179586
  0
ELLIPSE
  5
443
330
3B2
100
AcDbEntity
  8
1-1MA
  6
Continuous
 62
     7
100
AcDbEllipse
 10
528.6933007476
 20
91.5137034599
 30
0.0
 11
-4.749999999999583
 21
-8.227241335952405
 31
0.0
210
0.0
220
0.0
230
0.9999999999999997
 40
0.5773502692
 41
3.141592653589793
 42
3.667268489300703
  0
ELLIPSE
  5
444
330
3B2
100
AcDbEntity
  8
1-1MA
  6
Continuous
 62
     7
100
AcDbEllipse
 10
528.6933007476
 20
91.5137034599
 30
0.0
 11
-4.749999999999583
 21
-8.227241335952405
 31
0.0
210
0.0
220
0.0
230
0.9999999999999997
 40
0.5773502692
 41
5.757509471462182
 42
6.283185307179586
  0
LINE
  5
445
330
3B2
100
AcDbEntity
  8
1-1MA
  6
Continuous
 62
     7
100
AcDbLine
 10
529.9660929537
 20
93.8429859222
 30
0.0
 11
527.6679959148
 21
90.9841142856
 31
0.0
  0
LINE
  5
446
330
3B2
100
AcDbEntity
  8
1-1MA
  6
Continuous
 62
     7
100
AcDbLine
 10
527.6679959148
 20
90.9841142856
 30
0.0
 11
527.6679959148
 21
87.9199849005
 31
0.0
  0
LINE
  5
447
330
3B2
100
AcDbEntity
  8
1-1MA
  6
Continuous
 62
     7
100
AcDbLine
 10
527.6679959148
 20
87.9199849005
 30
0.0
 11
529.9660929537
 21
87.7147271519
 31
0.0
  0
LINE
  5
448
330
3B2
100
AcDbEntity
  8
1-1MA
  6
Continuous
 62
     7
100
AcDbLine
 10
529.9660929537
 20
87.7147271519
 30
0.0
 11
529.7893162584
 21
88.0524914849
 31
0.0
  0
LINE
  5
449
330
3B2
100
AcDbEntity
  8
1-1MA
  6
Continuous
 62
     7
100
AcDbLine
 10
529.7893162584
 20
88.0524914849
 30
0.0
 11
527.6679959148
 21
88.2419601759
 31
0.0
  0
LINE
  5
44A
330
3B2
100
AcDbEntity
  8
1-1MA
  6
Continuous
 62
     7
100
AcDbLine
 10
529.9660929537
 20
87.7147271519
 30
0.0
 11
532.2641899926
 21
90.5735987885
 31
0.0
  0
LINE
  5
44B
330
3B2
100
AcDbEntity
  8
1-1MA
  6
Continuous
 62
     7
100
AcDbLine
 10
531.910636602
 20
90.6914499187
 30
0.0
 11
529.7893162584
 21
88.0524914849
 31
0.0
  0
LINE
  5
44C
330
3B2
100
AcDbEntity
  8
1-1MA
  6
Continuous
 62
     7
100
AcDbLine
 10
532.2641899926
 20
90.5735987885
 30
0.0
 11
532.2641899926
 21
93.6377281736
 31
0.0
  0
LINE
  5
44D
330
3B2
100
AcDbEntity
  8
1-1MA
  6
Continuous
 62
     7
100
AcDbLine
 10
532.2641899926
 20
93.6377281736
 30
0.0
 11
531.910636602
 21
93.5198770434
 31
0.0
  0
LINE
  5
44E
330
3B2
100
AcDbEntity
  8
1-1MA
  6
Continuous
 62
     7
100
AcDbLine
 10
531.910636602
 20
93.5198770434
 30
0.0
 11
531.910636602
 21
90.6914499187
 31
0.0
  0
LINE
  5
44F
330
3B2
100
AcDbEntity
  8
1-1MA
  6
Continuous
 62
     7
100
AcDbLine
 10
531.910636602
 20
90.6914499187
 30
0.0
 11
532.2641899926
 21
90.5735987885
 31
0.0
  0
LINE
  5
450
330
3B2
100
AcDbEntity
  8
1-1MA
  6
Continuous
 62
     7
100
AcDbLine
 10
532.2641899926
 20
93.6377281736
 30
0.0
 11
529.9660929537
 21
93.8429859222
 31
0.0
  0
LINE
  5
451
330
3B2
100
AcDbEntity
  8
1-1MA
  6
Continuous
 62
     7
100
AcDbLine
 10
529.8540210197
 20
93.7035665382
 30
0.0
 11
531.910636602
 21
93.5198770434
 31
0.0
  0
LINE
  5
452
330
3B2
100
AcDbEntity
  8
1-1MA
  6
Continuous
 62
     7
100
AcDbLine
 10
480.304533571
 20
53.3147481599
 30
0.0
 11
481.5038944511
 21
52.6222968329
 31
0.0
  0
LINE
  5
453
330
3B2
100
AcDbEntity
  8
1-1MA
  6
Continuous
 62
     7
100
AcDbLine
 10
479.1818507723
 20
56.2082949735
 30
0.0
 11
480.304533571
 21
53.3147481599
 31
0.0
  0
LINE
  5
454
330
3B2
100
AcDbEntity
  8
1-1MA
  6
Continuous
 62
     7
100
AcDbLine
 10
478.9030120043
 20
56.3692826112
 30
0.0
 11
476.7816916608
 21
55.1445377398
 31
0.0
  0
ELLIPSE
  5
455
330
3B2
100
AcDbEntity
  8
1-1MA
  6
Continuous
 62
     7
100
AcDbEllipse
 10
479.0544047083
 20
53.6282621048
 30
0.0
 11
4.274999999999633
 21
-7.404517202357164
 31
0.0
210
0.0
220
0.0
230
1.0
 40
0.5773502692
 41
0.0
 42
6.283185307179586
  0
ELLIPSE
  5
456
330
3B2
100
AcDbEntity
  8
1-1MA
  6
Continuous
 62
     7
100
AcDbEllipse
 10
479.7261561504
 20
54.0160979808
 30
0.0
 11
4.74999999999959
 21
-8.227241335952405
 31
0.0
210
0.0
220
0.0
230
1.0
 40
0.5773502692
 41
0.0000000000000019
 42
0.0074501579520004
  0
ELLIPSE
  5
457
330
3B2
100
AcDbEntity
  8
1-1MA
  6
Continuous
 62
     7
100
AcDbEllipse
 10
479.7261561504
 20
54.0160979808
 30
0.0
 11
4.74999999999959
 21
-8.227241335952405
 31
0.0
210
0.0
220
0.0
230
1.0
 40
0.5773502692
 41
0.0074501579520004
 42
0.4575227820135844
  0
ELLIPSE
  5
458
330
3B2
100
AcDbEntity
  8
1-1MA
  6
Continuous
 62
     7
100
AcDbEllipse
 10
479.7261561504
 20
54.0160979808
 30
0.0
 11
4.74999999999959
 21
-8.227241335952405
 31
0.0
210
0.0
220
0.0
230
1.0
 40
0.5773502692
 41
2.684069871576217
 42
3.136237462564042
  0
ELLIPSE
  5
459
330
3B2
100
AcDbEntity
  8
1-1MA
  6
Continuous
 62
     7
100
AcDbEllipse
 10
479.7261561504
 20
54.0160979808
 30
0.0
 11
4.74999999999959
 21
-8.227241335952405
 31
0.0
210
0.0
220
0.0
230
1.0
 40
0.5773502692
 41
3.136237462564042
 42
3.141592653589795
  0
ELLIPSE
  5
45A
330
3B2
100
AcDbEntity
  8
1-1MA
  6
Continuous
 62
     7
100
AcDbEllipse
 10
480.3271969144
 20
54.3631090277
 30
0.0
 11
4.749999999999589
 21
-8.227241335952405
 31
0.0
210
0.0
220
0.0
230
1.0
 40
0.5773502692
 41
0.000000000000002
 42
0.2016667871018049
  0
ELLIPSE
  5
45B
330
3B2
100
AcDbEntity
  8
1-1MA
  6
Continuous
 62
     7
100
AcDbEllipse
 10
480.3271969144
 20
54.3631090277
 30
0.0
 11
4.749999999999589
 21
-8.227241335952405
 31
0.0
210
0.0
220
0.0
230
1.0
 40
0.5773502692
 41
2.939925866487936
 42
3.141592653589795
  0
LINE
  5
45C
330
3B2
100
AcDbEntity
  8
1-1MA
  6
Continuous
 62
     7
100
AcDbLine
 10
478.0064365322
 20
51.9879412159
 30
0.0
 11
480.304533571
 21
53.3147481599
 31
0.0
  0
LINE
  5
45D
330
3B2
100
AcDbEntity
  8
1-1MA
  6
Continuous
 62
     7
100
AcDbLine
 10
476.4007908203
 20
55.1603267974
 30
0.0
 11
477.7275977643
 21
51.7406805631
 31
0.0
  0
LINE
  5
45E
330
3B2
100
AcDbEntity
  8
1-1MA
  6
Continuous
 62
     7
100
AcDbLine
 10
478.0064365322
 20
51.9879412159
 30
0.0
 11
476.7816916608
 21
55.1445377398
 31
0.0
  0
LINE
  5
45F
330
3B2
100
AcDbEntity
  8
1-1MA
  6
Continuous
 62
     7
100
AcDbLine
 10
477.7275977643
 20
51.7406805631
 30
0.0
 11
480.3812116523
 21
50.2086158705
 31
0.0
  0
LINE
  5
460
330
3B2
100
AcDbEntity
  8
1-1MA
  6
Continuous
 62
     7
100
AcDbLine
 10
480.455926275
 20
50.5737276535
 30
0.0
 11
478.0064365322
 21
51.9879412159
 31
0.0
  0
LINE
  5
461
330
3B2
100
AcDbEntity
  8
1-1MA
  6
Continuous
 62
     7
100
AcDbLine
 10
478.0064365322
 20
51.9879412159
 30
0.0
 11
477.7275977643
 21
51.7406805631
 31
0.0
  0
LINE
  5
462
330
3B2
100
AcDbEntity
  8
1-1MA
  6
Continuous
 62
     7
100
AcDbLine
 10
480.3812116523
 20
50.2086158705
 30
0.0
 11
481.7080185963
 21
52.0961974123
 31
0.0
  0
LINE
  5
463
330
3B2
100
AcDbEntity
  8
1-1MA
  6
Continuous
 62
     7
100
AcDbLine
 10
481.643313835
 20
52.2629642462
 30
0.0
 11
480.455926275
 21
50.5737276535
 31
0.0
  0
LINE
  5
464
330
3B2
100
AcDbEntity
  8
1-1MA
  6
Continuous
 62
     7
100
AcDbLine
 10
480.455926275
 20
50.5737276535
 30
0.0
 11
480.3812116523
 21
50.2086158705
 31
0.0
  0
LINE
  5
465
330
3B2
100
AcDbEntity
  8
1-1MA
  6
Continuous
 62
     7
100
AcDbLine
 10
481.7080185963
 20
52.0961974123
 30
0.0
 11
480.3812116523
 21
55.5158436466
 31
0.0
  0
LINE
  5
466
330
3B2
100
AcDbEntity
  8
1-1MA
  6
Continuous
 62
     7
100
AcDbLine
 10
480.3812116523
 20
55.5158436466
 30
0.0
 11
477.7275977643
 21
57.0479083391
 31
0.0
  0
LINE
  5
467
330
3B2
100
AcDbEntity
  8
1-1MA
  6
Continuous
 62
     7
100
AcDbLine
 10
477.7275977643
 20
57.0479083391
 30
0.0
 11
476.4007908203
 21
55.1603267974
 31
0.0
  0
LINE
  5
468
330
3B2
100
AcDbEntity
  8
1-1MA
  6
Continuous
 62
     7
100
AcDbLine
 10
476.4007908203
 20
55.1603267974
 30
0.0
 11
476.7816916608
 21
55.1445377398
 31
0.0
  0
LINE
  5
469
330
3B2
100
AcDbEntity
  8
1-1MA
  6
Continuous
 62
     7
100
AcDbLine
 10
476.7816916608
 20
55.1445377398
 30
0.0
 11
478.0064365322
 21
56.8869207014
 31
0.0
  0
LINE
  5
46A
330
3B2
100
AcDbEntity
  8
1-1MA
  6
Continuous
 62
     7
100
AcDbLine
 10
523.1177316584
 20
140.0483200159
 30
0.0
 11
513.6372135494
 21
138.5816787603
 31
0.0
  0
LINE
  5
46B
330
3B2
100
AcDbEntity
  8
1-1MA
  6
Continuous
 62
     7
100
AcDbLine
 10
525.6580288296
 20
141.847665084
 30
0.0
 11
525.6580288296
 21
145.5218996982
 31
0.0
  0
LINE
  5
46C
330
3B2
100
AcDbEntity
  8
1-1MA
  6
Continuous
 62
     7
100
AcDbLine
 10
525.6580288296
 20
145.5218996982
 30
0.0
 11
523.1177316584
 21
140.0483200159
 31
0.0
  0
LINE
  5
46D
330
3B2
100
AcDbEntity
  8
1-1MA
  6
Continuous
 62
     7
100
AcDbLine
 10
523.1177316584
 20
140.0483200159
 30
0.0
 11
523.1177316584
 21
137.9032650715
 31
0.0
  0
LINE
  5
46E
330
3B2
100
AcDbEntity
  8
1-1MA
  6
Continuous
 62
     7
100
AcDbLine
 10
506.6969926115
 20
142.588617187
 30
0.0
 11
507.8349538458
 21
145.0405828712
 31
0.0
  0
LINE
  5
46F
330
3B2
100
AcDbEntity
  8
1-1MA
  6
Continuous
 62
     7
100
AcDbLine
 10
513.6372135494
 20
136.6513310394
 30
0.0
 11
513.6372135494
 21
138.5816787603
 31
0.0
  0
LINE
  5
470
330
3B2
100
AcDbEntity
  8
1-1MA
  6
Continuous
 62
     7
100
AcDbLine
 10
513.6372135494
 20
138.5816787603
 30
0.0
 11
506.6969926115
 21
142.588617187
 31
0.0
  0
LINE
  5
471
330
3B2
100
AcDbEntity
  8
1-1MA
  6
Continuous
 62
     7
100
AcDbLine
 10
506.6969926115
 20
142.588617187
 30
0.0
 11
506.6969926115
 21
139.6097591883
 31
0.0
  0
LINE
  5
472
330
3B2
100
AcDbEntity
  8
1-1MA
  6
Continuous
 62
     7
100
AcDbLine
 10
507.9974110216
 20
144.6835226542
 30
0.0
 11
507.2546701474
 21
143.0831384925
 31
0.0
  0
LINE
  5
473
330
3B2
100
AcDbEntity
  8
1-1MA
  6
Continuous
 62
     7
100
AcDbLine
 10
507.2546701474
 20
143.0831384925
 30
0.0
 11
513.7866427948
 21
139.3119023262
 31
0.0
  0
LINE
  5
474
330
3B2
100
AcDbEntity
  8
1-1MA
  6
Continuous
 62
     7
100
AcDbLine
 10
513.7866427948
 20
139.3119023262
 30
0.0
 11
522.709483368
 21
140.6922705667
 31
0.0
  0
LINE
  5
475
330
3B2
100
AcDbEntity
  8
1-1MA
  6
Continuous
 62
     7
100
AcDbLine
 10
522.709483368
 20
140.6922705667
 30
0.0
 11
525.1003512938
 21
145.8438749736
 31
0.0
  0
LINE
  5
476
330
3B2
100
AcDbEntity
  8
1-1MA
  6
Continuous
 62
     7
100
AcDbLine
 10
525.1003512938
 20
145.8438749736
 30
0.0
 11
524.6314526133
 21
146.114593753
 31
0.0
  0
ELLIPSE
  5
477
330
3B2
100
AcDbEntity
  8
1-1MA
  6
Continuous
 62
     7
100
AcDbEllipse
 10
516.1314526133
 20
146.1079953503
 30
0.0
 11
-8.499999999999998
 21
1.301042606982605E-15
 31
0.0
210
0.0
220
0.0
230
1.0
 40
0.5773502692
 41
0.0
 42
3.141592653589793
  0
ELLIPSE
  5
478
330
3B2
100
AcDbEntity
  8
1-1MA
  6
Continuous
 62
     7
100
AcDbEllipse
 10
516.1314526133
 20
154.2729611596
 30
0.0
 11
-7.000000000000003
 21
0.0
 31
0.0
210
0.0
220
0.0
230
1.0
 40
0.5773502692
 41
0.0
 42
6.283185307179586
  0
ELLIPSE
  5
479
330
3B2
100
AcDbEntity
  8
1-1MA
  6
Continuous
 62
     7
100
AcDbEllipse
 10
516.1314526133
 20
153.0482162882
 30
0.0
 11
-8.500000000000004
 21
-1.301042606982605E-14
 31
0.0
210
0.0
220
0.0
230
1.0
 40
0.5773502692
 41
0.0035981967856076
 42
3.137327052306883
  0
LINE
  5
47A
330
3B2
100
AcDbEntity
  8
1-1MA
  6
Continuous
 62
     7
100
AcDbLine
 10
522.709483368
 20
140.6922705667
 30
0.0
 11
523.1177316584
 21
140.0483200159
 31
0.0
  0
LINE
  5
47B
330
3B2
100
AcDbEntity
  8
1-1MA
  6
Continuous
 62
     7
100
AcDbLine
 10
525.1003512938
 20
145.8438749736
 30
0.0
 11
525.6580288296
 21
145.5218996982
 31
0.0
  0
LINE
  5
47C
330
3B2
100
AcDbEntity
  8
1-1MA
  6
Continuous
 62
     7
100
AcDbLine
 10
513.6372135494
 20
138.5816787603
 30
0.0
 11
513.7866427948
 21
139.3119023262
 31
0.0
  0
LINE
  5
47D
330
3B2
100
AcDbEntity
  8
1-1MA
  6
Continuous
 62
     7
100
AcDbLine
 10
506.6969926115
 20
142.588617187
 30
0.0
 11
507.2546701474
 21
143.0831384925
 31
0.0
  0
LINE
  5
47E
330
3B2
100
AcDbEntity
  8
1-1MA
  6
Continuous
 62
     7
100
AcDbLine
 10
525.6580288296
 20
141.847665084
 30
0.0
 11
524.387880244
 21
139.1108752428
 31
0.0
  0
LINE
  5
47F
330
3B2
100
AcDbEntity
  8
1-1MA
  6
Continuous
 62
     7
100
AcDbLine
 10
524.387880244
 20
139.1108752428
 30
0.0
 11
524.0572212791
 21
138.3984041931
 31
0.0
  0
ELLIPSE
  5
480
330
3B2
100
AcDbEntity
  8
1-1MA
  6
Continuous
 62
     7
100
AcDbEllipse
 10
516.1775107206
 20
139.972775538
 30
0.0
 11
8.500000000000004
 21
2.168404344971009E-15
 31
0.0
210
0.0
220
0.0
230
1.0
 40
0.5773502692
 41
5.987744470036236
 42
6.229273466537527
  0
ELLIPSE
  5
481
330
3B2
100
AcDbEntity
  8
1-1MA
  6
Continuous
 62
     7
100
AcDbEllipse
 10
530.3196463443
 20
148.1377413472
 30
0.0
 11
-8.779529713003789
 21
2.168404344971009E-15
 31
0.0
210
0.0
220
0.0
230
1.0
 40
0.5773502692
 41
1.011058117871596
 42
1.809523604475817
  0
LINE
  5
482
330
3B2
100
AcDbEntity
  8
1-1MA
  6
Continuous
 62
     7
100
AcDbLine
 10
532.4155826944
 20
149.3771416741
 30
0.0
 11
531.2162218165
 21
150.0695929998
 31
0.0
  0
LINE
  5
483
330
3B2
100
AcDbEntity
  8
1-1MA
  6
Continuous
 62
     7
100
AcDbLine
 10
531.2162218165
 20
150.0695929998
 30
0.0
 11
528.1489953715
 21
149.5950914175
 31
0.0
  0
LINE
  5
484
330
3B2
100
AcDbEntity
  8
1-1MA
  6
Continuous
 62
     7
100
AcDbLine
 10
527.8701566015
 20
149.7560790564
 30
0.0
 11
527.8701566015
 21
152.2055687992
 31
0.0
  0
ELLIPSE
  5
485
330
3B2
100
AcDbEntity
  8
1-1MA
  6
Continuous
 62
     7
100
AcDbEllipse
 10
530.3196463443
 20
150.995479382
 30
0.0
 11
-8.550000000000002
 21
1.301042606982605E-15
 31
0.0
210
0.0
220
0.0
230
1.0
 40
0.5773502692
 41
0.8429197441706268
 42
5.497787143782126
  0
ELLIPSE
  5
486
330
3B2
100
AcDbEntity
  8
1-1MA
  6
Continuous
 62
     7
100
AcDbEllipse
 10
530.3196463443
 20
150.2198076301
 30
0.0
 11
-9.500000000000002
 21
-1.301042606982605E-15
 31
0.0
210
0.0
220
0.0
230
1.0
 40
0.5773502692
 41
1.057907309031939
 42
3.141592653589793
  0
ELLIPSE
  5
487
330
3B2
100
AcDbEntity
  8
1-1MA
  6
Continuous
 62
     7
100
AcDbEllipse
 10
530.3196463443
 20
150.2198076301
 30
0.0
 11
-9.500000000000002
 21
-1.301042606982605E-15
 31
0.0
210
0.0
220
0.0
230
1.0
 40
0.5773502692
 41
3.141592653589793
 42
3.147663746817219
  0
ELLIPSE
  5
488
330
3B2
100
AcDbEntity
  8
1-1MA
  6
Continuous
 62
     7
100
AcDbEllipse
 10
530.3196463443
 20
149.5257855364
 30
0.0
 11
-9.5
 21
-1.344410693882025E-14
 31
0.0
210
0.0
220
0.0
230
1.0
 40
0.5773502692
 41
1.057907309031938
 42
2.104216054042855
  0
ELLIPSE
  5
489
330
3B2
100
AcDbEntity
  8
1-1MA
  6
Continuous
 62
     7
100
AcDbEllipse
 10
530.3196463443
 20
149.5257855364
 30
0.0
 11
-9.5
 21
-1.344410693882025E-14
 31
0.0
210
0.0
220
0.0
230
1.0
 40
0.5773502692
 41
2.608172926341833
 42
3.141592653589791
  0
LINE
  5
48A
330
3B2
100
AcDbEntity
  8
1-1MA
  6
Continuous
 62
     7
100
AcDbLine
 10
531.2162218165
 20
152.7232068894
 30
0.0
 11
531.2162218165
 21
150.0695929998
 31
0.0
  0
LINE
  5
48B
330
3B2
100
AcDbEntity
  8
1-1MA
  6
Continuous
 62
     7
100
AcDbLine
 10
527.6660324563
 20
152.5275440746
 30
0.0
 11
526.6947423614
 21
150.4347047843
 31
0.0
  0
LINE
  5
48C
330
3B2
100
AcDbEntity
  8
1-1MA
  6
Continuous
 62
     7
100
AcDbLine
 10
526.9735811293
 20
150.2737171466
 30
0.0
 11
527.8701566015
 21
152.2055687992
 31
0.0
  0
LINE
  5
48D
330
3B2
100
AcDbEntity
  8
1-1MA
  6
Continuous
 62
     7
100
AcDbLine
 10
526.6947423614
 20
150.4347047843
 30
0.0
 11
529.3483562494
 21
148.9026400917
 31
0.0
  0
LINE
  5
48E
330
3B2
100
AcDbEntity
  8
1-1MA
  6
Continuous
 62
     7
100
AcDbLine
 10
529.3483562494
 20
148.9026400917
 30
0.0
 11
532.9732602323
 21
149.4634146895
 31
0.0
  0
LINE
  5
48F
330
3B2
100
AcDbEntity
  8
1-1MA
  6
Continuous
 62
     7
100
AcDbLine
 10
532.9732602323
 20
149.4634146895
 30
0.0
 11
533.9445503272
 21
151.5562539798
 31
0.0
  0
LINE
  5
490
330
3B2
100
AcDbEntity
  8
1-1MA
  6
Continuous
 62
     7
100
AcDbLine
 10
533.6657115592
 20
151.308993327
 30
0.0
 11
532.796483537
 21
149.4360672395
 31
0.0
  0
LINE
  5
491
330
3B2
100
AcDbEntity
  8
1-1MA
  6
Continuous
 62
     7
100
AcDbLine
 10
533.9445503272
 20
151.5562539798
 30
0.0
 11
531.2909364391
 21
153.0883186723
 31
0.0
  0
LINE
  5
492
330
3B2
100
AcDbEntity
  8
1-1MA
  6
Continuous
 62
     7
100
AcDbLine
 10
531.2909364391
 20
153.0883186723
 30
0.0
 11
531.2162218165
 21
152.7232068894
 31
0.0
  0
LINE
  5
493
330
3B2
100
AcDbEntity
  8
1-1MA
  6
Continuous
 62
     7
100
AcDbLine
 10
531.2162218165
 20
152.7232068894
 30
0.0
 11
533.6657115592
 21
151.308993327
 31
0.0
  0
LINE
  5
494
330
3B2
100
AcDbEntity
  8
1-1MA
  6
Continuous
 62
     7
100
AcDbLine
 10
533.6657115592
 20
151.308993327
 30
0.0
 11
533.9445503272
 21
151.5562539798
 31
0.0
  0
LINE
  5
495
330
3B2
100
AcDbEntity
  8
1-1MA
  6
Continuous
 62
     7
100
AcDbLine
 10
531.2909364391
 20
153.0883186723
 30
0.0
 11
527.6660324563
 21
152.5275440746
 31
0.0
  0
LINE
  5
496
330
3B2
100
AcDbEntity
  8
1-1MA
  6
Continuous
 62
     7
100
AcDbLine
 10
527.6660324563
 20
152.5275440746
 30
0.0
 11
527.8701566015
 21
152.2055687992
 31
0.0
  0
LINE
  5
497
330
3B2
100
AcDbEntity
  8
1-1MA
  6
Continuous
 62
     7
100
AcDbLine
 10
527.8701566015
 20
152.2055687992
 30
0.0
 11
531.2162218165
 21
152.7232068894
 31
0.0
  0
ARC
  5
498
330
3B2
100
AcDbEntity
  8
1-1MA
  6
Continuous
 62
     7
100
AcDbCircle
 10
565.0282687825
 20
76.7638265288
 30
0.0
 40
6.302983147063986
100
AcDbArc
 50
115.3577164344
 51
121.0498856397
  0
ELLIPSE
  5
499
330
3B2
100
AcDbEntity
  8
1-1MA
  6
Continuous
 62
     7
100
AcDbEllipse
 10
561.7755748163
 20
78.7461777211
 30
0.0
 11
-2.114830999999774
 21
-3.662994741422011
 31
0.0
210
0.0
220
0.0
230
1.0
 40
0.5773502692
 41
3.06587311437971
 42
3.740910968398596
  0
ELLIPSE
  5
49A
330
3B2
100
AcDbEntity
  8
1-1MA
  6
Continuous
 62
     7
100
AcDbEllipse
 10
561.6498022061
 20
79.0912306934
 30
0.0
 11
1.999999999999817
 21
3.464101615137856
 31
0.0
210
0.0
220
0.0
230
1.0
 40
0.5773502692
 41
2.379679861271375
 42
3.141592653589793
  0
ELLIPSE
  5
49B
330
3B2
100
AcDbEntity
  8
1-1MA
  6
Continuous
 62
     7
100
AcDbEllipse
 10
561.8619342405
 20
78.9687562063
 30
0.0
 11
1.999999999999827
 21
3.464101615137856
 31
0.0
210
0.0
220
0.0
230
1.0
 40
0.5773502692
 41
1.220029851613983
 42
6.187242785732304
  0
ELLIPSE
  5
49C
330
3B2
100
AcDbEntity
  8
1-1MA
  6
Continuous
 62
     7
100
AcDbEllipse
 10
561.8619342405
 20
78.9687562063
 30
0.0
 11
1.999999999999827
 21
3.464101615137856
 31
0.0
210
0.0
220
0.0
230
1.0
 40
0.5773502692
 41
0.6195412970459525
 42
0.9475301912263902
  0
ELLIPSE
  5
49D
330
3B2
100
AcDbEntity
  8
1-1MA
  6
Continuous
 62
     7
100
AcDbEllipse
 10
561.8619342405
 20
78.9687562063
 30
0.0
 11
0.7268749999999489
 21
1.258984430751663
 31
0.0
210
0.0
220
0.0
230
1.0
 40
0.5773502692
 41
0.0
 42
6.283185307179586
  0
ARC
  5
49E
330
3B2
100
AcDbEntity
  8
1-1MA
  6
Continuous
 62
     7
100
AcDbCircle
 10
567.0472117799
 20
74.71714729
 30
0.0
 40
6.011972647772292
100
AcDbArc
 50
135.4935829838
 51
149.0439353814
  0
ARC
  5
49F
330
3B2
100
AcDbEntity
  8
1-1MA
  6
Continuous
 62
     7
100
AcDbCircle
 10
565.6140306896
 20
78.553953519
 30
0.0
 40
4.675632112647549
100
AcDbArc
 50
174.4250476864
 51
188.6847638198
  0
ARC
  5
4A0
330
3B2
100
AcDbEntity
  8
1-1MA
  6
Continuous
 62
     7
100
AcDbCircle
 10
566.1161537387
 20
75.9157386245
 30
0.0
 40
6.011972694469301
100
AcDbArc
 50
135.4935830367
 51
149.0439353286
  0
ARC
  5
4A1
330
3B2
100
AcDbEntity
  8
1-1MA
  6
Continuous
 62
     7
100
AcDbCircle
 10
562.0601067176
 20
74.9916776275
 30
0.0
 40
5.14360186845583
100
AcDbArc
 50
82.5374622922
 51
92.5798629487
  0
ARC
  5
4A2
330
3B2
100
AcDbEntity
  8
1-1MA
  6
Continuous
 62
     7
100
AcDbCircle
 10
567.3816632253
 20
79.6374857201
 30
0.0
 40
4.675632112476443
100
AcDbArc
 50
174.4250476861
 51
188.6847638201
  0
LINE
  5
4A3
330
3B2
100
AcDbEntity
  8
1-1MA
  6
Continuous
 62
     7
100
AcDbLine
 10
562.7596415582
 20
78.9314748416
 30
0.0
 11
561.4887055724
 21
79.6652500751
 31
0.0
  0
ARC
  5
4A4
330
3B2
100
AcDbEntity
  8
1-1MA
  6
Continuous
 62
     7
100
AcDbCircle
 10
561.2235322782
 20
72.7095544841
 30
0.0
 40
5.143601448756439
100
AcDbArc
 50
82.5374618814
 51
92.5798633595
  0
LINE
  5
4A5
330
3B2
100
AcDbEntity
  8
1-1MA
  6
Continuous
 62
     7
100
AcDbLine
 10
561.8915725605
 20
77.8095895864
 30
0.0
 11
560.9516164807
 21
78.3522734821
 31
0.0
  0
LINE
  5
4A6
330
3B2
100
AcDbEntity
  8
1-1MA
  6
Continuous
 62
     7
100
AcDbLine
 10
561.4865872405
 20
79.7432880399
 30
0.0
 11
561.4887055724
 21
79.6652500751
 31
0.0
  0
LINE
  5
4A7
330
3B2
100
AcDbEntity
  8
1-1MA
  6
Continuous
 62
     7
100
AcDbLine
 10
561.4887055724
 20
79.6652500751
 30
0.0
 11
560.959281138
 21
78.9810262769
 31
0.0
  0
SPLINE
  5
4A8
330
3B2
100
AcDbEntity
  8
1-1MA
  6
Continuous
 62
     7
100
AcDbSpline
210
0.0
220
0.0
230
1.0
 70
     8
 71
     3
 72
    14
 73
    10
 74
     0
 42
0.0000000026561787
 43
0.0000000001
 40
0.0383488633119955
 40
0.0383488633119955
 40
0.0383488633119955
 40
0.0383488633119955
 40
0.125
 40
0.125
 40
0.25
 40
0.25
 40
0.375
 40
0.375
 40
0.4877251950991213
 40
0.4877251950991213
 40
0.4877251950991213
 40
0.4877251950991213
 10
551.3564426645172
 20
87.08957396017395
 30
0.0
 10
551.2751578544354
 20
87.13635342262985
 30
0.0
 10
551.2003615335875
 20
87.19305788087962
 30
0.0
 10
551.0331985763103
 20
87.35533147360171
 30
0.0
 10
550.9473444015621
 20
87.47278017300755
 30
0.0
 10
550.8088397118028
 20
87.74024768742247
 30
0.0
 10
550.7552298210549
 20
87.89069323529392
 30
0.0
 10
550.6833933991695
 20
88.20896399681627
 30
0.0
 10
550.6626734499563
 20
88.37342253729587
 30
0.0
 10
550.6556946478181
 20
88.5460470175282
 30
0.0
  0
SPLINE
  5
4A9
330
3B2
100
AcDbEntity
  8
1-1MA
  6
Continuous
 62
     7
100
AcDbSpline
210
0.0
220
0.0
230
1.0
 70
     8
 71
     3
 72
    14
 73
    10
 74
     0
 42
0.0000000025631572
 43
0.0000000001
 40
0.1281843810053415
 40
0.1281843810053415
 40
0.1281843810053415
 40
0.1281843810053415
 40
0.25
 40
0.25
 40
0.375
 40
0.375
 40
0.5
 40
0.5
 40
0.6193288478559582
 40
0.6193288478559582
 40
0.6193288478559582
 40
0.6193288478559582
 10
553.6305000255295
 20
93.76057649123284
 30
0.0
 10
553.801991076743
 20
93.85951847494687
 30
0.0
 10
553.9728024057412
 20
93.93963707871475
 30
0.0
 10
554.3060726187485
 20
94.05929192318466
 30
0.0
 10
554.4699825509623
 20
94.09882130139503
 30
0.0
 10
554.7876166650741
 20
94.1340340546912
 30
0.0
 10
554.9362929793383
 20
94.12914012192618
 30
0.0
 10
555.2074970920501
 20
94.07744704586972
 30
0.0
 10
555.3320053096469
 20
94.03185842249417
 30
0.0
 10
555.444434520605
 20
93.9670080185131
 30
0.0
  0
ELLIPSE
  5
4AA
330
3B2
100
AcDbEntity
  8
1-1MA
  6
Continuous
 62
     7
100
AcDbEllipse
 10
553.5574874085
 20
90.4376375597
 30
0.0
 11
-1.999999999999829
 21
-3.464101615137877
 31
0.0
210
0.0
220
0.0
230
1.0
 40
0.5773502692
 41
-0.9919972994382708
 42
3.92978855034011
  0
ELLIPSE
  5
4AB
330
3B2
100
AcDbEntity
  8
1-1MA
  6
Continuous
 62
     7
100
AcDbEllipse
 10
553.5574874085
 20
90.4376375597
 30
0.0
 11
-0.7268749999999365
 21
-1.25898443075167
 31
0.0
210
0.0
220
0.0
230
0.9999999999999998
 40
0.5773502692
 41
0.0
 42
6.283185307179586
  0
ARC
  5
4AC
330
3B2
100
AcDbEntity
  8
1-1MA
  6
Continuous
 62
     7
100
AcDbCircle
 10
559.0772165672
 20
91.1063670782
 30
0.0
 40
4.675632285123817
100
AcDbArc
 50
174.4250479507
 51
188.6847635554
  0
ARC
  5
4AD
330
3B2
100
AcDbEntity
  8
1-1MA
  6
Continuous
 62
     7
100
AcDbCircle
 10
552.9190854462
 20
84.1784358374
 30
0.0
 40
5.143601448757748
100
AcDbArc
 50
82.5374618814
 51
92.5798633595
  0
ARC
  5
4AE
330
3B2
100
AcDbEntity
  8
1-1MA
  6
Continuous
 62
     7
100
AcDbCircle
 10
557.3095838576
 20
90.0228348724
 30
0.0
 40
4.675632112646611
100
AcDbArc
 50
174.4250476864
 51
188.6847638198
  0
ARC
  5
4AF
330
3B2
100
AcDbEntity
  8
1-1MA
  6
Continuous
 62
     7
100
AcDbCircle
 10
557.8117069067
 20
87.3846199779
 30
0.0
 40
6.011972694512486
100
AcDbArc
 50
135.4935830367
 51
149.0439353285
  0
ARC
  5
4B0
330
3B2
100
AcDbEntity
  8
1-1MA
  6
Continuous
 62
     7
100
AcDbCircle
 10
553.7556599036
 20
86.460559402
 30
0.0
 40
5.14360144860107
100
AcDbArc
 50
82.5374618812
 51
92.5798633597
  0
ARC
  5
4B1
330
3B2
100
AcDbEntity
  8
1-1MA
  6
Continuous
 62
     7
100
AcDbCircle
 10
558.7427649479
 20
86.1860286434
 30
0.0
 40
6.011972647771695
100
AcDbArc
 50
135.4935829838
 51
149.0439353814
  0
LINE
  5
4B2
330
3B2
100
AcDbEntity
  8
1-1MA
  6
Continuous
 62
     7
100
AcDbLine
 10
553.5871257284
 20
89.2784709398
 30
0.0
 11
552.6471696487
 21
89.8211548354
 31
0.0
  0
LINE
  5
4B3
330
3B2
100
AcDbEntity
  8
1-1MA
  6
Continuous
 62
     7
100
AcDbLine
 10
554.4551947262
 20
90.4003561949
 30
0.0
 11
553.1842587404
 21
91.1341314284
 31
0.0
  0
LINE
  5
4B4
330
3B2
100
AcDbEntity
  8
1-1MA
  6
Continuous
 62
     7
100
AcDbLine
 10
553.1821404085
 20
91.2121693933
 30
0.0
 11
553.1842587404
 21
91.1341314284
 31
0.0
  0
LINE
  5
4B5
330
3B2
100
AcDbEntity
  8
1-1MA
  6
Continuous
 62
     7
100
AcDbLine
 10
553.1842587404
 20
91.1341314284
 30
0.0
 11
552.654834306
 21
90.4499076303
 31
0.0
  0
SPLINE
  5
4B6
330
3B2
100
AcDbEntity
  8
1-1MA
  6
Continuous
 62
     7
100
AcDbSpline
210
0.0
220
0.0
230
1.0
 70
     8
 71
     3
 72
    12
 73
     8
 74
     0
 42
0.000000002764989
 43
0.0000000001
 40
0.7219501300892998
 40
0.7219501300892998
 40
0.7219501300892998
 40
0.7219501300892998
 40
0.7500000000000024
 40
0.7500000000000024
 40
0.8750000000000012
 40
0.8750000000000012
 40
1.0
 40
1.0
 40
1.0
 40
1.0
 10
535.1697186520335
 20
77.38314908764116
 30
0.0
 10
535.1428249138761
 20
77.39868841080435
 30
0.0
 10
535.1165266613739
 20
77.41529786164553
 30
0.0
 10
534.9763206702146
 20
77.51168453787884
 30
0.0
 10
534.872738088467
 20
77.61242676378811
 30
0.0
 10
534.6935497051005
 20
77.8541711898882
 30
0.0
 10
534.6185448860109
 20
77.99370889336568
 30
0.0
 10
534.5583128846376
 20
78.15212242434347
 30
0.0
  0
ELLIPSE
  5
4B7
330
3B2
100
AcDbEntity
  8
1-1MA
  6
Continuous
 62
     7
100
AcDbEllipse
 10
537.3803908654
 20
80.9250676674
 30
0.0
 11
-2.114830999999877
 21
-3.662994741421907
 31
0.0
210
0.0
220
0.0
230
1.0
 40
0.5773502692
 41
5.529254666077576
 42
5.835306070773483
  0
SPLINE
  5
4B8
330
3B2
100
AcDbEntity
  8
1-1MA
  6
Continuous
 62
     7
100
AcDbSpline
210
0.0
220
0.0
230
1.0
 70
     8
 71
     3
 72
     8
 73
     4
 74
     0
 42
0.0000000023820731
 43
0.0000000001
 40
0.9077484422520938
 40
0.9077484422520938
 40
0.9077484422520938
 40
0.9077484422520938
 40
1.0
 40
1.0
 40
1.0
 40
1.0
 10
537.523573461981
 20
84.43770797784875
 30
0.0
 10
537.647239615227
 20
84.49137661120548
 30
0.0
 10
537.7695166849132
 20
84.53327351275742
 30
0.0
 10
537.8892180217265
 20
84.56246302889168
 30
0.0
  0
ELLIPSE
  5
4B9
330
3B2
100
AcDbEntity
  8
1-1MA
  6
Continuous
 62
     7
100
AcDbEllipse
 10
536.9955399826
 20
80.9478228809
 30
0.0
 11
-1.999999999999785
 21
-3.464101615137874
 31
0.0
210
0.0
220
0.0
230
1.0
 40
0.5773502692
 41
3.141592653589793
 42
3.605519442034526
  0
ELLIPSE
  5
4BA
330
3B2
100
AcDbEntity
  8
1-1MA
  6
Continuous
 62
     7
100
AcDbEllipse
 10
537.207672017
 20
80.8253483938
 30
0.0
 11
1.999999999999827
 21
3.46410161513785
 31
0.0
210
0.0
220
0.0
230
0.9999999999999999
 40
0.5773502692
 41
2.713936399419751
 42
7.584479576112271
  0
ELLIPSE
  5
4BB
330
3B2
100
AcDbEntity
  8
1-1MA
  6
Continuous
 62
     7
100
AcDbEllipse
 10
537.207672017
 20
80.8253483938
 30
0.0
 11
0.7268749999999414
 21
1.258984430751662
 31
0.0
210
0.0
220
0.0
230
1.0
 40
0.5773502692
 41
0.0
 42
6.283185307179586
  0
ARC
  5
4BC
330
3B2
100
AcDbEntity
  8
1-1MA
  6
Continuous
 62
     7
100
AcDbCircle
 10
537.4058444942
 20
76.8482698153
 30
0.0
 40
5.143601868143866
100
AcDbArc
 50
82.5374622919
 51
92.5798629491
  0
ARC
  5
4BD
330
3B2
100
AcDbEntity
  8
1-1MA
  6
Continuous
 62
     7
100
AcDbCircle
 10
542.3929495564
 20
76.5737394775
 30
0.0
 40
6.011972647772719
100
AcDbArc
 50
135.4935829838
 51
149.0439353814
  0
ARC
  5
4BE
330
3B2
100
AcDbEntity
  8
1-1MA
  6
Continuous
 62
     7
100
AcDbCircle
 10
536.5692700547
 20
74.5661466716
 30
0.0
 40
5.143601448754836
100
AcDbArc
 50
82.5374618814
 51
92.5798633595
  0
LINE
  5
4BF
330
3B2
100
AcDbEntity
  8
1-1MA
  6
Continuous
 62
     7
100
AcDbLine
 10
537.237310337
 20
79.6661817739
 30
0.0
 11
536.2973542572
 21
80.2088656696
 31
0.0
  0
ARC
  5
4C0
330
3B2
100
AcDbEntity
  8
1-1MA
  6
Continuous
 62
     7
100
AcDbCircle
 10
540.959768466
 20
80.4105457065
 30
0.0
 40
4.675632112529978
100
AcDbArc
 50
174.4250476862
 51
188.68476382
  0
ARC
  5
4C1
330
3B2
100
AcDbEntity
  8
1-1MA
  6
Continuous
 62
     7
100
AcDbCircle
 10
541.461891478
 20
77.7723308408
 30
0.0
 40
6.011972647796005
100
AcDbArc
 50
135.4935829838
 51
149.0439353814
  0
ARC
  5
4C2
330
3B2
100
AcDbEntity
  8
1-1MA
  6
Continuous
 62
     7
100
AcDbCircle
 10
542.7274011757
 20
81.4940779123
 30
0.0
 40
4.675632285122687
100
AcDbArc
 50
174.4250479507
 51
188.6847635554
  0
LINE
  5
4C3
330
3B2
100
AcDbEntity
  8
1-1MA
  6
Continuous
 62
     7
100
AcDbLine
 10
538.1053793347
 20
80.7880670291
 30
0.0
 11
536.8344433489
 21
81.5218422626
 31
0.0
  0
LINE
  5
4C4
330
3B2
100
AcDbEntity
  8
1-1MA
  6
Continuous
 62
     7
100
AcDbLine
 10
536.8344433489
 20
81.5218422626
 30
0.0
 11
536.3050189145
 21
80.8376184644
 31
0.0
  0
LINE
  5
4C5
330
3B2
100
AcDbEntity
  8
1-1MA
  6
Continuous
 62
     7
100
AcDbLine
 10
536.832325017
 20
81.5998802282
 30
0.0
 11
536.8344433489
 21
81.5218422626
 31
0.0
  0
ELLIPSE
  5
4C6
330
3B2
100
AcDbEntity
  8
1-1MA
  6
Continuous
 62
     7
100
AcDbEllipse
 10
529.2486628817
 20
59.9667563598
 30
0.0
 11
2.114830999999867
 21
3.662994741421867
 31
0.0
210
0.0
220
0.0
230
1.0
 40
0.5773502692
 41
3.065873114379057
 42
3.740910968399157
  0
SPLINE
  5
4C7
330
3B2
100
AcDbEntity
  8
1-1MA
  6
Continuous
 62
     7
100
AcDbSpline
210
0.0
220
0.0
230
1.0
 70
     8
 71
     3
 72
     8
 73
     4
 74
     0
 42
0.0000000022367166
 43
0.0000000001
 40
0.0
 40
0.0
 40
0.0
 40
0.0
 40
0.4543019115260082
 40
0.4543019115260082
 40
0.4543019115260082
 40
0.4543019115260082
 10
526.9799105704051
 20
56.40662250205575
 30
0.0
 10
526.5440431111
 20
56.76215629446381
 30
0.0
 10
526.290076817971
 20
57.40288397109492
 30
0.0
 10
526.2607324131739
 20
58.18173643281024
 30
0.0
  0
ELLIPSE
  5
4C8
330
3B2
100
AcDbEntity
  8
1-1MA
  6
Continuous
 62
     7
100
AcDbEllipse
 10
528.9501714232
 20
59.8666523617
 30
0.0
 11
-1.999999999999822
 21
-3.464101615137853
 31
0.0
210
0.0
220
0.0
230
1.0
 40
0.5773502692
 41
3.141592653589793
 42
4.072189644810491
  0
ELLIPSE
  5
4C9
330
3B2
100
AcDbEntity
  8
1-1MA
  6
Continuous
 62
     7
100
AcDbEllipse
 10
529.1623034575
 20
59.7441778746
 30
0.0
 11
-1.999999999999834
 21
-3.464101615137855
 31
0.0
210
0.0
220
0.0
230
1.0
 40
0.5773502692
 41
0.6195412970465066
 42
6.187242785731772
  0
ELLIPSE
  5
4CA
330
3B2
100
AcDbEntity
  8
1-1MA
  6
Continuous
 62
     7
100
AcDbEllipse
 10
529.1623034575
 20
59.7441778746
 30
0.0
 11
0.7268749999999414
 21
1.258984430751662
 31
0.0
210
0.0
220
0.0
230
1.0
 40
0.5773502692
 41
0.0
 42
6.283185307179586
  0
ARC
  5
4CB
330
3B2
100
AcDbEntity
  8
1-1MA
  6
Continuous
 62
     7
100
AcDbCircle
 10
533.4165229557
 20
56.6911602929
 30
0.0
 40
6.011972694469162
100
AcDbArc
 50
135.4935830367
 51
149.0439353286
  0
ARC
  5
4CC
330
3B2
100
AcDbEntity
  8
1-1MA
  6
Continuous
 62
     7
100
AcDbCircle
 10
534.6820326162
 20
60.4129073931
 30
0.0
 40
4.675632285122878
100
AcDbArc
 50
174.4250479507
 51
188.6847635554
  0
ARC
  5
4CD
330
3B2
100
AcDbEntity
  8
1-1MA
  6
Continuous
 62
     7
100
AcDbCircle
 10
534.347580997
 20
55.4925689583
 30
0.0
 40
6.011972647772721
100
AcDbArc
 50
135.4935829838
 51
149.0439353814
  0
LINE
  5
4CE
330
3B2
100
AcDbEntity
  8
1-1MA
  6
Continuous
 62
     7
100
AcDbLine
 10
530.0600107753
 20
59.7068965099
 30
0.0
 11
528.7890747895
 21
60.4406717434
 31
0.0
  0
ARC
  5
4CF
330
3B2
100
AcDbEntity
  8
1-1MA
  6
Continuous
 62
     7
100
AcDbCircle
 10
528.5239014952
 20
53.4849761527
 30
0.0
 40
5.143601448462074
100
AcDbArc
 50
82.5374618811
 51
92.5798633598
  0
LINE
  5
4D0
330
3B2
100
AcDbEntity
  8
1-1MA
  6
Continuous
 62
     7
100
AcDbLine
 10
529.1919417775
 20
58.5850112547
 30
0.0
 11
528.2519856983
 21
59.1276951501
 31
0.0
  0
ARC
  5
4D1
330
3B2
100
AcDbEntity
  8
1-1MA
  6
Continuous
 62
     7
100
AcDbCircle
 10
532.9144000806
 20
59.329375192
 30
0.0
 40
4.67563228530899
100
AcDbArc
 50
174.425047951
 51
188.6847635551
  0
ARC
  5
4D2
330
3B2
100
AcDbEntity
  8
1-1MA
  6
Continuous
 62
     7
100
AcDbCircle
 10
529.3604759347
 20
55.7670992961
 30
0.0
 40
5.143601868143834
100
AcDbArc
 50
82.5374622919
 51
92.5798629491
  0
LINE
  5
4D3
330
3B2
100
AcDbEntity
  8
1-1MA
  6
Continuous
 62
     7
100
AcDbLine
 10
528.7869564576
 20
60.5187097083
 30
0.0
 11
528.7890747895
 21
60.4406717434
 31
0.0
  0
LINE
  5
4D4
330
3B2
100
AcDbEntity
  8
1-1MA
  6
Continuous
 62
     7
100
AcDbLine
 10
528.7890747895
 20
60.4406717434
 30
0.0
 11
528.259650355
 21
59.7564479452
 31
0.0
  0
SPLINE
  5
4D5
330
3B2
100
AcDbEntity
  8
1-1MA
  6
Continuous
 62
     7
100
AcDbSpline
210
0.0
220
0.0
230
1.0
 70
     8
 71
     3
 72
     8
 73
     4
 74
     0
 42
0.0000000025891092
 43
0.0000000001
 40
0.0
 40
0.0
 40
0.0
 40
0.0
 40
0.0383488633120054
 40
0.0383488633120054
 40
0.0383488633120054
 40
0.0383488633120054
 10
539.131785404277
 20
51.92456945207629
 30
0.0
 10
539.1769071818015
 20
51.90396358629471
 30
0.0
 10
539.2207712945396
 20
51.88138285934707
 30
0.0
 10
539.2633884151982
 20
51.85684439066659
 30
0.0
  0
ELLIPSE
  5
4D6
330
3B2
100
AcDbEntity
  8
1-1MA
  6
Continuous
 62
     7
100
AcDbEllipse
 10
537.3803908654
 20
48.3981557328
 30
0.0
 11
-2.114830999999847
 21
-3.662994741421898
 31
0.0
210
0.0
220
0.0
230
0.9999999999999999
 40
0.5773502692
 41
0.9714780119846338
 42
1.646515866006517
  0
SPLINE
  5
4D7
330
3B2
100
AcDbEntity
  8
1-1MA
  6
Continuous
 62
     7
100
AcDbSpline
210
0.0
220
0.0
230
1.0
 70
     8
 71
     3
 72
    14
 73
    10
 74
     0
 42
0.0000000024033669
 43
0.0000000001
 40
0.6193240223648048
 40
0.6193240223648048
 40
0.6193240223648048
 40
0.6193240223648048
 40
0.625
 40
0.625
 40
0.75
 40
0.75
 40
0.875
 40
0.875
 40
1.0
 40
1.0
 40
1.0
 40
1.0
 10
535.3541488123959
 20
44.87620767825899
 30
0.0
 10
535.3478461397937
 20
44.87984354307874
 30
0.0
 10
535.3415695935474
 20
44.88352368201694
 30
0.0
 10
535.1976801171102
 20
44.96926598844822
 30
0.0
 10
535.0736766153445
 20
45.07159038711735
 30
0.0
 10
534.8524862799994
 20
45.31620322202886
 30
0.0
 10
534.7547779808725
 20
45.46020446803846
 30
0.0
 10
534.5944897326513
 20
45.77796245963858
 30
0.0
 10
534.5308083329319
 20
45.95233452495164
 30
0.0
 10
534.4837730670165
 20
46.14236338645738
 30
0.0
  0
ELLIPSE
  5
4D8
330
3B2
100
AcDbEntity
  8
1-1MA
  6
Continuous
 62
     7
100
AcDbEllipse
 10
537.2546182552
 20
48.3977710084
 30
0.0
 11
-1.999999999999891
 21
-3.464101615137824
 31
0.0
210
0.0
220
0.0
230
1.0
 40
0.5773502692
 41
5.370775610938988
 42
5.699914544427732
  0
ELLIPSE
  5
4D9
330
3B2
100
AcDbEntity
  8
1-1MA
  6
Continuous
 62
     7
100
AcDbEllipse
 10
537.2546182552
 20
48.3977710084
 30
0.0
 11
-1.999999999999891
 21
-3.464101615137824
 31
0.0
210
0.0
220
0.0
230
1.0
 40
0.5773502692
 41
3.201264640742369
 42
4.274675889351641
  0
ELLIPSE
  5
4DA
330
3B2
100
AcDbEntity
  8
1-1MA
  6
Continuous
 62
     7
100
AcDbEllipse
 10
537.4667502896
 20
48.2752965213
 30
0.0
 11
1.999999999999831
 21
3.464101615137858
 31
0.0
210
0.0
220
0.0
230
1.0
 40
0.5773502692
 41
-1.474853805346074
 42
4.092847683337194
  0
ELLIPSE
  5
4DB
330
3B2
100
AcDbEntity
  8
1-1MA
  6
Continuous
 62
     7
100
AcDbEllipse
 10
537.4667502896
 20
48.2752965213
 30
0.0
 11
-0.7268749999999341
 21
-1.258984430751663
 31
0.0
210
0.0
220
0.0
230
0.9999999999999998
 40
0.5773502692
 41
0.0
 42
6.283185307179586
  0
ARC
  5
4DC
330
3B2
100
AcDbEntity
  8
1-1MA
  6
Continuous
 62
     7
100
AcDbCircle
 10
541.2188467387
 20
47.860493834
 30
0.0
 40
4.67563211264638
100
AcDbArc
 50
174.4250476864
 51
188.6847638198
  0
ARC
  5
4DD
330
3B2
100
AcDbEntity
  8
1-1MA
  6
Continuous
 62
     7
100
AcDbCircle
 10
537.6649227667
 20
44.2982179428
 30
0.0
 40
5.143601868145231
100
AcDbArc
 50
82.5374622919
 51
92.5798629491
  0
ARC
  5
4DE
330
3B2
100
AcDbEntity
  8
1-1MA
  6
Continuous
 62
     7
100
AcDbCircle
 10
542.9864794483
 20
48.9440260398
 30
0.0
 40
4.675632285123773
100
AcDbArc
 50
174.4250479507
 51
188.6847635554
  0
ARC
  5
4DF
330
3B2
100
AcDbEntity
  8
1-1MA
  6
Continuous
 62
     7
100
AcDbCircle
 10
542.652027829
 20
44.023687605
 30
0.0
 40
6.011972647747546
100
AcDbArc
 50
135.4935829838
 51
149.0439353815
  0
LINE
  5
4E0
330
3B2
100
AcDbEntity
  8
1-1MA
  6
Continuous
 62
     7
100
AcDbLine
 10
538.3644576073
 20
48.2380151565
 30
0.0
 11
537.0935216215
 21
48.97179039
 31
0.0
  0
ARC
  5
4E1
330
3B2
100
AcDbEntity
  8
1-1MA
  6
Continuous
 62
     7
100
AcDbCircle
 10
536.8283483093
 20
42.0160943783
 30
0.0
 40
5.143601868312272
100
AcDbArc
 50
82.537462292
 51
92.5798629489
  0
LINE
  5
4E2
330
3B2
100
AcDbEntity
  8
1-1MA
  6
Continuous
 62
     7
100
AcDbLine
 10
537.4963886095
 20
47.1161299014
 30
0.0
 11
536.5564325298
 21
47.658813797
 31
0.0
  0
ARC
  5
4E3
330
3B2
100
AcDbEntity
  8
1-1MA
  6
Continuous
 62
     7
100
AcDbCircle
 10
541.7209697877
 20
45.2222789395
 30
0.0
 40
6.011972694468859
100
AcDbArc
 50
135.4935830367
 51
149.0439353286
  0
LINE
  5
4E4
330
3B2
100
AcDbEntity
  8
1-1MA
  6
Continuous
 62
     7
100
AcDbLine
 10
537.0914032896
 20
49.0498283549
 30
0.0
 11
537.0935216215
 21
48.97179039
 31
0.0
  0
LINE
  5
4E5
330
3B2
100
AcDbEntity
  8
1-1MA
  6
Continuous
 62
     7
100
AcDbLine
 10
537.0935216215
 20
48.97179039
 30
0.0
 11
536.5640971871
 21
48.2875665919
 31
0.0
  0
ELLIPSE
  5
4E6
330
3B2
100
AcDbEntity
  8
1-1MA
  6
Continuous
 62
     7
100
AcDbEllipse
 10
494.964307285
 20
103.7203273448
 30
0.0
 11
9.999999999999135
 21
-17.32050807568928
 31
0.0
210
0.0
220
0.0
230
1.0
 40
0.5773502692
 41
3.484127462420316
 42
5.940650498349057
  0
ELLIPSE
  5
4E7
330
3B2
100
AcDbEntity
  8
1-1MA
  6
Continuous
 62
     7
100
AcDbEllipse
 10
475.4754470691
 20
121.3353218925
 30
0.0
 11
1.374999999999941
 21
-2.381569860407376
 31
0.0
210
0.0
220
0.0
230
0.9999999999999998
 40
0.5773502692
 41
0.0
 42
6.283185307179586
  0
ELLIPSE
  5
4E8
330
3B2
100
AcDbEntity
  8
1-1MA
  6
Continuous
 62
     7
100
AcDbEllipse
 10
500.3110318771
 20
106.9964903182
 30
0.0
 11
1.374999999999632
 21
-2.38156986040683
 31
0.0
210
0.0
220
0.0
230
0.9999999999999999
 40
0.5773502692
 41
0.0
 42
6.283185307179586
  0
ELLIPSE
  5
4E9
330
3B2
100
AcDbEntity
  8
1-1MA
  6
Continuous
 62
     7
100
AcDbEllipse
 10
500.3110318771
 20
77.9403669877
 30
0.0
 11
1.374999999999528
 21
-2.381569860406663
 31
0.0
210
0.0
220
0.0
230
0.9999999999999998
 40
0.5773502692
 41
0.0
 42
6.283185307179586
  0
ELLIPSE
  5
4EA
330
3B2
100
AcDbEntity
  8
1-1MA
  6
Continuous
 62
     7
100
AcDbEllipse
 10
475.4754470691
 20
92.2791985621
 30
0.0
 11
1.374999999999884
 21
-2.381569860407282
 31
0.0
210
0.0
220
0.0
230
1.0
 40
0.5773502692
 41
0.0
 42
6.283185307179586
  0
ELLIPSE
  5
4EB
330
3B2
100
AcDbEntity
  8
1-1MA
  6
Continuous
 62
     7
100
AcDbEllipse
 10
494.964307285
 20
103.7203273448
 30
0.0
 11
1.999999999999831
 21
-3.464101615137859
 31
0.0
210
0.0
220
0.0
230
1.0
 40
0.5773502692
 41
0.0
 42
6.283185307179586
  0
ELLIPSE
  5
4EC
330
3B2
100
AcDbEntity
  8
1-1MA
  6
Continuous
 62
     7
100
AcDbEllipse
 10
487.8932394731
 20
99.6378444401
 30
0.0
 11
-10.24999999999913
 21
17.75352077758151
 31
0.0
210
0.0
220
0.0
230
1.0
 40
0.5773502692
 41
0.0
 42
6.283185307179586
  0
ELLIPSE
  5
4ED
330
3B2
100
AcDbEntity
  8
1-1MA
  6
Continuous
 62
     7
100
AcDbEllipse
 10
488.2467928637
 20
99.8419685854
 30
0.0
 11
9.999999999999137
 21
-17.32050807568928
 31
0.0
210
0.0
220
0.0
230
1.0
 40
0.5773502692
 41
0.0
 42
0.7729750102342021
  0
ELLIPSE
  5
4EE
330
3B2
100
AcDbEntity
  8
1-1MA
  6
Continuous
 62
     7
100
AcDbEllipse
 10
488.2467928637
 20
99.8419685854
 30
0.0
 11
9.999999999999137
 21
-17.32050807568928
 31
0.0
210
0.0
220
0.0
230
1.0
 40
0.5773502692
 41
2.368617643342069
 42
6.283185307179586
  0
LINE
  5
4EF
330
3B2
100
AcDbEntity
  8
1-1MA
  6
Continuous
 62
     7
100
AcDbLine
 10
529.5819563385
 20
46.2221355795
 30
0.0
 11
531.3497232914
 21
45.2015148534
 31
0.0
  0
LINE
  5
4F0
330
3B2
100
AcDbEntity
  8
1-1MA
  6
Continuous
 62
     7
100
AcDbLine
 10
559.3497232914
 20
93.6989374653
 30
0.0
 11
557.5819563385
 21
94.7195581915
 31
0.0
  0
SPLINE
  5
4F1
330
3B2
100
AcDbEntity
  8
1-1MA
  6
Continuous
 62
     7
100
AcDbSpline
210
0.0
220
0.0
230
1.0
 70
     8
 71
     3
 72
    59
 73
    55
 74
     0
 42
0.0000000001510033
 43
0.0000000001
 40
0.0
 40
0.0
 40
0.0
 40
0.0
 40
0.0017593373397867
 40
0.0211322355566877
 40
0.0405452224059766
 40
0.0600071554735781
 40
0.0795209664530163
 40
0.0990844347369912
 40
0.1186916580593327
 40
0.1383347190135819
 40
0.1580051474192097
 40
0.1776949683189369
 40
0.197397304044129
 40
0.217106610237854
 40
0.2368186418042159
 40
0.2565295886135278
 40
0.2762376601865671
 40
0.2959417679038514
 40
0.3156413502584285
 40
0.3353362306840311
 40
0.355026506937851
 40
0.3747124678702046
 40
0.3943945324785044
 40
0.4140732063509401
 40
0.433749051285095
 40
0.453422664659759
 40
0.4730946658742328
 40
0.492765687781571
 40
0.5124363715151554
 40
0.5321073349436432
 40
0.5517790404463453
 40
0.5714521398281648
 40
0.5911272848926378
 40
0.6108051238315202
 40
0.630486295162029
 40
0.6501714177840191
 40
0.6698610753839048
 40
0.6895557928745999
 40
0.7092560018735683
 40
0.7289619914056572
 40
0.7486738391551936
 40
0.768391317885554
 40
0.7881137715161438
 40
0.8078399565770705
 40
0.8275676066440526
 40
0.8472926866059497
 40
0.8670105060369957
 40
0.8867149402546306
 40
0.9063984466579286
 40
0.926052368101737
 40
0.945667651684262
 40
0.9652360558401855
 40
0.9847517770720772
 40
1.0
 40
1.0
 40
1.0
 40
1.0
 10
533.5236391575799
 20
44.28036423133876
 30
0.0
 10
533.5530953789778
 20
44.27044321592459
 30
0.0
 10
533.8575911466306
 20
44.16809986180472
 30
0.0
 10
534.5296533665036
 20
44.02795025582606
 30
0.0
 10
535.4747363727145
 20
43.88853907128776
 30
0.0
 10
536.4651001136659
 20
43.83440208180944
 30
0.0
 10
537.4799386995198
 20
43.85966766228871
 30
0.0
 10
538.5209102076612
 20
43.96612982590135
 30
0.0
 10
539.5833747639435
 20
44.15315497469904
 30
0.0
 10
540.664187886601
 20
44.42035371217925
 30
0.0
 10
541.7596750868398
 20
44.76685091679413
 30
0.0
 10
542.8662423950383
 20
45.19149609501946
 30
0.0
 10
543.9802633961896
 20
45.69283570920211
 30
0.0
 10
545.0981429094674
 20
46.26915390235835
 30
0.0
 10
546.2163049624037
 20
46.91848461967766
 30
0.0
 10
547.3312215324713
 20
47.63863993619574
 30
0.0
 10
548.4394139857045
 20
48.42722658080143
 30
0.0
 10
549.5374674802704
 20
49.28167032277554
 30
0.0
 10
550.6220123157952
 20
50.1992119114671
 30
0.0
 10
551.6897279123218
 20
51.176914362581
 30
0.0
 10
552.7373482172939
 20
52.21167005231224
 30
0.0
 10
553.7616683439145
 20
53.30020811374726
 30
0.0
 10
554.7595521461412
 20
54.43910242049836
 30
0.0
 10
555.7279404378309
 20
55.62478030011164
 30
0.0
 10
556.6638595905022
 20
56.85353202332536
 30
0.0
 10
557.5644302845968
 20
58.1215210553023
 30
0.0
 10
558.4268762288868
 20
59.42479501911568
 30
0.0
 10
559.2485326977118
 20
60.75929730163393
 30
0.0
 10
560.0268543879889
 20
62.12087856237783
 30
0.0
 10
560.7594213995621
 20
63.50530558908479
 30
0.0
 10
561.4439496084984
 20
64.90827848343243
 30
0.0
 10
562.0782978410001
 20
66.32544490846972
 30
0.0
 10
562.6604753284043
 20
67.75241766641143
 30
0.0
 10
563.1886448804212
 20
69.18478390188962
 30
0.0
 10
563.6611276786853
 20
70.6181186521419
 30
0.0
 10
564.0764073405271
 20
72.04799821169738
 30
0.0
 10
564.4331332437258
 20
73.47001314080522
 30
0.0
 10
564.7301231351914
 20
74.87978071957927
 30
0.0
 10
564.9663650928306
 20
76.27295661697134
 30
0.0
 10
565.1410189830251
 20
77.64524550622102
 30
0.0
 10
565.2534176527645
 20
78.9924103487838
 30
0.0
 10
565.3030682706843
 20
80.31028001461907
 30
0.0
 10
565.2896543198914
 20
81.59475517232421
 30
0.0
 10
565.2130396920966
 20
82.84180666558899
 30
0.0
 10
565.073277388956
 20
84.04746442070477
 30
0.0
 10
564.8706262164675
 20
85.20782905969146
 30
0.0
 10
564.6055568237766
 20
86.3191005665728
 30
0.0
 10
564.2788054722844
 20
87.37752569402645
 30
0.0
 10
563.8912589619054
 20
88.37967850021143
 30
0.0
 10
563.4445012314795
 20
89.32146460207048
 30
0.0
 10
562.9388794398706
 20
90.20198730531517
 30
0.0
 10
562.3807531784122
 20
91.00938874900814
 30
0.0
 10
561.8004977577598
 20
91.7187652697272
 30
0.0
 10
561.4269844122537
 20
92.08484072403921
 30
0.0
 10
561.2323725158076
 20
92.27352129642001
 30
0.0
  0
LINE
  5
4F2
330
3B2
100
AcDbEntity
  8
1-1MA
  6
Continuous
 62
     7
100
AcDbLine
 10
539.9742567362
 20
62.7387986458
 30
0.0
 11
541.2411446477
 21
62.0073605691
 31
0.0
  0
LINE
  5
4F3
330
3B2
100
AcDbEntity
  8
1-1MA
  6
Continuous
 62
     7
100
AcDbLine
 10
549.7411446477
 20
76.7297924334
 30
0.0
 11
548.4742567362
 21
77.4612305101
 31
0.0
  0
LINE
  5
4F4
330
3B2
100
AcDbEntity
  8
1-1MA
  6
Continuous
 62
     7
100
AcDbLine
 10
545.4911446477
 20
62.4283555634
 30
0.0
 11
546.0568300726
 21
62.7549541957
 31
0.0
  0
LINE
  5
4F5
330
3B2
100
AcDbEntity
  8
1-1MA
  6
Continuous
 62
     7
100
AcDbLine
 10
551.5015522877
 20
72.1854897054
 30
0.0
 11
551.5015522877
 21
72.8386869702
 31
0.0
  0
LINE
  5
4F6
330
3B2
100
AcDbEntity
  8
1-1MA
  6
Continuous
 62
     7
100
AcDbLine
 10
555.816565681
 20
61.3516873022
 30
0.0
 11
555.7786160082
 21
61.3735975561
 31
0.0
  0
LINE
  5
4F7
330
3B2
100
AcDbEntity
  8
1-1MA
  6
Continuous
 62
     7
100
AcDbLine
 10
551.6044336467
 20
54.5459585591
 30
0.0
 11
551.816565681
 21
54.423484072
 31
0.0
  0
LINE
  5
4F8
330
3B2
100
AcDbEntity
  8
1-1MA
  6
Continuous
 62
     7
100
AcDbLine
 10
550.7760065219
 20
56.9230073846
 30
0.0
 11
550.7760065219
 21
56.3770670124
 31
0.0
  0
SPLINE
  5
4F9
330
3B2
100
AcDbEntity
  8
1-1MA
  6
Continuous
 62
     7
100
AcDbSpline
210
0.0
220
0.0
230
1.0
 70
     8
 71
     3
 72
    40
 73
    36
 74
     0
 42
0.0000000004082508
 43
0.0000000001
 40
0.0
 40
0.0
 40
0.0
 40
0.0
 40
0.0165506256878579
 40
0.045516818506299
 40
0.074559755424919
 40
0.1039351327521903
 40
0.1338177971651988
 40
0.16426954576081
 40
0.1952374957248225
 40
0.2265894860405126
 40
0.2581702800479173
 40
0.2898480796133143
 40
0.321517727670023
 40
0.3531389686069576
 40
0.3846999402600015
 40
0.4162036765886726
 40
0.447661289367923
 40
0.4790879880434553
 40
0.5105009733055186
 40
0.5419184199002446
 40
0.5733537869622543
 40
0.6048250744014413
 40
0.6363511732469612
 40
0.667950115889563
 40
0.6996373606457956
 40
0.731422366745536
 40
0.7633023289872908
 40
0.7952518253982429
 40
0.8271811679046881
 40
0.858953979383488
 40
0.8903906935898176
 40
0.9213078589493214
 40
0.9515917032693334
 40
0.9812586923716929
 40
1.0
 40
1.0
 40
1.0
 40
1.0
 10
524.5922089539773
 20
82.92469644923328
 30
0.0
 10
524.6966893296449
 20
82.86379922143323
 30
0.0
 10
524.9416068244711
 20
82.72319438535577
 30
0.0
 10
525.4252048668226
 20
82.55546283830772
 30
0.0
 10
525.9983268026667
 20
82.43617187533961
 30
0.0
 10
526.6045321752682
 20
82.39826894255826
 30
0.0
 10
527.2330457472301
 20
82.44093230280339
 30
0.0
 10
527.8821722556053
 20
82.56525094419247
 30
0.0
 10
528.5460942722109
 20
82.77127439858533
 30
0.0
 10
529.2183858277526
 20
83.05780983659548
 30
0.0
 10
529.891701137079
 20
83.42198246064345
 30
0.0
 10
530.5586747152428
 20
83.85945345767753
 30
0.0
 10
531.2125129534048
 20
84.36495914581741
 30
0.0
 10
531.8471363192267
 20
84.93276105448747
 30
0.0
 10
532.4571561039195
 20
85.55699569173603
 30
0.0
 10
533.0375497064366
 20
86.2315989019477
 30
0.0
 10
533.5835605055523
 20
86.95028781911131
 30
0.0
 10
534.090670965948
 20
87.70656205876485
 30
0.0
 10
534.5546077920887
 20
88.49372136045614
 30
0.0
 10
534.971338868366
 20
89.30485610678421
 30
0.0
 10
535.3371276011425
 20
90.1329288111781
 30
0.0
 10
535.6485579883579
 20
90.97084536420027
 30
0.0
 10
535.9025495521531
 20
91.81156407979664
 30
0.0
 10
536.0963234623597
 20
92.64810671772757
 30
0.0
 10
536.2273719496748
 20
93.47357101228208
 30
0.0
 10
536.2934239204066
 20
94.2811065281777
 30
0.0
 10
536.292429876748
 20
95.06381148018413
 30
0.0
 10
536.2226258923766
 20
95.81434636071361
 30
0.0
 10
536.0828681275427
 20
96.52470728737329
 30
0.0
 10
535.8730560297463
 20
97.18640744372831
 30
0.0
 10
535.5950746728009
 20
97.79005830388036
 30
0.0
 10
535.2518957610463
 20
98.3292698538548
 30
0.0
 10
534.8524161967161
 20
98.79006759834967
 30
0.0
 10
534.4467269103708
 20
99.14634907528439
 30
0.0
 10
534.1882223688347
 20
99.29863932423484
 30
0.0
 10
534.069715360393
 20
99.36727371833541
 30
0.0
  0
LINE
  5
4FA
330
3B2
100
AcDbEntity
  8
1-1MA
  6
Continuous
 62
     7
100
AcDbLine
 10
523.9433007476
 20
83.2864621239
 30
0.0
 11
524.5443415116
 21
82.9394510771
 31
0.0
  0
LINE
  5
4FB
330
3B2
100
AcDbEntity
  8
1-1MA
  6
Continuous
 62
     7
100
AcDbLine
 10
534.0443415116
 20
99.393933749
 30
0.0
 11
533.4433007476
 21
99.7409447959
 31
0.0
  0
ARC
  5
4FC
330
3B2
100
AcDbEntity
  8
1-1MA
  6
Continuous
 62
     7
100
AcDbCircle
 10
530.8915975329
 20
93.8289602992
 30
0.0
 40
6.476298537114781
100
AcDbArc
 50
73.2353517469
 51
74.6628802156
  0
ARC
  5
4FD
330
3B2
100
AcDbEntity
  8
1-1MA
  6
Continuous
 62
     7
100
AcDbCircle
 10
530.8915975329
 20
93.8289602992
 30
0.0
 40
6.476298537114781
100
AcDbArc
 50
75.4016730983
 51
88.5099703983
  0
ARC
  5
4FE
330
3B2
100
AcDbEntity
  8
1-1MA
  6
Continuous
 62
     7
100
AcDbCircle
 10
527.7006070536
 20
88.4115159221
 30
0.0
 40
6.381090084379203
100
AcDbArc
 50
211.928610187
 51
227.2036540628
  0
SPLINE
  5
4FF
330
3B2
100
AcDbEntity
  8
1-1MA
  6
Continuous
 62
     7
100
AcDbSpline
210
0.0
220
0.0
230
1.0
 70
     8
 71
     3
 72
    17
 73
    13
 74
     0
 42
0.000000001805184
 43
0.0000000001
 40
0.0
 40
0.0
 40
0.0
 40
0.0
 40
0.040749506994454
 40
0.1536560516671686
 40
0.2665421552974887
 40
0.380395361367987
 40
0.4960279327707079
 40
0.6138453037212626
 40
0.7337918474437705
 40
0.8554394003134825
 40
0.972829682763794
 40
1.0
 40
1.0
 40
1.0
 40
1.0
 10
475.0119313385887
 20
62.25198369910152
 30
0.0
 10
474.9438464500781
 20
62.21718989948558
 30
0.0
 10
474.7252976754161
 20
62.10433801293891
 30
0.0
 10
474.3557961057206
 20
61.8124852280847
 30
0.0
 10
473.9463152939092
 20
61.40054748537076
 30
0.0
 10
473.5902561794308
 20
60.91650871305782
 30
0.0
 10
473.2920170155269
 20
60.37235114911471
 30
0.0
 10
473.0532635376219
 20
59.76874707580176
 30
0.0
 10
472.8768025644354
 20
59.10764208481428
 30
0.0
 10
472.7672404313875
 20
58.4148155793287
 30
0.0
 10
472.732653689946
 20
57.8543000382466
 30
0.0
 10
472.7306892036843
 20
57.56925875297836
 30
0.0
 10
472.7303931712489
 20
57.50662086425348
 30
0.0
  0
SPLINE
  5
500
330
3B2
100
AcDbEntity
  8
1-1MA
  6
Continuous
 62
     7
100
AcDbSpline
210
0.0
220
0.0
230
1.0
 70
     8
 71
     3
 72
    32
 73
    28
 74
     0
 42
0.0000000005228866
 43
0.0000000001
 40
0.0
 40
0.0
 40
0.0
 40
0.0
 40
0.022503947914311
 40
0.0646750817904509
 40
0.1067844925947883
 40
0.1488208720375951
 40
0.190776807343658
 40
0.2326609753464039
 40
0.2744905489916755
 40
0.3162869309142465
 40
0.3580735682712671
 40
0.3998732747728112
 40
0.4417044943072677
 40
0.4835924876753578
 40
0.5255621454842763
 40
0.5676365894222862
 40
0.6098342244387112
 40
0.6521630323205602
 40
0.6946104721970249
 40
0.737120946343787
 40
0.7795451076115406
 40
0.8216814251866603
 40
0.8632797742411924
 40
0.9041172248688558
 40
0.944097899700327
 40
0.983311737308117
 40
1.0
 40
1.0
 40
1.0
 40
1.0
 10
472.7303931712489
 20
57.50662086425348
 30
0.0
 10
472.7321549836852
 20
57.35363992834856
 30
0.0
 10
472.7379832670056
 20
56.9794383665528
 30
0.0
 10
472.7982680882054
 20
56.28127595986926
 30
0.0
 10
472.9313602779846
 20
55.46157542326302
 30
0.0
 10
473.1280203848821
 20
54.62328575643798
 30
0.0
 10
473.3846929465657
 20
53.78259909578763
 30
0.0
 10
473.6988051019542
 20
52.94448181460412
 30
0.0
 10
474.0671070936292
 20
52.11679181950739
 30
0.0
 10
474.4861417262039
 20
51.30648575249812
 30
0.0
 10
474.9521308518828
 20
50.52062264435946
 30
0.0
 10
475.461009434226
 20
49.76608003223055
 30
0.0
 10
476.0084705373121
 20
49.04953233789917
 30
0.0
 10
476.5900246615683
 20
48.37737781981408
 30
0.0
 10
477.2010781518132
 20
47.75569657778409
 30
0.0
 10
477.836950054307
 20
47.19028416514151
 30
0.0
 10
478.492893581407
 20
46.68667514258792
 30
0.0
 10
479.1640717875745
 20
46.2501942767361
 30
0.0
 10
479.845403291623
 20
45.88604237570045
 30
0.0
 10
480.5311454104603
 20
45.59938092644411
 30
0.0
 10
481.214554633295
 20
45.39504626517537
 30
0.0
 10
481.8879538818514
 20
45.27695553518862
 30
0.0
 10
482.541847249661
 20
45.24758262299289
 30
0.0
 10
483.1696589612943
 20
45.30635182307116
 30
0.0
 10
483.753501182897
 20
45.45279333133223
 30
0.0
 10
484.2146926125696
 20
45.63348742153855
 30
0.0
 10
484.4356710487345
 20
45.77347547248023
 30
0.0
 10
484.5128677541106
 20
45.82293375206397
 30
0.0
  0
LINE
  5
501
330
3B2
100
AcDbEntity
  8
1-1MA
  6
Continuous
 62
     7
100
AcDbLine
 10
475.5771969144
 20
62.5903503636
 30
0.0
 11
474.9761561504
 21
62.2433393167
 31
0.0
  0
LINE
  5
502
330
3B2
100
AcDbEntity
  8
1-1MA
  6
Continuous
 62
     7
100
AcDbLine
 10
484.4761561504
 20
45.7888566448
 30
0.0
 11
485.0771969144
 21
46.1358676917
 31
0.0
  0
ARC
  5
503
330
3B2
100
AcDbEntity
  8
1-1MA
  6
Continuous
 62
     7
100
AcDbCircle
 10
478.1407372568
 20
56.7228885719
 30
0.0
 40
6.431433231353383
100
AcDbArc
 50
104.4298731925
 51
107.0035906609
  0
ARC
  5
504
330
3B2
100
AcDbEntity
  8
1-1MA
  6
Continuous
 62
     7
100
AcDbCircle
 10
481.2886097462
 20
51.2763742924
 30
0.0
 40
6.416046665303788
100
AcDbArc
 50
312.9805360756
 51
315.9578054473
  0
LINE
  5
505
330
3B2
100
AcDbEntity
  8
1-1MA
  6
Continuous
 62
     7
100
AcDbLine
 10
507.6314526133
 20
153.0482162882
 30
0.0
 11
507.6314526133
 21
146.1079953503
 31
0.0
  0
LINE
  5
506
330
3B2
100
AcDbEntity
  8
1-1MA
  6
Continuous
 62
     7
100
AcDbLine
 10
524.6314526133
 20
146.1079953503
 30
0.0
 11
524.6314526133
 21
153.0482162882
 31
0.0
  0
SPLINE
  5
507
330
3B2
100
AcDbEntity
  8
1-1MA
  6
Continuous
 62
     7
100
AcDbSpline
210
0.0
220
0.0
230
1.0
 70
     8
 71
     3
 72
    31
 73
    27
 74
     0
 42
0.0000000005826993
 43
0.0000000001
 40
0.0
 40
0.0
 40
0.0
 40
0.0
 40
0.0112873958046703
 40
0.051266105505875
 40
0.0911390163556449
 40
0.1313438343995803
 40
0.1723001039531272
 40
0.2143074628302558
 40
0.257483867824207
 40
0.3017308929586691
 40
0.3467713574741397
 40
0.3922604030534892
 40
0.4378830595084308
 40
0.4834316701424503
 40
0.5288443812946222
 40
0.5741174805194891
 40
0.6192793610367657
 40
0.6643745229569405
 40
0.709455177795604
 40
0.7545720033000307
 40
0.7997691945773372
 40
0.8451050941170705
 40
0.8906359098486782
 40
0.9364096869208364
 40
0.982453600618362
 40
1.0
 40
1.0
 40
1.0
 40
1.0
 10
524.6223210110028
 20
153.0201924623022
 30
0.0
 10
524.6257921140658
 20
153.0801365492227
 30
0.0
 10
524.6385193717322
 20
153.3129684855292
 30
0.0
 10
524.5753531720945
 20
153.7657554368116
 30
0.0
 10
524.4304615198077
 20
154.325580526267
 30
0.0
 10
524.1973864859864
 20
154.8717990111263
 30
0.0
 10
523.8860646018496
 20
155.3943559757234
 30
0.0
 10
523.4951113417773
 20
155.8927570396771
 30
0.0
 10
523.0260752218878
 20
156.3628281038582
 30
0.0
 10
522.4813334831166
 20
156.7998534600002
 30
0.0
 10
521.8660905536932
 20
157.1981977780465
 30
0.0
 10
521.1881335882263
 20
157.5525101132333
 30
0.0
 10
520.4569334416043
 20
157.8585115936896
 30
0.0
 10
519.6822078883421
 20
158.1133839595279
 30
0.0
 10
518.8731053740818
 20
158.315480476396
 30
0.0
 10
518.0380698085579
 20
158.4638671011681
 30
0.0
 10
517.1852813265351
 20
158.5579665890797
 30
0.0
 10
516.3227901927706
 20
158.5974497837064
 30
0.0
 10
515.4585929997203
 20
158.5821840191375
 30
0.0
 10
514.6007569182592
 20
158.512258776772
 30
0.0
 10
513.7570361049636
 20
158.38785839687
 30
0.0
 10
512.9357657370149
 20
158.2096489469813
 30
0.0
 10
512.1421875469115
 20
157.9770337464113
 30
0.0
 10
511.3922515967404
 20
157.6943313184592
 30
0.0
 10
510.8136064279314
 20
157.4196044463185
 30
0.0
 10
510.5248603561921
 20
157.2576594932845
 30
0.0
 10
510.4317051449552
 20
157.2049924270881
 30
0.0
  0
ARC
  5
508
330
3B2
100
AcDbEntity
  8
1-1MA
  6
Continuous
 62
     7
100
AcDbCircle
 10
512.5367320037
 20
152.7787906701
 30
0.0
 40
4.901265149927707
100
AcDbArc
 50
115.4349719502
 51
177.1256815314
  0
SPLINE
  5
509
330
3B2
100
AcDbEntity
  8
1-1MA
  6
Continuous
 62
     7
100
AcDbSpline
210
0.0
220
0.0
230
1.0
 70
     8
 71
     3
 72
    31
 73
    27
 74
     0
 42
0.0000000005248829
 43
0.0000000001
 40
0.0
 40
0.0
 40
0.0
 40
0.0
 40
0.0344368993339284
 40
0.0731908683613761
 40
0.1121582756404893
 40
0.1516550402332185
 40
0.1918725715044488
 40
0.2328452300781699
 40
0.274463284368238
 40
0.3165324678160215
 40
0.3588494411987296
 40
0.4012486643569262
 40
0.4436131390411325
 40
0.4859052230633062
 40
0.528116282693674
 40
0.5702543982454557
 40
0.6123365144633676
 40
0.6543840009536629
 40
0.6964203669030149
 40
0.7384689730359668
 40
0.7805478996414575
 40
0.8226825563796862
 40
0.8648980295042082
 40
0.9072177336661453
 40
0.9496605585086191
 40
0.9736012269665472
 40
0.9736012269665472
 40
0.9736012269665472
 40
0.9736012269665472
 10
539.8150110002435
 20
150.2598040259447
 30
0.0
 10
539.8086357192564
 20
150.4477898785766
 30
0.0
 10
539.7939393693372
 20
150.7851704647455
 30
0.0
 10
539.6655263258103
 20
151.3445333538782
 30
0.0
 10
539.4556886125765
 20
151.8962868183701
 30
0.0
 10
539.1609703779136
 20
152.4344788427308
 30
0.0
 10
538.785159721525
 20
152.9508965384011
 30
0.0
 10
538.3290392808909
 20
153.4429841616603
 30
0.0
 10
537.7958309870594
 20
153.9055321453973
 30
0.0
 10
537.1904043064523
 20
154.3335427520363
 30
0.0
 10
536.5193714078797
 20
154.7222607135219
 30
0.0
 10
535.7904044775881
 20
155.0677573013121
 30
0.0
 10
535.011505176636
 20
155.3670595791168
 30
0.0
 10
534.190625172967
 20
155.6179934648636
 30
0.0
 10
533.3355105854976
 20
155.8189678940516
 30
0.0
 10
532.4539381741802
 20
155.9687721678969
 30
0.0
 10
531.5537485249355
 20
156.0665249111655
 30
0.0
 10
530.6428474476985
 20
156.1116574576754
 30
0.0
 10
529.729194588955
 20
156.1039148846347
 30
0.0
 10
528.8207787958586
 20
156.0433498880358
 30
0.0
 10
527.9255846504633
 20
155.9303640619098
 30
0.0
 10
527.051229662914
 20
155.7655397745197
 30
0.0
 10
526.2059630429433
 20
155.5501448946102
 30
0.0
 10
525.394622130812
 20
155.2840418666443
 30
0.0
 10
524.7452014436257
 20
155.0188333767071
 30
0.0
 10
524.3584667137671
 20
154.8324608497871
 30
0.0
 10
524.2247226278075
 20
154.7642886978845
 30
0.0
  0
LINE
  5
50A
330
3B2
100
AcDbEntity
  8
1-1MA
  6
Continuous
 62
     7
100
AcDbLine
 10
539.8196463443
 20
149.5257855364
 30
0.0
 11
539.8196463443
 21
150.2198076301
 31
0.0
  0
ARC
  5
50B
330
3B2
100
AcDbEntity
  8
1-1MA
  6
Continuous
 62
     7
100
AcDbCircle
 10
533.4635372964
 20
150.2409456091
 30
0.0
 40
6.426570722193403
100
AcDbArc
 50
330.1268257925
 51
347.0054888699
  0
LINE
  5
50C
330
3B2
100
AcDbEntity
  8
1-1MA
  6
Continuous
 62
     7
100
AcDbLine
 10
559.6498022061
 20
75.6271290783
 30
0.0
 11
559.8619342405
 21
75.5046545912
 31
0.0
  0
LINE
  5
50D
330
3B2
100
AcDbEntity
  8
1-1MA
  6
Continuous
 62
     7
100
AcDbLine
 10
555.5574874085
 20
93.9017391748
 30
0.0
 11
555.4445249362
 21
93.9669580886
 31
0.0
  0
LINE
  5
50E
330
3B2
100
AcDbEntity
  8
1-1MA
  6
Continuous
 62
     7
100
AcDbLine
 10
551.3453553741
 20
87.0960104317
 30
0.0
 11
551.5574874085
 21
86.9735359445
 31
0.0
  0
LINE
  5
50F
330
3B2
100
AcDbEntity
  8
1-1MA
  6
Continuous
 62
     7
100
AcDbLine
 10
539.207672017
 20
84.2894500089
 30
0.0
 11
538.9955399826
 21
84.4119244961
 31
0.0
  0
LINE
  5
510
330
3B2
100
AcDbEntity
  8
1-1MA
  6
Continuous
 62
     7
100
AcDbLine
 10
535.169692791
 20
77.383174095
 30
0.0
 11
535.207672017
 21
77.3612467787
 31
0.0
  0
LINE
  5
511
330
3B2
100
AcDbEntity
  8
1-1MA
  6
Continuous
 62
     7
100
AcDbLine
 10
528.9501714232
 20
63.1326386855
 30
0.0
 11
528.6489826496
 21
62.9587472659
 31
0.0
  0
LINE
  5
512
330
3B2
100
AcDbEntity
  8
1-1MA
  6
Continuous
 62
     7
100
AcDbLine
 10
531.1623034575
 20
63.2082794897
 30
0.0
 11
530.9501714232
 21
63.3307539769
 31
0.0
  0
LINE
  5
513
330
3B2
100
AcDbEntity
  8
1-1MA
  6
Continuous
 62
     7
100
AcDbLine
 10
537.2546182552
 20
51.6637573321
 30
0.0
 11
536.7807106332
 21
51.390146639
 31
0.0
  0
LINE
  5
514
330
3B2
100
AcDbEntity
  8
1-1MA
  6
Continuous
 62
     7
100
AcDbLine
 10
534.4261911304
 20
47.0276662923
 30
0.0
 11
534.4261911304
 21
46.7647778465
 31
0.0
  0
LINE
  5
515
330
3B2
100
AcDbEntity
  8
1-1MA
  6
Continuous
 62
     7
100
AcDbLine
 10
539.4667502895
 20
51.7393981364
 30
0.0
 11
539.2546182552
 21
51.8618726235
 31
0.0
  0
LINE
  5
516
330
3B2
100
AcDbEntity
  8
1-1MA
  6
Continuous
 62
     7
100
AcDbLine
 10
535.3537852799
 20
44.8764152848
 30
0.0
 11
535.4667502896
 21
44.8111949061
 31
0.0
  0
ENDBLK
  5
518
330
3B2
100
AcDbEntity
  8
0
100
AcDbBlockEnd
  0
ENDSEC
  0
SECTION
  2
ENTITIES
  0
INSERT
  5
41
330
1F
100
AcDbEntity
  8
Default
100
AcDbBlockReference
  2
SE
 10
0.0
 20
0.0
 30
0.0
  0
INSERT
  5
FD
330
1F
100
AcDbEntity
  8
Default
100
AcDbBlockReference
  2
SE1
 10
0.0
 20
0.0
 30
0.0
  0
INSERT
  5
15A
330
1F
100
AcDbEntity
  8
Default
100
AcDbBlockReference
  2
SE2
 10
0.0
 20
0.0
 30
0.0
  0
INSERT
  5
1D8
330
1F
100
AcDbEntity
  8
Default
100
AcDbBlockReference
  2
SE3
 10
0.0
 20
0.0
 30
0.0
  0
INSERT
  5
243
330
1F
100
AcDbEntity
  8
Default
100
AcDbBlockReference
  2
SE4
 10
0.0
 20
0.0
 30
0.0
  0
INSERT
  5
3B3
330
1F
100
AcDbEntity
  8
Default
100
AcDbBlockReference
  2
SE5
 10
0.0
 20
0.0
 30
0.0
  0
ENDSEC
  0
SECTION
  2
OBJECTS
  0
DICTIONARY
  5
C
330
0
100
AcDbDictionary
281
     1
  3
ACAD_GROUP
350
D
  3
ACAD_LAYOUT
350
1A
  3
ACAD_MATERIAL
350
3B
  3
ACAD_MLEADERSTYLE
350
51B
  3
ACAD_MLINESTYLE
350
17
  3
ACAD_PLOTSETTINGS
350
19
  3
ACAD_PLOTSTYLENAME
350
E
  3
ACAD_VISUALSTYLE
350
2A
  3
AcDbVariableDictionary
350
519
  0
DICTIONARY
  5
D
102
{ACAD_REACTORS
330
C
102
}
330
C
100
AcDbDictionary
281
     1
  0
DICTIONARY
  5
1A
102
{ACAD_REACTORS
330
C
102
}
330
C
100
AcDbDictionary
281
     1
  3
Layout1
350
1E
  3
Model
350
22
  0
DICTIONARY
  5
3B
102
{ACAD_REACTORS
330
C
102
}
330
C
100
AcDbDictionary
281
     1
  3
ByBlock
350
3D
  3
ByLayer
350
3C
  3
Global
350
3E
  0
DICTIONARY
  5
51B
102
{ACAD_REACTORS
330
C
102
}
330
C
100
AcDbDictionary
281
     1
  0
DICTIONARY
  5
17
102
{ACAD_REACTORS
330
C
102
}
330
C
100
AcDbDictionary
281
     1
  3
Standard
350
18
  0
DICTIONARY
  5
19
102
{ACAD_REACTORS
330
C
102
}
330
C
100
AcDbDictionary
281
     1
  0
ACDBDICTIONARYWDFLT
  5
E
102
{ACAD_REACTORS
330
C
102
}
330
C
100
AcDbDictionary
281
     1
  3
Normal
350
F
100
AcDbDictionaryWithDefault
340
F
  0
DICTIONARY
  5
2A
102
{ACAD_REACTORS
330
C
102
}
330
C
100
AcDbDictionary
281
     1
  3
2dWireframe
350
2F
  3
3D Hidden
350
31
  3
3dWireframe
350
30
  3
Basic
350
32
  3
Brighten
350
36
  3
ColorChange
350
3A
  3
Conceptual
350
34
  3
Dim
350
35
  3
Facepattern
350
39
  3
Flat
350
2B
  3
FlatWithEdges
350
2C
  3
Gouraud
350
2D
  3
GouraudWithEdges
350
2E
  3
Linepattern
350
38
  3
Realistic
350
33
  3
Thicken
350
37
  0
DICTIONARY
  5
519
102
{ACAD_REACTORS
330
C
102
}
330
C
100
AcDbDictionary
281
     1
  3
DIMASSOC
350
51E
  3
HIDETEXT
350
51F
  3
PSOLHEIGHT
350
51D
  3
PSOLWIDTH
350
51C
  0
LAYOUT
  5
1E
102
{ACAD_REACTORS
330
1A
102
}
330
1A
100
AcDbPlotSettings
  1

  2
none_device
  4

  6

 40
0.0
 41
0.0
 42
0.0
 43
0.0
 44
0.0
 45
0.0
 46
0.0
 47
0.0
 48
0.0
 49
0.0
140
0.0
141
0.0
142
1.0
143
1.0
 70
   688
 72
     0
 73
     0
 74
     5
  7

 75
    16
147
1.0
148
0.0
149
0.0
100
AcDbLayout
  1
Layout1
 70
     1
 71
     1
 10
0.0
 20
0.0
 11
594.0
 21
420.0
 12
0.0
 22
0.0
 32
0.0
 14
0.0
 24
0.0
 34
0.0
 15
594.0
 25
420.0
 35
0.0
146
0.0
 13
0.0
 23
0.0
 33
0.0
 16
1.0
 26
0.0
 36
0.0
 17
0.0
 27
1.0
 37
0.0
 76
     0
330
1B
  0
LAYOUT
  5
22
102
{ACAD_REACTORS
330
1A
102
}
330
1A
100
AcDbPlotSettings
  1

  2
none_device
  4

  6

 40
0.0
 41
0.0
 42
0.0
 43
0.0
 44
0.0
 45
0.0
 46
0.0
 47
0.0
 48
0.0
 49
0.0
140
0.0
141
0.0
142
1.0
143
1.0
 70
  1712
 72
     0
 73
     0
 74
     0
  7

 75
     0
147
1.0
148
0.0
149
0.0
100
AcDbLayout
  1
Model
 70
     1
 71
     0
 10
0.0
 20
0.0
 11
594.0
 21
420.0
 12
0.0
 22
0.0
 32
0.0
 14
0.0
 24
0.0
 34
0.0
 15
594.0
 25
420.0
 35
0.0
146
0.0
 13
0.0
 23
0.0
 33
0.0
 16
1.0
 26
0.0
 36
0.0
 17
0.0
 27
1.0
 37
0.0
 76
     0
330
1F
331
29
  0
MATERIAL
  5
3D
102
{ACAD_REACTORS
330
3B
102
}
102
{ACAD_XDICTIONARY
360
542
102
}
330
3B
100
AcDbMaterial
  1
ByBlock
  0
MATERIAL
  5
3C
102
{ACAD_REACTORS
330
3B
102
}
102
{ACAD_XDICTIONARY
360
540
102
}
330
3B
100
AcDbMaterial
  1
ByLayer
  0
MATERIAL
  5
3E
102
{ACAD_REACTORS
330
3B
102
}
102
{ACAD_XDICTIONARY
360
544
102
}
330
3B
100
AcDbMaterial
  1
Global
  0
MLINESTYLE
  5
18
102
{ACAD_REACTORS
330
17
102
}
330
17
100
AcDbMlineStyle
  2
Standard
 70
     0
  3

 62
   256
 51
90.0
 52
90.0
 71
     2
 49
0.5
 62
   256
  6
BYLAYER
 49
-0.5
 62
   256
  6
BYLAYER
  0
ACDBPLACEHOLDER
  5
F
102
{ACAD_REACTORS
330
E
102
}
330
E
  0
VISUALSTYLE
  5
2F
102
{ACAD_REACTORS
330
2A
102
}
102
{ACAD_XDICTIONARY
360
528
102
}
330
2A
100
AcDbVisualStyle
  2
2dWireframe
 70
     4
 71
     0
 72
     2
 73
     0
 90
        0
 40
-0.6
 41
-30.0
 62
     5
 63
     7
 74
     1
 91
        4
 64
     7
 65
   257
 75
     1
175
     1
 42
1.0
 92
        0
 66
   257
 43
1.0
 76
     1
 77
     6
 78
     2
 67
     7
 79
     5
170
     0
171
     0
290
     0
174
     0
 93
        1
 44
0.0
173
     0
291
     0
 45
0.0
1001
ACAD
1000
AcDbSavedByObjectVersion
1070
     0
  0
VISUALSTYLE
  5
31
102
{ACAD_REACTORS
330
2A
102
}
102
{ACAD_XDICTIONARY
360
52C
102
}
330
2A
100
AcDbVisualStyle
  2
3D Hidden
 70
     6
 71
     1
 72
     2
 73
     2
 90
        0
 40
-0.6
 41
-30.0
 62
     5
 63
     7
 74
     2
 91
        2
 64
     7
 65
   257
 75
     2
175
     1
 42
40.0
 92
        0
 66
   257
 43
1.0
 76
     1
 77
     6
 78
     2
 67
     7
 79
     3
170
     0
171
     0
290
     0
174
     0
 93
        1
 44
0.0
173
     0
291
     0
 45
0.0
1001
ACAD
1000
AcDbSavedByObjectVersion
1070
     0
  0
VISUALSTYLE
  5
30
102
{ACAD_REACTORS
330
2A
102
}
102
{ACAD_XDICTIONARY
360
52A
102
}
330
2A
100
AcDbVisualStyle
  2
3dWireframe
 70
     5
 71
     0
 72
     2
 73
     0
 90
        0
 40
-0.6
 41
-30.0
 62
     5
 63
     7
 74
     1
 91
        4
 64
     7
 65
   257
 75
     1
175
     1
 42
1.0
 92
        0
 66
   257
 43
1.0
 76
     1
 77
     6
 78
     2
 67
     7
 79
     5
170
     0
171
     0
290
     0
174
     0
 93
        1
 44
0.0
173
     0
291
     0
 45
0.0
1001
ACAD
1000
AcDbSavedByObjectVersion
1070
     0
  0
VISUALSTYLE
  5
32
102
{ACAD_REACTORS
330
2A
102
}
102
{ACAD_XDICTIONARY
360
52E
102
}
330
2A
100
AcDbVisualStyle
  2
Basic
 70
     7
 71
     1
 72
     0
 73
     1
 90
        0
 40
-0.6
 41
-30.0
 62
     5
 63
     7
 74
     0
 91
        4
 64
     7
 65
   257
 75
     1
175
     1
 42
1.0
 92
        8
 66
     7
 43
1.0
 76
     1
 77
     6
 78
     2
 67
     7
 79
     5
170
     0
171
     0
290
     0
174
     0
 93
        1
 44
0.0
173
     0
291
     1
 45
0.0
1001
ACAD
1000
AcDbSavedByObjectVersion
1070
     0
  0
VISUALSTYLE
  5
36
102
{ACAD_REACTORS
330
2A
102
}
102
{ACAD_XDICTIONARY
360
536
102
}
330
2A
100
AcDbVisualStyle
  2
Brighten
 70
    12
 71
     2
 72
     2
 73
     0
 90
        0
 40
-0.6
 41
-30.0
 62
     5
 63
     7
 74
     1
 91
        4
 64
     7
 65
   257
 75
     1
175
     1
 42
1.0
 92
        8
 66
     7
 43
1.0
 76
     1
 77
     6
 78
     2
 67
     7
 79
     5
170
     0
171
     0
290
     0
174
     0
 93
        1
 44
50.0
173
     0
291
     1
 45
0.0
1001
ACAD
1000
AcDbSavedByObjectVersion
1070
     0
  0
VISUALSTYLE
  5
3A
102
{ACAD_REACTORS
330
2A
102
}
102
{ACAD_XDICTIONARY
360
53E
102
}
330
2A
100
AcDbVisualStyle
  2
ColorChange
 70
    16
 71
     2
 72
     2
 73
     3
 90
        0
 40
-0.6
 41
-30.0
 62
     5
 63
     8
 74
     1
 91
        4
 64
     7
 65
   257
 75
     1
175
     1
 42
1.0
 92
        8
 66
     8
 43
1.0
 76
     1
 77
     6
 78
     2
 67
     7
 79
     5
170
     0
171
     0
290
     0
174
     0
 93
        1
 44
0.0
173
     0
291
     1
 45
0.0
1001
ACAD
1000
AcDbSavedByObjectVersion
1070
     0
  0
VISUALSTYLE
  5
34
102
{ACAD_REACTORS
330
2A
102
}
102
{ACAD_XDICTIONARY
360
532
102
}
330
2A
100
AcDbVisualStyle
  2
Conceptual
 70
     9
 71
     3
 72
     2
 73
     0
 90
        0
 40
-0.6
 41
-30.0
 62
     5
 63
     7
 74
     2
 91
        2
 64
     7
 65
   257
 75
     1
175
     1
 42
40.0
 92
        8
 66
     7
 43
1.0
 76
     1
 77
     6
 78
     2
 67
     7
 79
     3
170
     0
171
     0
290
     0
174
     0
 93
        1
 44
0.0
173
     0
291
     0
 45
0.0
1001
ACAD
1000
AcDbSavedByObjectVersion
1070
     0
  0
VISUALSTYLE
  5
35
102
{ACAD_REACTORS
330
2A
102
}
102
{ACAD_XDICTIONARY
360
534
102
}
330
2A
100
AcDbVisualStyle
  2
Dim
 70
    11
 71
     2
 72
     2
 73
     0
 90
        0
 40
-0.6
 41
-30.0
 62
     5
 63
     7
 74
     1
 91
        4
 64
     7
 65
   257
 75
     1
175
     1
 42
1.0
 92
        8
 66
     7
 43
1.0
 76
     1
 77
     6
 78
     2
 67
     7
 79
     5
170
     0
171
     0
290
     0
174
     0
 93
        1
 44
-50.0
173
     0
291
     1
 45
0.0
1001
ACAD
1000
AcDbSavedByObjectVersion
1070
     0
  0
VISUALSTYLE
  5
39
102
{ACAD_REACTORS
330
2A
102
}
102
{ACAD_XDICTIONARY
360
53C
102
}
330
2A
100
AcDbVisualStyle
  2
Facepattern
 70
    15
 71
     2
 72
     2
 73
     0
 90
        0
 40
-0.6
 41
-30.0
 62
     5
 63
     7
 74
     1
 91
        4
 64
     7
 65
   257
 75
     1
175
     1
 42
1.0
 92
        8
 66
     7
 43
1.0
 76
     1
 77
     6
 78
     2
 67
     7
 79
     5
170
     0
171
     0
290
     0
174
     0
 93
        1
 44
0.0
173
     0
291
     1
 45
0.0
1001
ACAD
1000
AcDbSavedByObjectVersion
1070
     0
  0
VISUALSTYLE
  5
2B
102
{ACAD_REACTORS
330
2A
102
}
102
{ACAD_XDICTIONARY
360
520
102
}
330
2A
100
AcDbVisualStyle
  2
Flat
 70
     0
 71
     2
 72
     1
 73
     1
 90
        2
 40
-0.6
 41
30.0
 62
     5
 63
     7
 74
     0
 91
        4
 64
     7
 65
   257
 75
     1
175
     1
 42
1.0
 92
        8
 66
     7
 43
1.0
 76
     1
 77
     6
 78
     2
 67
     7
 79
     5
170
     0
171
     0
290
     0
174
     0
 93
       13
 44
0.0
173
     0
291
     1
 45
0.0
1001
ACAD
1000
AcDbSavedByObjectVersion
1070
     0
  0
VISUALSTYLE
  5
2C
102
{ACAD_REACTORS
330
2A
102
}
102
{ACAD_XDICTIONARY
360
522
102
}
330
2A
100
AcDbVisualStyle
  2
FlatWithEdges
 70
     1
 71
     2
 72
     1
 73
     1
 90
        2
 40
-0.6
 41
30.0
 62
     5
 63
     7
 74
     1
 91
        4
 64
     7
 65
   257
 75
     1
175
     1
 42
1.0
 92
        0
 66
   257
 43
1.0
 76
     1
 77
     6
 78
     2
 67
     7
 79
     5
170
     0
171
     0
290
     0
174
     0
 93
       13
 44
0.0
173
     0
291
     1
 45
0.0
1001
ACAD
1000
AcDbSavedByObjectVersion
1070
     0
  0
VISUALSTYLE
  5
2D
102
{ACAD_REACTORS
330
2A
102
}
102
{ACAD_XDICTIONARY
360
524
102
}
330
2A
100
AcDbVisualStyle
  2
Gouraud
 70
     2
 71
     2
 72
     2
 73
     1
 90
        2
 40
-0.6
 41
30.0
 62
     5
 63
     7
 74
     0
 91
        4
 64
     7
 65
   257
 75
     1
175
     1
 42
1.0
 92
        0
 66
     7
 43
1.0
 76
     1
 77
     6
 78
     2
 67
     7
 79
     5
170
     0
171
     0
290
     0
174
     0
 93
       13
 44
0.0
173
     0
291
     1
 45
0.0
1001
ACAD
1000
AcDbSavedByObjectVersion
1070
     0
  0
VISUALSTYLE
  5
2E
102
{ACAD_REACTORS
330
2A
102
}
102
{ACAD_XDICTIONARY
360
526
102
}
330
2A
100
AcDbVisualStyle
  2
GouraudWithEdges
 70
     3
 71
     2
 72
     2
 73
     1
 90
        2
 40
-0.6
 41
30.0
 62
     5
 63
     7
 74
     1
 91
        4
 64
     7
 65
   257
 75
     1
175
     1
 42
1.0
 92
        0
 66
   257
 43
1.0
 76
     1
 77
     6
 78
     2
 67
     7
 79
     5
170
     0
171
     0
290
     0
174
     0
 93
       13
 44
0.0
173
     0
291
     1
 45
0.0
1001
ACAD
1000
AcDbSavedByObjectVersion
1070
     0
  0
VISUALSTYLE
  5
38
102
{ACAD_REACTORS
330
2A
102
}
102
{ACAD_XDICTIONARY
360
53A
102
}
330
2A
100
AcDbVisualStyle
  2
Linepattern
 70
    14
 71
     2
 72
     2
 73
     0
 90
        0
 40
-0.6
 41
-30.0
 62
     5
 63
     7
 74
     1
 91
        4
 64
     7
 65
   257
 75
     7
175
     7
 42
1.0
 92
        8
 66
     7
 43
1.0
 76
     1
 77
     6
 78
     2
 67
     7
 79
     5
170
     0
171
     0
290
     0
174
     0
 93
        1
 44
0.0
173
     0
291
     1
 45
0.0
1001
ACAD
1000
AcDbSavedByObjectVersion
1070
     0
  0
VISUALSTYLE
  5
33
102
{ACAD_REACTORS
330
2A
102
}
102
{ACAD_XDICTIONARY
360
530
102
}
330
2A
100
AcDbVisualStyle
  2
Realistic
 70
     8
 71
     2
 72
     2
 73
     0
 90
        0
 40
-0.6
 41
-30.0
 62
     5
 63
     7
 74
     1
 91
        0
 64
     7
 65
   257
 75
     1
175
     1
 42
1.0
 92
        8
 66
     8
 43
1.0
 76
     1
 77
     6
 78
     2
 67
     7
 79
     5
170
     0
171
     0
290
     0
174
     0
 93
       13
 44
0.0
173
     0
291
     0
 45
0.0
1001
ACAD
1000
AcDbSavedByObjectVersion
1070
     0
  0
VISUALSTYLE
  5
37
102
{ACAD_REACTORS
330
2A
102
}
102
{ACAD_XDICTIONARY
360
538
102
}
330
2A
100
AcDbVisualStyle
  2
Thicken
 70
    13
 71
     2
 72
     2
 73
     0
 90
        0
 40
-0.6
 41
-30.0
 62
     5
 63
     7
 74
     1
 91
        4
 64
     7
 65
   257
 75
     1
175
     1
 42
1.0
 92
       12
 66
     7
 43
1.0
 76
     1
 77
     6
 78
     2
 67
     7
 79
     5
170
     0
171
     0
290
     0
174
     0
 93
        1
 44
0.0
173
     0
291
     1
 45
0.0
1001
ACAD
1000
AcDbSavedByObjectVersion
1070
     0
  0
DICTIONARYVAR
  5
51E
102
{ACAD_REACTORS
330
519
102
}
330
519
100
DictionaryVariables
280
     0
  1
2
  0
DICTIONARYVAR
  5
51F
102
{ACAD_REACTORS
330
519
102
}
330
519
100
DictionaryVariables
280
     0
  1
1
  0
DICTIONARYVAR
  5
51D
102
{ACAD_REACTORS
330
519
102
}
330
519
100
DictionaryVariables
280
     0
  1
80.000000
  0
DICTIONARYVAR
  5
51C
102
{ACAD_REACTORS
330
519
102
}
330
519
100
DictionaryVariables
280
     0
  1
5.000000
  0
DICTIONARY
  5
542
330
3D
100
AcDbDictionary
280
     1
281
     1
  3
ACAD_XREC_ROUNDTRIP
360
543
  0
DICTIONARY
  5
540
330
3C
100
AcDbDictionary
280
     1
281
     1
  3
ACAD_XREC_ROUNDTRIP
360
541
  0
DICTIONARY
  5
544
330
3E
100
AcDbDictionary
280
     1
281
     1
  3
ACAD_XREC_ROUNDTRIP
360
545
  0
DICTIONARY
  5
528
330
2F
100
AcDbDictionary
280
     1
281
     1
  3
ACAD_XREC_ROUNDTRIP
360
529
  0
DICTIONARY
  5
52C
330
31
100
AcDbDictionary
280
     1
281
     1
  3
ACAD_XREC_ROUNDTRIP
360
52D
  0
DICTIONARY
  5
52A
330
30
100
AcDbDictionary
280
     1
281
     1
  3
ACAD_XREC_ROUNDTRIP
360
52B
  0
DICTIONARY
  5
52E
330
32
100
AcDbDictionary
280
     1
281
     1
  3
ACAD_XREC_ROUNDTRIP
360
52F
  0
DICTIONARY
  5
536
330
36
100
AcDbDictionary
280
     1
281
     1
  3
ACAD_XREC_ROUNDTRIP
360
537
  0
DICTIONARY
  5
53E
330
3A
100
AcDbDictionary
280
     1
281
     1
  3
ACAD_XREC_ROUNDTRIP
360
53F
  0
DICTIONARY
  5
532
330
34
100
AcDbDictionary
280
     1
281
     1
  3
ACAD_XREC_ROUNDTRIP
360
533
  0
DICTIONARY
  5
534
330
35
100
AcDbDictionary
280
     1
281
     1
  3
ACAD_XREC_ROUNDTRIP
360
535
  0
DICTIONARY
  5
53C
330
39
100
AcDbDictionary
280
     1
281
     1
  3
ACAD_XREC_ROUNDTRIP
360
53D
  0
DICTIONARY
  5
520
330
2B
100
AcDbDictionary
280
     1
281
     1
  3
ACAD_XREC_ROUNDTRIP
360
521
  0
DICTIONARY
  5
522
330
2C
100
AcDbDictionary
280
     1
281
     1
  3
ACAD_XREC_ROUNDTRIP
360
523
  0
DICTIONARY
  5
524
330
2D
100
AcDbDictionary
280
     1
281
     1
  3
ACAD_XREC_ROUNDTRIP
360
525
  0
DICTIONARY
  5
526
330
2E
100
AcDbDictionary
280
     1
281
     1
  3
ACAD_XREC_ROUNDTRIP
360
527
  0
DICTIONARY
  5
53A
330
38
100
AcDbDictionary
280
     1
281
     1
  3
ACAD_XREC_ROUNDTRIP
360
53B
  0
DICTIONARY
  5
530
330
33
100
AcDbDictionary
280
     1
281
     1
  3
ACAD_XREC_ROUNDTRIP
360
531
  0
DICTIONARY
  5
538
330
37
100
AcDbDictionary
280
     1
281
     1
  3
ACAD_XREC_ROUNDTRIP
360
539
  0
XRECORD
  5
543
102
{ACAD_REACTORS
330
542
102
}
330
542
100
AcDbXrecord
280
     1
102
MATERIAL
148
0.0
149
0.0
149
0.0
 93
        0
 94
      127
282
     0
 72
     1
 77
     1
171
     1
175
     1
179
     1
273
     0
  0
XRECORD
  5
541
102
{ACAD_REACTORS
330
540
102
}
330
540
100
AcDbXrecord
280
     1
102
MATERIAL
148
0.0
149
0.0
149
0.0
 93
        0
 94
      127
282
     0
 72
     1
 77
     1
171
     1
175
     1
179
     1
273
     0
  0
XRECORD
  5
545
102
{ACAD_REACTORS
330
544
102
}
330
544
100
AcDbXrecord
280
     1
102
MATERIAL
148
0.0
149
0.0
149
0.0
 93
        0
 94
      127
282
     0
 72
     1
 77
     1
171
     1
175
     1
179
     1
273
     0
  0
XRECORD
  5
529
102
{ACAD_REACTORS
330
528
102
}
330
528
100
AcDbXrecord
280
     1
102
RTVSPropertyOp0
 70
     1
102
RTVSPropertyOp1
 70
     1
102
RTVSPropertyOp2
 70
     1
102
RTVSPropertyOp3
 70
     1
102
RTVSPropertyOp4
 70
     1
102
RTVSPropertyOp5
 70
     1
102
RTVSPropertyOp6
 70
     1
102
RTVSPropertyOp7
 70
     1
102
RTVSPropertyOp8
 70
     1
102
RTVSPropertyOp9
 70
     1
102
RTVSPropertyOp10
 70
     1
102
RTVSPropertyOp11
 70
     1
102
RTVSPropertyOp12
 70
     1
102
RTVSPropertyOp13
 70
     1
102
RTVSPropertyOp14
 70
     1
102
RTVSPropertyOp15
 70
     1
102
RTVSPropertyOp16
 70
     1
102
RTVSPropertyOp17
 70
     1
102
RTVSPropertyOp18
 70
     1
102
RTVSPropertyOp19
 70
     1
102
RTVSPropertyOp20
 70
     1
102
RTVSPropertyOp21
 70
     1
102
RTVSPropertyOp22
 70
     1
102
RTVSPropertyOp23
 70
     1
102
RTVSPropertyOp24
 70
     1
102
RTVSPropertyOp25
 70
     1
102
RTVSPropertyOp26
 70
     1
102
RTVSPropertyOp27
 70
     1
  0
XRECORD
  5
52D
102
{ACAD_REACTORS
330
52C
102
}
330
52C
100
AcDbXrecord
280
     1
102
RTVSPropertyOp0
 70
     1
102
RTVSPropertyOp1
 70
     1
102
RTVSPropertyOp2
 70
     1
102
RTVSPropertyOp3
 70
     1
102
RTVSPropertyOp4
 70
     1
102
RTVSPropertyOp5
 70
     1
102
RTVSPropertyOp6
 70
     1
102
RTVSPropertyOp7
 70
     1
102
RTVSPropertyOp8
 70
     1
102
RTVSPropertyOp9
 70
     1
102
RTVSPropertyOp10
 70
     1
102
RTVSPropertyOp11
 70
     1
102
RTVSPropertyOp12
 70
     1
102
RTVSPropertyOp13
 70
     1
102
RTVSPropertyOp14
 70
     1
102
RTVSPropertyOp15
 70
     1
102
RTVSPropertyOp16
 70
     1
102
RTVSPropertyOp17
 70
     1
102
RTVSPropertyOp18
 70
     1
102
RTVSPropertyOp19
 70
     1
102
RTVSPropertyOp20
 70
     1
102
RTVSPropertyOp21
 70
     1
102
RTVSPropertyOp22
 70
     1
102
RTVSPropertyOp23
 70
     1
102
RTVSPropertyOp24
 70
     1
102
RTVSPropertyOp25
 70
     1
102
RTVSPropertyOp26
 70
     1
102
RTVSPropertyOp27
 70
     1
  0
XRECORD
  5
52B
102
{ACAD_REACTORS
330
52A
102
}
330
52A
100
AcDbXrecord
280
     1
102
RTVSPropertyOp0
 70
     1
102
RTVSPropertyOp1
 70
     1
102
RTVSPropertyOp2
 70
     1
102
RTVSPropertyOp3
 70
     1
102
RTVSPropertyOp4
 70
     1
102
RTVSPropertyOp5
 70
     1
102
RTVSPropertyOp6
 70
     1
102
RTVSPropertyOp7
 70
     1
102
RTVSPropertyOp8
 70
     1
102
RTVSPropertyOp9
 70
     1
102
RTVSPropertyOp10
 70
     1
102
RTVSPropertyOp11
 70
     1
102
RTVSPropertyOp12
 70
     1
102
RTVSPropertyOp13
 70
     1
102
RTVSPropertyOp14
 70
     1
102
RTVSPropertyOp15
 70
     1
102
RTVSPropertyOp16
 70
     1
102
RTVSPropertyOp17
 70
     1
102
RTVSPropertyOp18
 70
     1
102
RTVSPropertyOp19
 70
     1
102
RTVSPropertyOp20
 70
     1
102
RTVSPropertyOp21
 70
     1
102
RTVSPropertyOp22
 70
     1
102
RTVSPropertyOp23
 70
     1
102
RTVSPropertyOp24
 70
     1
102
RTVSPropertyOp25
 70
     1
102
RTVSPropertyOp26
 70
     1
102
RTVSPropertyOp27
 70
     1
  0
XRECORD
  5
52F
102
{ACAD_REACTORS
330
52E
102
}
330
52E
100
AcDbXrecord
280
     1
102
RTVSPropertyOp0
 70
     1
102
RTVSPropertyOp1
 70
     1
102
RTVSPropertyOp2
 70
     1
102
RTVSPropertyOp3
 70
     1
102
RTVSPropertyOp4
 70
     1
102
RTVSPropertyOp5
 70
     1
102
RTVSPropertyOp6
 70
     1
102
RTVSPropertyOp7
 70
     1
102
RTVSPropertyOp8
 70
     1
102
RTVSPropertyOp9
 70
     1
102
RTVSPropertyOp10
 70
     1
102
RTVSPropertyOp11
 70
     1
102
RTVSPropertyOp12
 70
     1
102
RTVSPropertyOp13
 70
     1
102
RTVSPropertyOp14
 70
     1
102
RTVSPropertyOp15
 70
     1
102
RTVSPropertyOp16
 70
     1
102
RTVSPropertyOp17
 70
     1
102
RTVSPropertyOp18
 70
     1
102
RTVSPropertyOp19
 70
     1
102
RTVSPropertyOp20
 70
     1
102
RTVSPropertyOp21
 70
     1
102
RTVSPropertyOp22
 70
     1
102
RTVSPropertyOp23
 70
     1
102
RTVSPropertyOp24
 70
     1
102
RTVSPropertyOp25
 70
     1
102
RTVSPropertyOp26
 70
     1
102
RTVSPropertyOp27
 70
     1
  0
XRECORD
  5
537
102
{ACAD_REACTORS
330
536
102
}
330
536
100
AcDbXrecord
280
     1
102
RTVSPropertyOp0
 70
     1
102
RTVSPropertyOp1
 70
     1
102
RTVSPropertyOp2
 70
     1
102
RTVSPropertyOp3
 70
     1
102
RTVSPropertyOp4
 70
     1
102
RTVSPropertyOp5
 70
     1
102
RTVSPropertyOp6
 70
     1
102
RTVSPropertyOp7
 70
     1
102
RTVSPropertyOp8
 70
     1
102
RTVSPropertyOp9
 70
     1
102
RTVSPropertyOp10
 70
     1
102
RTVSPropertyOp11
 70
     1
102
RTVSPropertyOp12
 70
     1
102
RTVSPropertyOp13
 70
     1
102
RTVSPropertyOp14
 70
     1
102
RTVSPropertyOp15
 70
     1
102
RTVSPropertyOp16
 70
     1
102
RTVSPropertyOp17
 70
     1
102
RTVSPropertyOp18
 70
     1
102
RTVSPropertyOp19
 70
     1
102
RTVSPropertyOp20
 70
     1
102
RTVSPropertyOp21
 70
     1
102
RTVSPropertyOp22
 70
     1
102
RTVSPropertyOp23
 70
     1
102
RTVSPropertyOp24
 70
     1
102
RTVSPropertyOp25
 70
     1
102
RTVSPropertyOp26
 70
     1
102
RTVSPropertyOp27
 70
     1
  0
XRECORD
  5
53F
102
{ACAD_REACTORS
330
53E
102
}
330
53E
100
AcDbXrecord
280
     1
102
RTVSPropertyOp0
 70
     1
102
RTVSPropertyOp1
 70
     1
102
RTVSPropertyOp2
 70
     1
102
RTVSPropertyOp3
 70
     1
102
RTVSPropertyOp4
 70
     1
102
RTVSPropertyOp5
 70
     1
102
RTVSPropertyOp6
 70
     1
102
RTVSPropertyOp7
 70
     1
102
RTVSPropertyOp8
 70
     1
102
RTVSPropertyOp9
 70
     1
102
RTVSPropertyOp10
 70
     1
102
RTVSPropertyOp11
 70
     1
102
RTVSPropertyOp12
 70
     1
102
RTVSPropertyOp13
 70
     1
102
RTVSPropertyOp14
 70
     1
102
RTVSPropertyOp15
 70
     1
102
RTVSPropertyOp16
 70
     1
102
RTVSPropertyOp17
 70
     1
102
RTVSPropertyOp18
 70
     1
102
RTVSPropertyOp19
 70
     1
102
RTVSPropertyOp20
 70
     1
102
RTVSPropertyOp21
 70
     1
102
RTVSPropertyOp22
 70
     1
102
RTVSPropertyOp23
 70
     1
102
RTVSPropertyOp24
 70
     1
102
RTVSPropertyOp25
 70
     1
102
RTVSPropertyOp26
 70
     1
102
RTVSPropertyOp27
 70
     1
  0
XRECORD
  5
533
102
{ACAD_REACTORS
330
532
102
}
330
532
100
AcDbXrecord
280
     1
102
RTVSPropertyOp0
 70
     1
102
RTVSPropertyOp1
 70
     1
102
RTVSPropertyOp2
 70
     1
102
RTVSPropertyOp3
 70
     1
102
RTVSPropertyOp4
 70
     1
102
RTVSPropertyOp5
 70
     1
102
RTVSPropertyOp6
 70
     1
102
RTVSPropertyOp7
 70
     1
102
RTVSPropertyOp8
 70
     1
102
RTVSPropertyOp9
 70
     1
102
RTVSPropertyOp10
 70
     1
102
RTVSPropertyOp11
 70
     1
102
RTVSPropertyOp12
 70
     1
102
RTVSPropertyOp13
 70
     1
102
RTVSPropertyOp14
 70
     1
102
RTVSPropertyOp15
 70
     1
102
RTVSPropertyOp16
 70
     1
102
RTVSPropertyOp17
 70
     1
102
RTVSPropertyOp18
 70
     1
102
RTVSPropertyOp19
 70
     1
102
RTVSPropertyOp20
 70
     1
102
RTVSPropertyOp21
 70
     1
102
RTVSPropertyOp22
 70
     1
102
RTVSPropertyOp23
 70
     1
102
RTVSPropertyOp24
 70
     1
102
RTVSPropertyOp25
 70
     1
102
RTVSPropertyOp26
 70
     1
102
RTVSPropertyOp27
 70
     1
  0
XRECORD
  5
535
102
{ACAD_REACTORS
330
534
102
}
330
534
100
AcDbXrecord
280
     1
102
RTVSPropertyOp0
 70
     1
102
RTVSPropertyOp1
 70
     1
102
RTVSPropertyOp2
 70
     1
102
RTVSPropertyOp3
 70
     1
102
RTVSPropertyOp4
 70
     1
102
RTVSPropertyOp5
 70
     1
102
RTVSPropertyOp6
 70
     1
102
RTVSPropertyOp7
 70
     1
102
RTVSPropertyOp8
 70
     1
102
RTVSPropertyOp9
 70
     1
102
RTVSPropertyOp10
 70
     1
102
RTVSPropertyOp11
 70
     1
102
RTVSPropertyOp12
 70
     1
102
RTVSPropertyOp13
 70
     1
102
RTVSPropertyOp14
 70
     1
102
RTVSPropertyOp15
 70
     1
102
RTVSPropertyOp16
 70
     1
102
RTVSPropertyOp17
 70
     1
102
RTVSPropertyOp18
 70
     1
102
RTVSPropertyOp19
 70
     1
102
RTVSPropertyOp20
 70
     1
102
RTVSPropertyOp21
 70
     1
102
RTVSPropertyOp22
 70
     1
102
RTVSPropertyOp23
 70
     1
102
RTVSPropertyOp24
 70
     1
102
RTVSPropertyOp25
 70
     1
102
RTVSPropertyOp26
 70
     1
102
RTVSPropertyOp27
 70
     1
  0
XRECORD
  5
53D
102
{ACAD_REACTORS
330
53C
102
}
330
53C
100
AcDbXrecord
280
     1
102
RTVSPropertyOp0
 70
     1
102
RTVSPropertyOp1
 70
     1
102
RTVSPropertyOp2
 70
     1
102
RTVSPropertyOp3
 70
     1
102
RTVSPropertyOp4
 70
     1
102
RTVSPropertyOp5
 70
     1
102
RTVSPropertyOp6
 70
     1
102
RTVSPropertyOp7
 70
     1
102
RTVSPropertyOp8
 70
     1
102
RTVSPropertyOp9
 70
     1
102
RTVSPropertyOp10
 70
     1
102
RTVSPropertyOp11
 70
     1
102
RTVSPropertyOp12
 70
     1
102
RTVSPropertyOp13
 70
     1
102
RTVSPropertyOp14
 70
     1
102
RTVSPropertyOp15
 70
     1
102
RTVSPropertyOp16
 70
     1
102
RTVSPropertyOp17
 70
     1
102
RTVSPropertyOp18
 70
     1
102
RTVSPropertyOp19
 70
     1
102
RTVSPropertyOp20
 70
     1
102
RTVSPropertyOp21
 70
     1
102
RTVSPropertyOp22
 70
     1
102
RTVSPropertyOp23
 70
     1
102
RTVSPropertyOp24
 70
     1
102
RTVSPropertyOp25
 70
     1
102
RTVSPropertyOp26
 70
     1
102
RTVSPropertyOp27
 70
     1
  0
XRECORD
  5
521
102
{ACAD_REACTORS
330
520
102
}
330
520
100
AcDbXrecord
280
     1
102
RTVSPropertyOp0
 70
     1
102
RTVSPropertyOp1
 70
     1
102
RTVSPropertyOp2
 70
     1
102
RTVSPropertyOp3
 70
     1
102
RTVSPropertyOp4
 70
     1
102
RTVSPropertyOp5
 70
     1
102
RTVSPropertyOp6
 70
     1
102
RTVSPropertyOp7
 70
     1
102
RTVSPropertyOp8
 70
     1
102
RTVSPropertyOp9
 70
     1
102
RTVSPropertyOp10
 70
     1
102
RTVSPropertyOp11
 70
     1
102
RTVSPropertyOp12
 70
     1
102
RTVSPropertyOp13
 70
     1
102
RTVSPropertyOp14
 70
     1
102
RTVSPropertyOp15
 70
     1
102
RTVSPropertyOp16
 70
     1
102
RTVSPropertyOp17
 70
     1
102
RTVSPropertyOp18
 70
     1
102
RTVSPropertyOp19
 70
     1
102
RTVSPropertyOp20
 70
     1
102
RTVSPropertyOp21
 70
     1
102
RTVSPropertyOp22
 70
     1
102
RTVSPropertyOp23
 70
     1
102
RTVSPropertyOp24
 70
     1
102
RTVSPropertyOp25
 70
     1
102
RTVSPropertyOp26
 70
     1
102
RTVSPropertyOp27
 70
     1
  0
XRECORD
  5
523
102
{ACAD_REACTORS
330
522
102
}
330
522
100
AcDbXrecord
280
     1
102
RTVSPropertyOp0
 70
     1
102
RTVSPropertyOp1
 70
     1
102
RTVSPropertyOp2
 70
     1
102
RTVSPropertyOp3
 70
     1
102
RTVSPropertyOp4
 70
     1
102
RTVSPropertyOp5
 70
     1
102
RTVSPropertyOp6
 70
     1
102
RTVSPropertyOp7
 70
     1
102
RTVSPropertyOp8
 70
     1
102
RTVSPropertyOp9
 70
     1
102
RTVSPropertyOp10
 70
     1
102
RTVSPropertyOp11
 70
     1
102
RTVSPropertyOp12
 70
     1
102
RTVSPropertyOp13
 70
     1
102
RTVSPropertyOp14
 70
     1
102
RTVSPropertyOp15
 70
     1
102
RTVSPropertyOp16
 70
     1
102
RTVSPropertyOp17
 70
     1
102
RTVSPropertyOp18
 70
     1
102
RTVSPropertyOp19
 70
     1
102
RTVSPropertyOp20
 70
     1
102
RTVSPropertyOp21
 70
     1
102
RTVSPropertyOp22
 70
     1
102
RTVSPropertyOp23
 70
     1
102
RTVSPropertyOp24
 70
     1
102
RTVSPropertyOp25
 70
     1
102
RTVSPropertyOp26
 70
     1
102
RTVSPropertyOp27
 70
     1
  0
XRECORD
  5
525
102
{ACAD_REACTORS
330
524
102
}
330
524
100
AcDbXrecord
280
     1
102
RTVSPropertyOp0
 70
     1
102
RTVSPropertyOp1
 70
     1
102
RTVSPropertyOp2
 70
     1
102
RTVSPropertyOp3
 70
     1
102
RTVSPropertyOp4
 70
     1
102
RTVSPropertyOp5
 70
     1
102
RTVSPropertyOp6
 70
     1
102
RTVSPropertyOp7
 70
     1
102
RTVSPropertyOp8
 70
     1
102
RTVSPropertyOp9
 70
     1
102
RTVSPropertyOp10
 70
     1
102
RTVSPropertyOp11
 70
     1
102
RTVSPropertyOp12
 70
     1
102
RTVSPropertyOp13
 70
     1
102
RTVSPropertyOp14
 70
     1
102
RTVSPropertyOp15
 70
     1
102
RTVSPropertyOp16
 70
     1
102
RTVSPropertyOp17
 70
     1
102
RTVSPropertyOp18
 70
     1
102
RTVSPropertyOp19
 70
     1
102
RTVSPropertyOp20
 70
     1
102
RTVSPropertyOp21
 70
     1
102
RTVSPropertyOp22
 70
     1
102
RTVSPropertyOp23
 70
     1
102
RTVSPropertyOp24
 70
     1
102
RTVSPropertyOp25
 70
     1
102
RTVSPropertyOp26
 70
     1
102
RTVSPropertyOp27
 70
     1
  0
XRECORD
  5
527
102
{ACAD_REACTORS
330
526
102
}
330
526
100
AcDbXrecord
280
     1
102
RTVSPropertyOp0
 70
     1
102
RTVSPropertyOp1
 70
     1
102
RTVSPropertyOp2
 70
     1
102
RTVSPropertyOp3
 70
     1
102
RTVSPropertyOp4
 70
     1
102
RTVSPropertyOp5
 70
     1
102
RTVSPropertyOp6
 70
     1
102
RTVSPropertyOp7
 70
     1
102
RTVSPropertyOp8
 70
     1
102
RTVSPropertyOp9
 70
     1
102
RTVSPropertyOp10
 70
     1
102
RTVSPropertyOp11
 70
     1
102
RTVSPropertyOp12
 70
     1
102
RTVSPropertyOp13
 70
     1
102
RTVSPropertyOp14
 70
     1
102
RTVSPropertyOp15
 70
     1
102
RTVSPropertyOp16
 70
     1
102
RTVSPropertyOp17
 70
     1
102
RTVSPropertyOp18
 70
     1
102
RTVSPropertyOp19
 70
     1
102
RTVSPropertyOp20
 70
     1
102
RTVSPropertyOp21
 70
     1
102
RTVSPropertyOp22
 70
     1
102
RTVSPropertyOp23
 70
     1
102
RTVSPropertyOp24
 70
     1
102
RTVSPropertyOp25
 70
     1
102
RTVSPropertyOp26
 70
     1
102
RTVSPropertyOp27
 70
     1
  0
XRECORD
  5
53B
102
{ACAD_REACTORS
330
53A
102
}
330
53A
100
AcDbXrecord
280
     1
102
RTVSPropertyOp0
 70
     1
102
RTVSPropertyOp1
 70
     1
102
RTVSPropertyOp2
 70
     1
102
RTVSPropertyOp3
 70
     1
102
RTVSPropertyOp4
 70
     1
102
RTVSPropertyOp5
 70
     1
102
RTVSPropertyOp6
 70
     1
102
RTVSPropertyOp7
 70
     1
102
RTVSPropertyOp8
 70
     1
102
RTVSPropertyOp9
 70
     1
102
RTVSPropertyOp10
 70
     1
102
RTVSPropertyOp11
 70
     1
102
RTVSPropertyOp12
 70
     1
102
RTVSPropertyOp13
 70
     1
102
RTVSPropertyOp14
 70
     1
102
RTVSPropertyOp15
 70
     1
102
RTVSPropertyOp16
 70
     1
102
RTVSPropertyOp17
 70
     1
102
RTVSPropertyOp18
 70
     1
102
RTVSPropertyOp19
 70
     1
102
RTVSPropertyOp20
 70
     1
102
RTVSPropertyOp21
 70
     1
102
RTVSPropertyOp22
 70
     1
102
RTVSPropertyOp23
 70
     1
102
RTVSPropertyOp24
 70
     1
102
RTVSPropertyOp25
 70
     1
102
RTVSPropertyOp26
 70
     1
102
RTVSPropertyOp27
 70
     1
  0
XRECORD
  5
531
102
{ACAD_REACTORS
330
530
102
}
330
530
100
AcDbXrecord
280
     1
102
RTVSPropertyOp0
 70
     1
102
RTVSPropertyOp1
 70
     1
102
RTVSPropertyOp2
 70
     1
102
RTVSPropertyOp3
 70
     1
102
RTVSPropertyOp4
 70
     1
102
RTVSPropertyOp5
 70
     1
102
RTVSPropertyOp6
 70
     1
102
RTVSPropertyOp7
 70
     1
102
RTVSPropertyOp8
 70
     1
102
RTVSPropertyOp9
 70
     1
102
RTVSPropertyOp10
 70
     1
102
RTVSPropertyOp11
 70
     1
102
RTVSPropertyOp12
 70
     1
102
RTVSPropertyOp13
 70
     1
102
RTVSPropertyOp14
 70
     1
102
RTVSPropertyOp15
 70
     1
102
RTVSPropertyOp16
 70
     1
102
RTVSPropertyOp17
 70
     1
102
RTVSPropertyOp18
 70
     1
102
RTVSPropertyOp19
 70
     1
102
RTVSPropertyOp20
 70
     1
102
RTVSPropertyOp21
 70
     1
102
RTVSPropertyOp22
 70
     1
102
RTVSPropertyOp23
 70
     1
102
RTVSPropertyOp24
 70
     1
102
RTVSPropertyOp25
 70
     1
102
RTVSPropertyOp26
 70
     1
102
RTVSPropertyOp27
 70
     1
  0
XRECORD
  5
539
102
{ACAD_REACTORS
330
538
102
}
330
538
100
AcDbXrecord
280
     1
102
RTVSPropertyOp0
 70
     1
102
RTVSPropertyOp1
 70
     1
102
RTVSPropertyOp2
 70
     1
102
RTVSPropertyOp3
 70
     1
102
RTVSPropertyOp4
 70
     1
102
RTVSPropertyOp5
 70
     1
102
RTVSPropertyOp6
 70
     1
102
RTVSPropertyOp7
 70
     1
102
RTVSPropertyOp8
 70
     1
102
RTVSPropertyOp9
 70
     1
102
RTVSPropertyOp10
 70
     1
102
RTVSPropertyOp11
 70
     1
102
RTVSPropertyOp12
 70
     1
102
RTVSPropertyOp13
 70
     1
102
RTVSPropertyOp14
 70
     1
102
RTVSPropertyOp15
 70
     1
102
RTVSPropertyOp16
 70
     1
102
RTVSPropertyOp17
 70
     1
102
RTVSPropertyOp18
 70
     1
102
RTVSPropertyOp19
 70
     1
102
RTVSPropertyOp20
 70
     1
102
RTVSPropertyOp21
 70
     1
102
RTVSPropertyOp22
 70
     1
102
RTVSPropertyOp23
 70
     1
102
RTVSPropertyOp24
 70
     1
102
RTVSPropertyOp25
 70
     1
102
RTVSPropertyOp26
 70
     1
102
RTVSPropertyOp27
 70
     1
  0
ENDSEC
  0
EOF
