  0
SECTION
  2
HEADER
  9
$ACADVER
  1
AC1015
  9
$ACADMAINTVER
 70
     6
  9
$DWGCODEPAGE
  3
ANSI_1252
  9
$INSBASE
 10
0.0
 20
0.0
 30
0.0
  9
$EXTMIN
 10
0.0
 20
0.0
 30
0.0
  9
$EXTMAX
 10
594.0
 20
420.0
 30
0.0
  9
$LIMMIN
 10
0.0
 20
0.0
  9
$LIMMAX
 10
594.0
 20
420.0
  9
$ORTHOMODE
 70
     0
  9
$REGENMODE
 70
     1
  9
$FILLMODE
 70
     1
  9
$QTEXTMODE
 70
     0
  9
$MIRRTEXT
 70
     1
  9
$LTSCALE
 40
1.0
  9
$ATTMODE
 70
     1
  9
$TEXTSIZE
 40
2.5
  9
$TRACEWID
 40
1.0
  9
$TEXTSTYLE
  7
Standard
  9
$CLAYER
  8
0
  9
$CELTYPE
  6
ByLayer
  9
$CECOLOR
 62
   256
  9
$CELTSCALE
 40
1.0
  9
$DISPSILH
 70
     0
  9
$DIMSCALE
 40
1.0
  9
$DIMASZ
 40
2.5
  9
$DIMEXO
 40
0.625
  9
$DIMDLI
 40
3.75
  9
$DIMRND
 40
0.0
  9
$DIMDLE
 40
0.0
  9
$DIMEXE
 40
1.25
  9
$DIMTP
 40
0.0
  9
$DIMTM
 40
0.0
  9
$DIMTXT
 40
2.5
  9
$DIMCEN
 40
2.5
  9
$DIMTSZ
 40
0.0
  9
$DIMTOL
 70
     0
  9
$DIMLIM
 70
     0
  9
$DIMTIH
 70
     0
  9
$DIMTOH
 70
     0
  9
$DIMSE1
 70
     0
  9
$DIMSE2
 70
     0
  9
$DIMTAD
 70
     1
  9
$DIMZIN
 70
     8
  9
$DIMBLK
  1

  9
$DIMASO
 70
     1
  9
$DIMSHO
 70
     1
  9
$DIMPOST
  1

  9
$DIMAPOST
  1

  9
$DIMALT
 70
     0
  9
$DIMALTD
 70
     3
  9
$DIMALTF
 40
0.0393700787
  9
$DIMLFAC
 40
1.0
  9
$DIMTOFL
 70
     1
  9
$DIMTVP
 40
0.0
  9
$DIMTIX
 70
     0
  9
$DIMSOXD
 70
     0
  9
$DIMSAH
 70
     0
  9
$DIMBLK1
  1

  9
$DIMBLK2
  1

  9
$DIMSTYLE
  2
ISO-25
  9
$DIMCLRD
 70
     0
  9
$DIMCLRE
 70
     0
  9
$DIMCLRT
 70
     0
  9
$DIMTFAC
 40
1.0
  9
$DIMGAP
 40
0.625
  9
$DIMJUST
 70
     0
  9
$DIMSD1
 70
     0
  9
$DIMSD2
 70
     0
  9
$DIMTOLJ
 70
     0
  9
$DIMTZIN
 70
     8
  9
$DIMALTZ
 70
     0
  9
$DIMALTTZ
 70
     0
  9
$DIMUPT
 70
     0
  9
$DIMDEC
 70
     2
  9
$DIMTDEC
 70
     2
  9
$DIMALTU
 70
     2
  9
$DIMALTTD
 70
     3
  9
$DIMTXSTY
  7
Standard
  9
$DIMAUNIT
 70
     0
  9
$DIMADEC
 70
     0
  9
$DIMALTRND
 40
0.0
  9
$DIMAZIN
 70
     0
  9
$DIMDSEP
 70
    44
  9
$DIMATFIT
 70
     3
  9
$DIMFRAC
 70
     0
  9
$DIMLDRBLK
  1

  9
$DIMLUNIT
 70
     2
  9
$DIMLWD
 70
    -2
  9
$DIMLWE
 70
    -2
  9
$DIMTMOVE
 70
     0
  9
$LUNITS
 70
     2
  9
$LUPREC
 70
     4
  9
$SKETCHINC
 40
1.0
  9
$FILLETRAD
 40
10.0
  9
$AUNITS
 70
     0
  9
$AUPREC
 70
     0
  9
$MENU
  1
.
  9
$ELEVATION
 40
0.0
  9
$PELEVATION
 40
0.0
  9
$THICKNESS
 40
0.0
  9
$LIMCHECK
 70
     0
  9
$CHAMFERA
 40
10.0
  9
$CHAMFERB
 40
10.0
  9
$CHAMFERC
 40
20.0
  9
$CHAMFERD
 40
0.0
  9
$SKPOLY
 70
     0
  9
$TDCREATE
 40
2455572.654491609
  9
$TDUCREATE
 40
2455572.612824942
  9
$TDUPDATE
 40
2455572.65449162
  9
$TDUUPDATE
 40
2455572.612824954
  9
$TDINDWG
 40
0.0000000116
  9
$TDUSRTIMER
 40
0.0000000116
  9
$USRTIMER
 70
     1
  9
$ANGBASE
 50
0.0
  9
$ANGDIR
 70
     0
  9
$PDMODE
 70
     0
  9
$PDSIZE
 40
0.0
  9
$PLINEWID
 40
0.0
  9
$SPLFRAME
 70
     0
  9
$SPLINETYPE
 70
     6
  9
$SPLINESEGS
 70
     8
  9
$HANDSEED
  5
55B
  9
$SURFTAB1
 70
     6
  9
$SURFTAB2
 70
     6
  9
$SURFTYPE
 70
     6
  9
$SURFU
 70
     6
  9
$SURFV
 70
     6
  9
$UCSBASE
  2

  9
$UCSNAME
  2

  9
$UCSORG
 10
0.0
 20
0.0
 30
0.0
  9
$UCSXDIR
 10
1.0
 20
0.0
 30
0.0
  9
$UCSYDIR
 10
0.0
 20
1.0
 30
0.0
  9
$UCSORTHOREF
  2

  9
$UCSORTHOVIEW
 70
     0
  9
$UCSORGTOP
 10
0.0
 20
0.0
 30
0.0
  9
$UCSORGBOTTOM
 10
0.0
 20
0.0
 30
0.0
  9
$UCSORGLEFT
 10
0.0
 20
0.0
 30
0.0
  9
$UCSORGRIGHT
 10
0.0
 20
0.0
 30
0.0
  9
$UCSORGFRONT
 10
0.0
 20
0.0
 30
0.0
  9
$UCSORGBACK
 10
0.0
 20
0.0
 30
0.0
  9
$PUCSBASE
  2

  9
$PUCSNAME
  2

  9
$PUCSORG
 10
0.0
 20
0.0
 30
0.0
  9
$PUCSXDIR
 10
1.0
 20
0.0
 30
0.0
  9
$PUCSYDIR
 10
0.0
 20
1.0
 30
0.0
  9
$PUCSORTHOREF
  2

  9
$PUCSORTHOVIEW
 70
     0
  9
$PUCSORGTOP
 10
0.0
 20
0.0
 30
0.0
  9
$PUCSORGBOTTOM
 10
0.0
 20
0.0
 30
0.0
  9
$PUCSORGLEFT
 10
0.0
 20
0.0
 30
0.0
  9
$PUCSORGRIGHT
 10
0.0
 20
0.0
 30
0.0
  9
$PUCSORGFRONT
 10
0.0
 20
0.0
 30
0.0
  9
$PUCSORGBACK
 10
0.0
 20
0.0
 30
0.0
  9
$USERI1
 70
     0
  9
$USERI2
 70
     0
  9
$USERI3
 70
     0
  9
$USERI4
 70
     0
  9
$USERI5
 70
     0
  9
$USERR1
 40
0.0
  9
$USERR2
 40
0.0
  9
$USERR3
 40
0.0
  9
$USERR4
 40
0.0
  9
$USERR5
 40
0.0
  9
$WORLDVIEW
 70
     1
  9
$SHADEDGE
 70
     3
  9
$SHADEDIF
 70
    70
  9
$TILEMODE
 70
     1
  9
$MAXACTVP
 70
    64
  9
$PINSBASE
 10
0.0
 20
0.0
 30
0.0
  9
$PLIMCHECK
 70
     0
  9
$PEXTMIN
 10
0.0
 20
0.0
 30
0.0
  9
$PEXTMAX
 10
594.0
 20
420.0
 30
0.0
  9
$PLIMMIN
 10
0.0
 20
0.0
  9
$PLIMMAX
 10
594.0
 20
420.0
  9
$UNITMODE
 70
     0
  9
$VISRETAIN
 70
     1
  9
$PLINEGEN
 70
     0
  9
$PSLTSCALE
 70
     1
  9
$TREEDEPTH
 70
  3020
  9
$CMLSTYLE
  2
Standard
  9
$CMLJUST
 70
     0
  9
$CMLSCALE
 40
20.0
  9
$PROXYGRAPHICS
 70
     1
  9
$MEASUREMENT
 70
     1
  9
$CELWEIGHT
370
    -1
  9
$ENDCAPS
280
     0
  9
$JOINSTYLE
280
     0
  9
$LWDISPLAY
290
     0
  9
$INSUNITS
 70
     4
  9
$HYPERLINKBASE
  1

  9
$STYLESHEET
  1

  9
$XEDIT
290
     1
  9
$CEPSNTYPE
380
     0
  9
$PSTYLEMODE
290
     1
  9
$FINGERPRINTGUID
  2
{E6013250-47A9-478F-8392-6E881D4BA515}
  9
$VERSIONGUID
  2
{FAEB1C32-E019-11D5-929B-00C0DF256EC4}
  9
$EXTNAMES
290
     1
  9
$PSVPSCALE
 40
0.0
  9
$OLESTARTUP
290
     0
  0
ENDSEC
  0
SECTION
  2
CLASSES
  0
CLASS
  1
ACDBDICTIONARYWDFLT
  2
AcDbDictionaryWithDefault
  3
ObjectDBX Classes
 90
        0
280
     0
281
     0
  0
CLASS
  1
VISUALSTYLE
  2
AcDbVisualStyle
  3
ObjectDBX Classes
 90
     4095
280
     0
281
     0
  0
CLASS
  1
MATERIAL
  2
AcDbMaterial
  3
ObjectDBX Classes
 90
     1153
280
     0
281
     0
  0
CLASS
  1
DICTIONARYVAR
  2
AcDbDictionaryVar
  3
ObjectDBX Classes
 90
        0
280
     0
281
     0
  0
CLASS
  1
ACDBPLACEHOLDER
  2
AcDbPlaceHolder
  3
ObjectDBX Classes
 90
        0
280
     0
281
     0
  0
CLASS
  1
LAYOUT
  2
AcDbLayout
  3
ObjectDBX Classes
 90
        0
280
     0
281
     0
  0
ENDSEC
  0
SECTION
  2
TABLES
  0
TABLE
  2
VPORT
  5
8
330
0
100
AcDbSymbolTable
 70
     1
  0
VPORT
  5
29
330
8
100
AcDbSymbolTableRecord
100
AcDbViewportTableRecord
  2
*Active
 70
     0
 10
0.0
 20
0.0
 11
1.0
 21
1.0
 12
344.1869158879
 22
148.5
 13
0.0
 23
0.0
 14
10.0
 24
10.0
 15
10.0
 25
10.0
 16
0.0
 26
0.0
 36
1.0
 17
0.0
 27
0.0
 37
0.0
 40
297.0
 41
1.9729729729
 42
50.0
 43
0.0
 44
0.0
 50
0.0
 51
0.0
 71
     0
 72
   100
 73
     1
 74
     3
 75
     0
 76
     0
 77
     0
 78
     0
281
     0
 65
     1
110
0.0
120
0.0
130
0.0
111
1.0
121
0.0
131
0.0
112
0.0
122
1.0
132
0.0
 79
     0
146
0.0
  0
ENDTAB
  0
TABLE
  2
LTYPE
  5
5
330
0
100
AcDbSymbolTable
 70
     1
  0
LTYPE
  5
14
330
5
100
AcDbSymbolTableRecord
100
AcDbLinetypeTableRecord
  2
ByBlock
 70
     0
  3

 72
    65
 73
     0
 40
0.0
  0
LTYPE
  5
15
330
5
100
AcDbSymbolTableRecord
100
AcDbLinetypeTableRecord
  2
ByLayer
 70
     0
  3

 72
    65
 73
     0
 40
0.0
  0
LTYPE
  5
16
330
5
100
AcDbSymbolTableRecord
100
AcDbLinetypeTableRecord
  2
Continuous
 70
     0
  3
Solid line
 72
    65
 73
     0
 40
0.0
  0
ENDTAB
  0
TABLE
  2
LAYER
  5
2
330
0
100
AcDbSymbolTable
 70
     3
  0
LAYER
  5
10
330
2
100
AcDbSymbolTableRecord
100
AcDbLayerTableRecord
  2
0
 70
     0
 62
     7
  6
Continuous
370
    -3
390
F
  0
LAYER
  5
3F
330
2
100
AcDbSymbolTableRecord
100
AcDbLayerTableRecord
  2
Default
 70
     0
 62
     7
  6
Continuous
370
    -3
390
F
  0
LAYER
  5
42
330
2
100
AcDbSymbolTableRecord
100
AcDbLayerTableRecord
  2
0-11MG
 70
     0
 62
     7
  6
Continuous
370
    -3
390
F
  0
ENDTAB
  0
TABLE
  2
STYLE
  5
3
330
0
100
AcDbSymbolTable
 70
     1
  0
STYLE
  5
11
330
3
100
AcDbSymbolTableRecord
100
AcDbTextStyleTableRecord
  2
Standard
 70
     0
 40
0.0
 41
1.0
 50
0.0
 71
     0
 42
2.5
  3
txt
  4

  0
ENDTAB
  0
TABLE
  2
VIEW
  5
6
330
0
100
AcDbSymbolTable
 70
     0
  0
ENDTAB
  0
TABLE
  2
UCS
  5
7
330
0
100
AcDbSymbolTable
 70
     0
  0
ENDTAB
  0
TABLE
  2
APPID
  5
9
330
0
100
AcDbSymbolTable
 70
     1
  0
APPID
  5
12
330
9
100
AcDbSymbolTableRecord
100
AcDbRegAppTableRecord
  2
ACAD
 70
     0
  0
ENDTAB
  0
TABLE
  2
DIMSTYLE
  5
A
330
0
100
AcDbSymbolTable
 70
     1
100
AcDbDimStyleTable
  0
DIMSTYLE
105
27
330
A
100
AcDbSymbolTableRecord
100
AcDbDimStyleTableRecord
  2
ISO-25
 70
     0
 41
2.5
 42
0.625
 43
3.75
 44
1.25
 73
     0
 74
     0
 77
     1
 78
     8
140
2.5
141
2.5
143
0.0393700787
147
0.625
171
     3
172
     1
178
     0
271
     2
272
     2
274
     3
278
    44
283
     0
284
     8
340
11
  0
ENDTAB
  0
TABLE
  2
BLOCK_RECORD
  5
1
330
0
100
AcDbSymbolTable
 70
     7
  0
BLOCK_RECORD
  5
1F
330
1
100
AcDbSymbolTableRecord
100
AcDbBlockTableRecord
  2
*Model_Space
340
22
  0
BLOCK_RECORD
  5
1B
330
1
100
AcDbSymbolTableRecord
100
AcDbBlockTableRecord
  2
*Paper_Space
340
1E
  0
BLOCK_RECORD
  5
40
330
1
100
AcDbSymbolTableRecord
100
AcDbBlockTableRecord
  2
SE
340
0
102
{BLKREFS
331
41
102
}
  0
BLOCK_RECORD
  5
163
330
1
100
AcDbSymbolTableRecord
100
AcDbBlockTableRecord
  2
SE1
340
0
102
{BLKREFS
331
164
102
}
  0
BLOCK_RECORD
  5
1C0
330
1
100
AcDbSymbolTableRecord
100
AcDbBlockTableRecord
  2
SE2
340
0
102
{BLKREFS
331
1C1
102
}
  0
BLOCK_RECORD
  5
221
330
1
100
AcDbSymbolTableRecord
100
AcDbBlockTableRecord
  2
SE3
340
0
102
{BLKREFS
331
222
102
}
  0
BLOCK_RECORD
  5
327
330
1
100
AcDbSymbolTableRecord
100
AcDbBlockTableRecord
  2
SE4
340
0
102
{BLKREFS
331
328
102
}
  0
BLOCK_RECORD
  5
38F
330
1
100
AcDbSymbolTableRecord
100
AcDbBlockTableRecord
  2
SE5
340
0
102
{BLKREFS
331
390
102
}
  0
ENDTAB
  0
ENDSEC
  0
SECTION
  2
BLOCKS
  0
BLOCK
  5
20
330
1F
100
AcDbEntity
  8
0
100
AcDbBlockBegin
  2
*Model_Space
 70
     0
 10
0.0
 20
0.0
 30
0.0
  3
*Model_Space
  1

  0
ENDBLK
  5
21
330
1F
100
AcDbEntity
  8
0
100
AcDbBlockEnd
  0
BLOCK
  5
1C
330
1B
100
AcDbEntity
 67
     1
  8
0
100
AcDbBlockBegin
  2
*Paper_Space
 70
     0
 10
0.0
 20
0.0
 30
0.0
  3
*Paper_Space
  1

  0
ENDBLK
  5
1D
330
1B
100
AcDbEntity
 67
     1
  8
0
100
AcDbBlockEnd
  0
BLOCK
  5
161
330
40
100
AcDbEntity
  8
0
100
AcDbBlockBegin
  2
SE
 70
     0
 10
0.0
 20
0.0
 30
0.0
  3
SE
  1

  0
LINE
  5
43
330
40
100
AcDbEntity
  8
0-11MG
  6
Continuous
 62
     7
100
AcDbLine
 10
233.2966040837
 20
258.3253520599
 30
0.0
 11
233.2966040837
 21
256.3253520599
 31
0.0
  0
LINE
  5
44
330
40
100
AcDbEntity
  8
0-11MG
  6
Continuous
 62
     7
100
AcDbLine
 10
233.2966040837
 20
256.3253520599
 30
0.0
 11
233.2966040837
 21
236.9445309849
 31
0.0
  0
LINE
  5
45
330
40
100
AcDbEntity
  8
0-11MG
  6
Continuous
 62
     7
100
AcDbLine
 10
233.2966040837
 20
233.4506304213
 30
0.0
 11
233.2966040837
 21
225.6233588591
 31
0.0
  0
LINE
  5
46
330
40
100
AcDbEntity
  8
0-11MG
  6
Continuous
 62
     7
100
AcDbLine
 10
233.2966040837
 20
181.0273317012
 30
0.0
 11
233.2966040837
 21
175.3253520599
 31
0.0
  0
LINE
  5
47
330
40
100
AcDbEntity
  8
0-11MG
  6
Continuous
 62
     7
100
AcDbLine
 10
233.2966040837
 20
173.3253520599
 30
0.0
 11
233.2966040837
 21
175.3253520599
 31
0.0
  0
LINE
  5
48
330
40
100
AcDbEntity
  8
0-11MG
  6
Continuous
 62
     7
100
AcDbLine
 10
285.2966040837
 20
181.0273386242
 30
0.0
 11
285.2966040837
 21
175.3253520599
 31
0.0
  0
LINE
  5
49
330
40
100
AcDbEntity
  8
0-11MG
  6
Continuous
 62
     7
100
AcDbLine
 10
285.2966040837
 20
256.3253520599
 30
0.0
 11
285.2966040837
 21
236.9445414714
 31
0.0
  0
LINE
  5
4A
330
40
100
AcDbEntity
  8
0-11MG
  6
Continuous
 62
     7
100
AcDbLine
 10
285.2966040837
 20
233.4506158806
 30
0.0
 11
285.2966040837
 21
225.6233519361
 31
0.0
  0
LINE
  5
4B
330
40
100
AcDbEntity
  8
0-11MG
  6
Continuous
 62
     7
100
AcDbLine
 10
284.2710735544
 20
174.2998215305
 30
0.0
 11
284.2966040837
 21
174.3253520599
 31
0.0
  0
LINE
  5
4C
330
40
100
AcDbEntity
  8
0-11MG
  6
Continuous
 62
     7
100
AcDbLine
 10
284.2966040837
 20
174.3253520599
 30
0.0
 11
285.2966040837
 21
175.3253520599
 31
0.0
  0
LINE
  5
4D
330
40
100
AcDbEntity
  8
0-11MG
  6
Continuous
 62
     7
100
AcDbLine
 10
233.4134406901
 20
173.3253520599
 30
0.0
 11
233.2966040837
 21
173.3253520599
 31
0.0
  0
LINE
  5
4E
330
40
100
AcDbEntity
  8
0-11MG
  6
Continuous
 62
     7
100
AcDbLine
 10
283.2966040837
 20
258.3253520599
 30
0.0
 11
233.2966040837
 21
258.3253520599
 31
0.0
  0
LINE
  5
4F
330
40
100
AcDbEntity
  8
0-11MG
  6
Continuous
 62
     7
100
AcDbLine
 10
283.2966040837
 20
258.3253520599
 30
0.0
 11
284.2966040837
 21
257.3253520599
 31
0.0
  0
LINE
  5
50
330
40
100
AcDbEntity
  8
0-11MG
  6
Continuous
 62
     7
100
AcDbLine
 10
283.2966040837
 20
256.3253520599
 30
0.0
 11
284.2966040837
 21
257.3253520599
 31
0.0
  0
LINE
  5
51
330
40
100
AcDbEntity
  8
0-11MG
  6
Continuous
 62
     7
100
AcDbLine
 10
283.2966040837
 20
256.3253520599
 30
0.0
 11
233.2966040837
 21
256.3253520599
 31
0.0
  0
CIRCLE
  5
52
330
40
100
AcDbEntity
  8
0-11MG
  6
Continuous
 62
     7
100
AcDbCircle
 10
279.2966040837
 20
252.3253520599
 30
0.0
 40
2.6
  0
CIRCLE
  5
53
330
40
100
AcDbEntity
  8
0-11MG
  6
Continuous
 62
     7
100
AcDbCircle
 10
239.2966040837
 20
252.3253520599
 30
0.0
 40
2.6
  0
LINE
  5
54
330
40
100
AcDbEntity
  8
0-11MG
  6
Continuous
 62
     7
100
AcDbLine
 10
283.2966040837
 20
225.4262336063
 30
0.0
 11
283.2966040837
 21
231.3058784606
 31
0.0
  0
LINE
  5
55
330
40
100
AcDbEntity
  8
0-11MG
  6
Continuous
 62
     7
100
AcDbLine
 10
283.2966040837
 20
238.4002697337
 30
0.0
 11
283.2966040837
 21
256.3253520599
 31
0.0
  0
ARC
  5
56
330
40
100
AcDbEntity
  8
0-11MG
  6
Continuous
 62
     7
100
AcDbCircle
 10
279.2966040837
 20
179.3253520599
 30
0.0
 40
2.6
100
AcDbArc
 50
0.0
 51
17.9102320969
  0
ARC
  5
57
330
40
100
AcDbEntity
  8
0-11MG
  6
Continuous
 62
     7
100
AcDbCircle
 10
279.2966040837
 20
179.3253520599
 30
0.0
 40
2.6
100
AcDbArc
 50
324.1694151881
 51
0.0
  0
ARC
  5
58
330
40
100
AcDbEntity
  8
0-11MG
  6
Continuous
 62
     7
100
AcDbCircle
 10
239.2966040837
 20
179.3253520599
 30
0.0
 40
2.6
100
AcDbArc
 50
162.0894550864
 51
215.8309479679
  0
LINE
  5
59
330
40
100
AcDbEntity
  8
0-11MG
  6
Continuous
 62
     7
100
AcDbLine
 10
283.2966040837
 20
175.3448120997
 30
0.0
 11
283.2966040837
 21
181.224456954
 31
0.0
  0
LINE
  5
5A
330
40
100
AcDbEntity
  8
0-11MG
  6
Continuous
 62
     7
100
AcDbLine
 10
235.2784708624
 20
175.3253520599
 30
0.0
 11
233.2966040837
 21
175.3253520599
 31
0.0
  0
LINE
  5
5B
330
40
100
AcDbEntity
  8
0-11MG
  6
Continuous
 62
     7
100
AcDbLine
 10
283.5655053789
 20
175.0564507646
 30
0.0
 11
284.2966040837
 21
174.3253520599
 31
0.0
  0
LINE
  5
5C
330
40
100
AcDbEntity
  8
0-11MG
  6
Continuous
 62
     7
100
AcDbLine
 10
285.2966040837
 20
256.3253520599
 30
0.0
 11
284.2966040837
 21
257.3253520599
 31
0.0
  0
CIRCLE
  5
5D
330
40
100
AcDbEntity
  8
0-11MG
  6
Continuous
 62
     7
100
AcDbCircle
 10
279.2966040837
 20
252.3253520599
 30
0.0
 40
2.1
  0
CIRCLE
  5
5E
330
40
100
AcDbEntity
  8
0-11MG
  6
Continuous
 62
     7
100
AcDbCircle
 10
239.2966040837
 20
252.3253520599
 30
0.0
 40
2.1
  0
ARC
  5
5F
330
40
100
AcDbEntity
  8
0-11MG
  6
Continuous
 62
     7
100
AcDbCircle
 10
279.2966040837
 20
179.3253520599
 30
0.0
 40
2.1
100
AcDbArc
 50
342.1664438169
 51
359.9132034681
  0
ARC
  5
60
330
40
100
AcDbEntity
  8
0-11MG
  6
Continuous
 62
     7
100
AcDbCircle
 10
239.2966040837
 20
179.3253520599
 30
0.0
 40
2.1
100
AcDbArc
 50
180.0
 51
197.834927841
  0
ARC
  5
61
330
40
100
AcDbEntity
  8
0-11MG
  6
Continuous
 62
     7
100
AcDbCircle
 10
234.5478735219
 20
178.5766079386
 30
0.0
 40
2.751676246821761
100
AcDbArc
 50
317.0
 51
133.0
  0
LINE
  5
62
330
40
100
AcDbEntity
  8
0-11MG
  6
Continuous
 62
     7
100
AcDbLine
 10
232.6712348341
 20
180.5890565474
 30
0.0
 11
228.7459333371
 21
176.9286536838
 31
0.0
  0
LINE
  5
63
330
40
100
AcDbEntity
  8
0-11MG
  6
Continuous
 62
     7
100
AcDbLine
 10
232.899919267
 20
172.7746677538
 30
0.0
 11
236.5603221307
 21
176.6999692509
 31
0.0
  0
ARC
  5
64
330
40
100
AcDbEntity
  8
0-11MG
  6
Continuous
 62
     7
100
AcDbCircle
 10
234.5478735219
 20
228.0740826217
 30
0.0
 40
2.751676246821761
100
AcDbArc
 50
227.0
 51
43.0
  0
LINE
  5
65
330
40
100
AcDbEntity
  8
0-11MG
  6
Continuous
 62
     7
100
AcDbLine
 10
236.5603221307
 20
229.9507213094
 30
0.0
 11
232.899919267
 21
233.8760228064
 31
0.0
  0
LINE
  5
66
330
40
100
AcDbEntity
  8
0-11MG
  6
Continuous
 62
     7
100
AcDbLine
 10
228.7459333371
 20
229.7220368765
 30
0.0
 11
232.6712348341
 21
226.0616340129
 31
0.0
  0
ARC
  5
67
330
40
100
AcDbEntity
  8
0-11MG
  6
Continuous
 62
     7
100
AcDbCircle
 10
284.045348205
 20
228.0740826217
 30
0.0
 40
2.751676246821764
100
AcDbArc
 50
137.0
 51
313.0
  0
LINE
  5
68
330
40
100
AcDbEntity
  8
0-11MG
  6
Continuous
 62
     7
100
AcDbLine
 10
285.9219868927
 20
226.0616340129
 30
0.0
 11
289.8472883897
 21
229.7220368765
 31
0.0
  0
LINE
  5
69
330
40
100
AcDbEntity
  8
0-11MG
  6
Continuous
 62
     7
100
AcDbLine
 10
285.6933024598
 20
233.8760228064
 30
0.0
 11
282.0328995962
 21
229.9507213094
 31
0.0
  0
LINE
  5
6A
330
40
100
AcDbEntity
  8
0-11MG
  6
Continuous
 62
     7
100
AcDbLine
 10
246.1584790866
 20
177.5312698718
 30
0.0
 11
246.6120667758
 21
178.4217979361
 31
0.0
  0
LINE
  5
6B
330
40
100
AcDbEntity
  8
0-11MG
  6
Continuous
 62
     7
100
AcDbLine
 10
271.9811549511
 20
178.4217979361
 30
0.0
 11
272.4347426403
 21
177.5312698718
 31
0.0
  0
LINE
  5
6C
330
40
100
AcDbEntity
  8
0-11MG
  6
Continuous
 62
     7
100
AcDbLine
 10
242.1166160172
 20
169.5958858634
 30
0.0
 11
241.6630283279
 21
168.7053577991
 31
0.0
  0
LINE
  5
6D
330
40
100
AcDbEntity
  8
0-11MG
  6
Continuous
 62
     7
100
AcDbLine
 10
276.9301933989
 20
168.7053577991
 30
0.0
 11
276.4766057097
 21
169.5958858634
 31
0.0
  0
ARC
  5
6E
330
40
100
AcDbEntity
  8
0-11MG
  6
Continuous
 62
     7
100
AcDbCircle
 10
259.2966108634
 20
203.3253452801
 30
0.0
 40
38.85211405085493
100
AcDbArc
 50
243.0081232199
 51
296.9918767801
  0
LINE
  5
6F
330
40
100
AcDbEntity
  8
0-11MG
  6
Continuous
 62
     7
100
AcDbLine
 10
241.6630283279
 20
168.7053577991
 30
0.0
 11
241.5959081942
 21
168.5735809362
 31
0.0
  0
ARC
  5
70
330
40
100
AcDbEntity
  8
0-11MG
  6
Continuous
 62
     7
100
AcDbCircle
 10
259.2966108634
 20
203.3253452801
 30
0.0
 40
39.00000000000001
100
AcDbArc
 50
243.0081232199
 51
296.9918767801
  0
ARC
  5
71
330
40
100
AcDbEntity
  8
0-11MG
  6
Continuous
 62
     7
100
AcDbCircle
 10
274.455674175
 20
173.5635778676
 30
0.0
 40
5.452114050854924
100
AcDbArc
 50
296.9918767801
 51
116.9918767801
  0
LINE
  5
72
330
40
100
AcDbEntity
  8
0-11MG
  6
Continuous
 62
     7
100
AcDbLine
 10
276.9301933989
 20
168.7053577991
 30
0.0
 11
276.9973135326
 21
168.5735809362
 31
0.0
  0
ARC
  5
73
330
40
100
AcDbEntity
  8
0-11MG
  6
Continuous
 62
     7
100
AcDbCircle
 10
274.455674175
 20
173.5635778676
 30
0.0
 40
5.600000000000004
100
AcDbArc
 50
296.9918767801
 51
116.9918767801
  0
ARC
  5
74
330
40
100
AcDbEntity
  8
0-11MG
  6
Continuous
 62
     7
100
AcDbCircle
 10
259.2966108634
 20
203.3253452801
 30
0.0
 40
27.94788594914507
100
AcDbArc
 50
243.0081232199
 51
296.9918767801
  0
LINE
  5
75
330
40
100
AcDbEntity
  8
0-11MG
  6
Continuous
 62
     7
100
AcDbLine
 10
271.9811549511
 20
178.4217979361
 30
0.0
 11
271.9140348174
 21
178.5535747991
 31
0.0
  0
ARC
  5
76
330
40
100
AcDbEntity
  8
0-11MG
  6
Continuous
 62
     7
100
AcDbCircle
 10
259.2966108634
 20
203.3253452801
 30
0.0
 40
27.8
100
AcDbArc
 50
243.0081232199
 51
296.9918767801
  0
ARC
  5
77
330
40
100
AcDbEntity
  8
0-11MG
  6
Continuous
 62
     7
100
AcDbCircle
 10
244.1375475519
 20
173.5635778676
 30
0.0
 40
5.452114050854939
100
AcDbArc
 50
63.0081232199
 51
243.0081232199
  0
LINE
  5
78
330
40
100
AcDbEntity
  8
0-11MG
  6
Continuous
 62
     7
100
AcDbLine
 10
246.6120667758
 20
178.4217979361
 30
0.0
 11
246.6791869095
 21
178.5535747991
 31
0.0
  0
ARC
  5
79
330
40
100
AcDbEntity
  8
0-11MG
  6
Continuous
 62
     7
100
AcDbCircle
 10
244.1375475519
 20
173.5635778676
 30
0.0
 40
5.600000000000023
100
AcDbArc
 50
63.0081232199
 51
243.0081232199
  0
ARC
  5
7A
330
40
100
AcDbEntity
  8
0-11MG
  6
Continuous
 62
     7
100
AcDbCircle
 10
244.1375475519
 20
173.5635778676
 30
0.0
 40
4.452723223835855
100
AcDbArc
 50
63.0081232199
 51
243.0081232199
  0
ARC
  5
7B
330
40
100
AcDbEntity
  8
0-11MG
  6
Continuous
 62
     7
100
AcDbCircle
 10
259.2966108634
 20
203.3253452801
 30
0.0
 40
37.85272322383585
100
AcDbArc
 50
243.0081232199
 51
296.9918767801
  0
ARC
  5
7C
330
40
100
AcDbEntity
  8
0-11MG
  6
Continuous
 62
     7
100
AcDbCircle
 10
274.455674175
 20
173.5635778676
 30
0.0
 40
4.452723223835849
100
AcDbArc
 50
296.9918767801
 51
116.9918767801
  0
ARC
  5
7D
330
40
100
AcDbEntity
  8
0-11MG
  6
Continuous
 62
     7
100
AcDbCircle
 10
259.2966108634
 20
203.3253452801
 30
0.0
 40
28.94727677616418
100
AcDbArc
 50
243.0081232199
 51
296.9918767801
  0
LINE
  5
7E
330
40
100
AcDbEntity
  8
0-11MG
  6
Continuous
 62
     7
100
AcDbLine
 10
233.5025354551
 20
216.463477057
 30
0.0
 11
234.3930635194
 21
216.0098893678
 31
0.0
  0
LINE
  5
7F
330
40
100
AcDbEntity
  8
0-11MG
  6
Continuous
 62
     7
100
AcDbLine
 10
234.3930635194
 20
190.6408011925
 30
0.0
 11
233.5025354551
 21
190.1872135033
 31
0.0
  0
LINE
  5
80
330
40
100
AcDbEntity
  8
0-11MG
  6
Continuous
 62
     7
100
AcDbLine
 10
225.5671514467
 20
220.5053401264
 30
0.0
 11
224.6766233824
 21
220.9589278156
 31
0.0
  0
LINE
  5
81
330
40
100
AcDbEntity
  8
0-11MG
  6
Continuous
 62
     7
100
AcDbLine
 10
224.6766233824
 20
185.6917627446
 30
0.0
 11
225.5671514467
 21
186.1453504339
 31
0.0
  0
ARC
  5
82
330
40
100
AcDbEntity
  8
0-11MG
  6
Continuous
 62
     7
100
AcDbCircle
 10
259.2966108634
 20
203.3253452801
 30
0.0
 40
38.85211405085493
100
AcDbArc
 50
153.0081232199
 51
206.9918767801
  0
LINE
  5
83
330
40
100
AcDbEntity
  8
0-11MG
  6
Continuous
 62
     7
100
AcDbLine
 10
224.6766233824
 20
220.9589278156
 30
0.0
 11
224.5448465195
 21
221.0260479493
 31
0.0
  0
ARC
  5
84
330
40
100
AcDbEntity
  8
0-11MG
  6
Continuous
 62
     7
100
AcDbCircle
 10
259.2966108634
 20
203.3253452801
 30
0.0
 40
38.99999999999999
100
AcDbArc
 50
153.0081232199
 51
206.9918767801
  0
ARC
  5
85
330
40
100
AcDbEntity
  8
0-11MG
  6
Continuous
 62
     7
100
AcDbCircle
 10
229.5348434509
 20
188.1662819686
 30
0.0
 40
5.452114050854937
100
AcDbArc
 50
206.9918767801
 51
26.9918767801
  0
LINE
  5
86
330
40
100
AcDbEntity
  8
0-11MG
  6
Continuous
 62
     7
100
AcDbLine
 10
224.6766233824
 20
185.6917627446
 30
0.0
 11
224.5448465195
 21
185.6246426109
 31
0.0
  0
ARC
  5
87
330
40
100
AcDbEntity
  8
0-11MG
  6
Continuous
 62
     7
100
AcDbCircle
 10
229.5348434509
 20
188.1662819686
 30
0.0
 40
5.600000000000001
100
AcDbArc
 50
206.9918767801
 51
26.9918767801
  0
ARC
  5
88
330
40
100
AcDbEntity
  8
0-11MG
  6
Continuous
 62
     7
100
AcDbCircle
 10
259.2966108634
 20
203.3253452801
 30
0.0
 40
27.94788594914507
100
AcDbArc
 50
153.0081232199
 51
206.9918767801
  0
LINE
  5
89
330
40
100
AcDbEntity
  8
0-11MG
  6
Continuous
 62
     7
100
AcDbLine
 10
234.3930635194
 20
190.6408011925
 30
0.0
 11
234.5248403824
 21
190.7079213262
 31
0.0
  0
ARC
  5
8A
330
40
100
AcDbEntity
  8
0-11MG
  6
Continuous
 62
     7
100
AcDbCircle
 10
259.2966108634
 20
203.3253452801
 30
0.0
 40
27.79999999999999
100
AcDbArc
 50
153.0081232199
 51
206.9918767801
  0
ARC
  5
8B
330
40
100
AcDbEntity
  8
0-11MG
  6
Continuous
 62
     7
100
AcDbCircle
 10
229.5348434509
 20
218.4844085917
 30
0.0
 40
5.452114050854934
100
AcDbArc
 50
333.0081232199
 51
153.0081232199
  0
LINE
  5
8C
330
40
100
AcDbEntity
  8
0-11MG
  6
Continuous
 62
     7
100
AcDbLine
 10
234.3930635194
 20
216.0098893678
 30
0.0
 11
234.5248403824
 21
215.9427692341
 31
0.0
  0
ARC
  5
8D
330
40
100
AcDbEntity
  8
0-11MG
  6
Continuous
 62
     7
100
AcDbCircle
 10
229.5348434509
 20
218.4844085917
 30
0.0
 40
5.599999999999996
100
AcDbArc
 50
333.0081232199
 51
153.0081232199
  0
ARC
  5
8E
330
40
100
AcDbEntity
  8
0-11MG
  6
Continuous
 62
     7
100
AcDbCircle
 10
229.5348434509
 20
218.4844085917
 30
0.0
 40
4.452723223835832
100
AcDbArc
 50
333.0081232199
 51
153.0081232199
  0
ARC
  5
8F
330
40
100
AcDbEntity
  8
0-11MG
  6
Continuous
 62
     7
100
AcDbCircle
 10
259.2966108634
 20
203.3253452801
 30
0.0
 40
37.85272322383584
100
AcDbArc
 50
153.0081232199
 51
206.9918767801
  0
ARC
  5
90
330
40
100
AcDbEntity
  8
0-11MG
  6
Continuous
 62
     7
100
AcDbCircle
 10
229.5348434509
 20
188.1662819686
 30
0.0
 40
4.452723223835834
100
AcDbArc
 50
206.9918767801
 51
26.9918767801
  0
ARC
  5
91
330
40
100
AcDbEntity
  8
0-11MG
  6
Continuous
 62
     7
100
AcDbCircle
 10
259.2966108634
 20
203.3253452801
 30
0.0
 40
28.94727677616416
100
AcDbArc
 50
153.0081232199
 51
206.9918767801
  0
LINE
  5
92
330
40
100
AcDbEntity
  8
0-11MG
  6
Continuous
 62
     7
100
AcDbLine
 10
272.4347426403
 20
229.1194206884
 30
0.0
 11
271.9811549511
 21
228.2288926241
 31
0.0
  0
LINE
  5
93
330
40
100
AcDbEntity
  8
0-11MG
  6
Continuous
 62
     7
100
AcDbLine
 10
246.6120667758
 20
228.2288926241
 30
0.0
 11
246.1584790866
 21
229.1194206884
 31
0.0
  0
LINE
  5
94
330
40
100
AcDbEntity
  8
0-11MG
  6
Continuous
 62
     7
100
AcDbLine
 10
276.4766057097
 20
237.0548046968
 30
0.0
 11
276.9301933989
 21
237.9453327611
 31
0.0
  0
LINE
  5
95
330
40
100
AcDbEntity
  8
0-11MG
  6
Continuous
 62
     7
100
AcDbLine
 10
241.6630283279
 20
237.9453327611
 30
0.0
 11
242.1166160172
 21
237.0548046968
 31
0.0
  0
ARC
  5
96
330
40
100
AcDbEntity
  8
0-11MG
  6
Continuous
 62
     7
100
AcDbCircle
 10
259.2966108634
 20
203.3253452801
 30
0.0
 40
38.85211405085496
100
AcDbArc
 50
63.0081232199
 51
116.9918767801
  0
LINE
  5
97
330
40
100
AcDbEntity
  8
0-11MG
  6
Continuous
 62
     7
100
AcDbLine
 10
276.9301933989
 20
237.9453327611
 30
0.0
 11
276.9973135326
 21
238.0771096241
 31
0.0
  0
ARC
  5
98
330
40
100
AcDbEntity
  8
0-11MG
  6
Continuous
 62
     7
100
AcDbCircle
 10
259.2966108634
 20
203.3253452801
 30
0.0
 40
39.00000000000001
100
AcDbArc
 50
63.0081232199
 51
116.9918767801
  0
ARC
  5
99
330
40
100
AcDbEntity
  8
0-11MG
  6
Continuous
 62
     7
100
AcDbCircle
 10
244.1375475519
 20
233.0871126926
 30
0.0
 40
5.452114050854922
100
AcDbArc
 50
116.9918767801
 51
296.9918767801
  0
LINE
  5
9A
330
40
100
AcDbEntity
  8
0-11MG
  6
Continuous
 62
     7
100
AcDbLine
 10
241.6630283279
 20
237.9453327611
 30
0.0
 11
241.5959081942
 21
238.0771096241
 31
0.0
  0
ARC
  5
9B
330
40
100
AcDbEntity
  8
0-11MG
  6
Continuous
 62
     7
100
AcDbCircle
 10
244.1375475519
 20
233.0871126926
 30
0.0
 40
5.600000000000005
100
AcDbArc
 50
116.9918767801
 51
296.9918767801
  0
ARC
  5
9C
330
40
100
AcDbEntity
  8
0-11MG
  6
Continuous
 62
     7
100
AcDbCircle
 10
259.2966108634
 20
203.3253452801
 30
0.0
 40
27.94788594914507
100
AcDbArc
 50
63.0081232199
 51
116.9918767801
  0
LINE
  5
9D
330
40
100
AcDbEntity
  8
0-11MG
  6
Continuous
 62
     7
100
AcDbLine
 10
246.6120667758
 20
228.2288926241
 30
0.0
 11
246.6791869095
 21
228.0971157612
 31
0.0
  0
ARC
  5
9E
330
40
100
AcDbEntity
  8
0-11MG
  6
Continuous
 62
     7
100
AcDbCircle
 10
259.2966108634
 20
203.3253452801
 30
0.0
 40
27.8
100
AcDbArc
 50
63.0081232199
 51
116.9918767801
  0
ARC
  5
9F
330
40
100
AcDbEntity
  8
0-11MG
  6
Continuous
 62
     7
100
AcDbCircle
 10
274.455674175
 20
233.0871126926
 30
0.0
 40
5.45211405085494
100
AcDbArc
 50
243.0081232199
 51
63.0081232199
  0
LINE
  5
A0
330
40
100
AcDbEntity
  8
0-11MG
  6
Continuous
 62
     7
100
AcDbLine
 10
271.9811549511
 20
228.2288926241
 30
0.0
 11
271.9140348174
 21
228.0971157612
 31
0.0
  0
ARC
  5
A1
330
40
100
AcDbEntity
  8
0-11MG
  6
Continuous
 62
     7
100
AcDbCircle
 10
274.455674175
 20
233.0871126926
 30
0.0
 40
5.599999999999999
100
AcDbArc
 50
243.0081232199
 51
63.0081232199
  0
ARC
  5
A2
330
40
100
AcDbEntity
  8
0-11MG
  6
Continuous
 62
     7
100
AcDbCircle
 10
274.455674175
 20
233.0871126926
 30
0.0
 40
4.452723223835856
100
AcDbArc
 50
243.0081232199
 51
63.0081232199
  0
ARC
  5
A3
330
40
100
AcDbEntity
  8
0-11MG
  6
Continuous
 62
     7
100
AcDbCircle
 10
259.2966108634
 20
203.3253452801
 30
0.0
 40
37.85272322383585
100
AcDbArc
 50
63.0081232199
 51
116.9918767801
  0
ARC
  5
A4
330
40
100
AcDbEntity
  8
0-11MG
  6
Continuous
 62
     7
100
AcDbCircle
 10
244.1375475519
 20
233.0871126926
 30
0.0
 40
4.452723223835849
100
AcDbArc
 50
116.9918767801
 51
296.9918767801
  0
ARC
  5
A5
330
40
100
AcDbEntity
  8
0-11MG
  6
Continuous
 62
     7
100
AcDbCircle
 10
259.2966108634
 20
203.3253452801
 30
0.0
 40
28.94727677616416
100
AcDbArc
 50
63.0081232199
 51
116.9918767801
  0
CIRCLE
  5
A6
330
40
100
AcDbEntity
  8
0-11MG
  6
Continuous
 62
     7
100
AcDbCircle
 10
259.2966108634
 20
203.3253452801
 30
0.0
 40
26.0
  0
CIRCLE
  5
A7
330
40
100
AcDbEntity
  8
0-11MG
  6
Continuous
 62
     7
100
AcDbCircle
 10
259.2966108634
 20
203.3253452801
 30
0.0
 40
27.5
  0
ARC
  5
A8
330
40
100
AcDbEntity
  8
0-11MG
  6
Continuous
 62
     7
100
AcDbCircle
 10
259.2966108634
 20
203.3253452801
 30
0.0
 40
42.49999999999999
100
AcDbArc
 50
142.0005485634
 51
217.9994514366
  0
ARC
  5
A9
330
40
100
AcDbEntity
  8
0-11MG
  6
Continuous
 62
     7
100
AcDbCircle
 10
227.381936617
 20
178.391361087
 30
0.0
 40
1.999999999999989
100
AcDbArc
 50
217.9994514366
 51
313.0
  0
ARC
  5
AA
330
40
100
AcDbEntity
  8
0-11MG
  6
Continuous
 62
     7
100
AcDbCircle
 10
234.3626266703
 20
171.4106710337
 30
0.0
 40
2.0
100
AcDbArc
 50
137.0
 51
232.0005485634
  0
ARC
  5
AB
330
40
100
AcDbEntity
  8
0-11MG
  6
Continuous
 62
     7
100
AcDbCircle
 10
259.2966108634
 20
203.3253452801
 30
0.0
 40
42.5
100
AcDbArc
 50
232.0005485634
 51
307.9994514366
  0
ARC
  5
AC
330
40
100
AcDbEntity
  8
0-11MG
  6
Continuous
 62
     7
100
AcDbCircle
 10
284.2305950566
 20
171.4106710337
 30
0.0
 40
2.000000000000012
100
AcDbArc
 50
307.9994514366
 51
43.0
  0
ARC
  5
AD
330
40
100
AcDbEntity
  8
0-11MG
  6
Continuous
 62
     7
100
AcDbCircle
 10
291.2112851099
 20
178.391361087
 30
0.0
 40
1.999999999999995
100
AcDbArc
 50
227.0
 51
322.0005485634
  0
ARC
  5
AE
330
40
100
AcDbEntity
  8
0-11MG
  6
Continuous
 62
     7
100
AcDbCircle
 10
259.2966108634
 20
203.3253452801
 30
0.0
 40
42.50000000000001
100
AcDbArc
 50
322.0005485634
 51
37.9994514366
  0
ARC
  5
AF
330
40
100
AcDbEntity
  8
0-11MG
  6
Continuous
 62
     7
100
AcDbCircle
 10
291.2112851099
 20
228.2593294733
 30
0.0
 40
1.999999999999989
100
AcDbArc
 50
37.9994514366
 51
133.0
  0
ARC
  5
B0
330
40
100
AcDbEntity
  8
0-11MG
  6
Continuous
 62
     7
100
AcDbCircle
 10
284.2305950566
 20
235.2400195266
 30
0.0
 40
2.000000000000019
100
AcDbArc
 50
317.0
 51
52.0005485634
  0
ARC
  5
B1
330
40
100
AcDbEntity
  8
0-11MG
  6
Continuous
 62
     7
100
AcDbCircle
 10
259.2966108634
 20
203.3253452801
 30
0.0
 40
42.5
100
AcDbArc
 50
52.0005485634
 51
127.9994514366
  0
ARC
  5
B2
330
40
100
AcDbEntity
  8
0-11MG
  6
Continuous
 62
     7
100
AcDbCircle
 10
234.3626266703
 20
235.2400195266
 30
0.0
 40
2.000000000000036
100
AcDbArc
 50
127.9994514366
 51
223.0
  0
ARC
  5
B3
330
40
100
AcDbEntity
  8
0-11MG
  6
Continuous
 62
     7
100
AcDbCircle
 10
227.381936617
 20
228.2593294733
 30
0.0
 40
1.999999999999995
100
AcDbArc
 50
47.0
 51
142.0005485634
  0
ARC
  5
B4
330
40
100
AcDbEntity
  8
0-11MG
  6
Continuous
 62
     7
100
AcDbCircle
 10
259.2966108634
 20
203.3253452801
 30
0.0
 40
38.85211405085492
100
AcDbArc
 50
333.0081232199
 51
26.9918767801
  0
LINE
  5
B5
330
40
100
AcDbEntity
  8
0-11MG
  6
Continuous
 62
     7
100
AcDbLine
 10
293.9165983444
 20
185.6917627446
 30
0.0
 11
294.0483752074
 21
185.6246426109
 31
0.0
  0
ARC
  5
B6
330
40
100
AcDbEntity
  8
0-11MG
  6
Continuous
 62
     7
100
AcDbCircle
 10
259.2966108634
 20
203.3253452801
 30
0.0
 40
38.99999999999999
100
AcDbArc
 50
333.0081232199
 51
26.9918767801
  0
ARC
  5
B7
330
40
100
AcDbEntity
  8
0-11MG
  6
Continuous
 62
     7
100
AcDbCircle
 10
289.0583782759
 20
218.4844085917
 30
0.0
 40
5.452114050854934
100
AcDbArc
 50
26.9918767801
 51
206.9918767801
  0
LINE
  5
B8
330
40
100
AcDbEntity
  8
0-11MG
  6
Continuous
 62
     7
100
AcDbLine
 10
293.9165983444
 20
220.9589278156
 30
0.0
 11
294.0483752074
 21
221.0260479493
 31
0.0
  0
ARC
  5
B9
330
40
100
AcDbEntity
  8
0-11MG
  6
Continuous
 62
     7
100
AcDbCircle
 10
289.0583782759
 20
218.4844085917
 30
0.0
 40
5.60000000000001
100
AcDbArc
 50
26.9918767801
 51
206.9918767801
  0
ARC
  5
BA
330
40
100
AcDbEntity
  8
0-11MG
  6
Continuous
 62
     7
100
AcDbCircle
 10
259.2966108634
 20
203.3253452801
 30
0.0
 40
27.94788594914507
100
AcDbArc
 50
333.0081232199
 51
26.9918767801
  0
LINE
  5
BB
330
40
100
AcDbEntity
  8
0-11MG
  6
Continuous
 62
     7
100
AcDbLine
 10
284.2001582074
 20
216.0098893678
 30
0.0
 11
284.0683813445
 21
215.9427692341
 31
0.0
  0
ARC
  5
BC
330
40
100
AcDbEntity
  8
0-11MG
  6
Continuous
 62
     7
100
AcDbCircle
 10
259.2966108634
 20
203.3253452801
 30
0.0
 40
27.79999999999999
100
AcDbArc
 50
333.0081232199
 51
26.9918767801
  0
ARC
  5
BD
330
40
100
AcDbEntity
  8
0-11MG
  6
Continuous
 62
     7
100
AcDbCircle
 10
289.0583782759
 20
188.1662819686
 30
0.0
 40
5.452114050854927
100
AcDbArc
 50
153.0081232199
 51
333.0081232199
  0
LINE
  5
BE
330
40
100
AcDbEntity
  8
0-11MG
  6
Continuous
 62
     7
100
AcDbLine
 10
284.2001582074
 20
190.6408011925
 30
0.0
 11
284.0683813445
 21
190.7079213262
 31
0.0
  0
ARC
  5
BF
330
40
100
AcDbEntity
  8
0-11MG
  6
Continuous
 62
     7
100
AcDbCircle
 10
289.0583782759
 20
188.1662819686
 30
0.0
 40
5.599999999999999
100
AcDbArc
 50
153.0081232199
 51
333.0081232199
  0
ARC
  5
C0
330
40
100
AcDbEntity
  8
0-11MG
  6
Continuous
 62
     7
100
AcDbCircle
 10
289.0583782759
 20
188.1662819686
 30
0.0
 40
4.452723223835839
100
AcDbArc
 50
153.0081232199
 51
333.0081232199
  0
ARC
  5
C1
330
40
100
AcDbEntity
  8
0-11MG
  6
Continuous
 62
     7
100
AcDbCircle
 10
259.2966108634
 20
203.3253452801
 30
0.0
 40
37.85272322383584
100
AcDbArc
 50
333.0081232199
 51
26.9918767801
  0
ARC
  5
C2
330
40
100
AcDbEntity
  8
0-11MG
  6
Continuous
 62
     7
100
AcDbCircle
 10
289.0583782759
 20
218.4844085917
 30
0.0
 40
4.452723223835838
100
AcDbArc
 50
26.9918767801
 51
206.9918767801
  0
ARC
  5
C3
330
40
100
AcDbEntity
  8
0-11MG
  6
Continuous
 62
     7
100
AcDbCircle
 10
259.2966108634
 20
203.3253452801
 30
0.0
 40
28.94727677616416
100
AcDbArc
 50
333.0081232199
 51
26.9918767801
  0
LINE
  5
C4
330
40
100
AcDbEntity
  8
0-11MG
  6
Continuous
 62
     7
100
AcDbLine
 10
285.0906862717
 20
190.1872135033
 30
0.0
 11
284.2001582074
 21
190.6408011925
 31
0.0
  0
LINE
  5
C5
330
40
100
AcDbEntity
  8
0-11MG
  6
Continuous
 62
     7
100
AcDbLine
 10
284.2001582074
 20
216.0098893678
 30
0.0
 11
285.0906862717
 21
216.463477057
 31
0.0
  0
LINE
  5
C6
330
40
100
AcDbEntity
  8
0-11MG
  6
Continuous
 62
     7
100
AcDbLine
 10
293.0260702801
 20
186.1453504339
 30
0.0
 11
293.9165983444
 21
185.6917627446
 31
0.0
  0
LINE
  5
C7
330
40
100
AcDbEntity
  8
0-11MG
  6
Continuous
 62
     7
100
AcDbLine
 10
293.9165983444
 20
220.9589278156
 30
0.0
 11
293.0260702801
 21
220.5053401264
 31
0.0
  0
ARC
  5
C8
330
40
100
AcDbEntity
  8
0-11MG
  6
Continuous
 62
     7
100
AcDbCircle
 10
284.045348205
 20
178.5766079386
 30
0.0
 40
2.751676246821759
100
AcDbArc
 50
47.0
 51
223.0
  0
LINE
  5
C9
330
40
100
AcDbEntity
  8
0-11MG
  6
Continuous
 62
     7
100
AcDbLine
 10
282.0328995962
 20
176.6999692509
 30
0.0
 11
285.6933024598
 21
172.7746677538
 31
0.0
  0
LINE
  5
CA
330
40
100
AcDbEntity
  8
0-11MG
  6
Continuous
 62
     7
100
AcDbLine
 10
289.8472883897
 20
176.9286536838
 30
0.0
 11
285.9219868927
 21
180.5890565474
 31
0.0
  0
CIRCLE
  5
CB
330
40
100
AcDbEntity
  8
0-11MG
  6
Continuous
 62
     7
100
AcDbCircle
 10
259.2966040837
 20
203.3253520599
 30
0.0
 40
5.0
  0
CIRCLE
  5
CC
330
40
100
AcDbEntity
  8
0-11MG
  6
Continuous
 62
     7
100
AcDbCircle
 10
259.2966040837
 20
203.3253520599
 30
0.0
 40
4.2
  0
CIRCLE
  5
CD
330
40
100
AcDbEntity
  8
0-11MG
  6
Continuous
 62
     7
100
AcDbCircle
 10
259.2966040837
 20
203.3253520599
 30
0.0
 40
3.350000000000005
  0
CIRCLE
  5
CE
330
40
100
AcDbEntity
  8
0-11MG
  6
Continuous
 62
     7
100
AcDbCircle
 10
259.2966040837
 20
203.3253520599
 30
0.0
 40
1.621
  0
CIRCLE
  5
CF
330
40
100
AcDbEntity
  8
0-11MG
  6
Continuous
 62
     7
100
AcDbCircle
 10
259.2966040837
 20
203.3253520599
 30
0.0
 40
2.150000000000001
  0
CIRCLE
  5
D0
330
40
100
AcDbEntity
  8
0-11MG
  6
Continuous
 62
     7
100
AcDbCircle
 10
273.4387397074
 20
217.4674876836
 30
0.0
 40
4.500000000000001
  0
CIRCLE
  5
D1
330
40
100
AcDbEntity
  8
0-11MG
  6
Continuous
 62
     7
100
AcDbCircle
 10
273.4387397074
 20
189.1832164361
 30
0.0
 40
4.500000000000001
  0
CIRCLE
  5
D2
330
40
100
AcDbEntity
  8
0-11MG
  6
Continuous
 62
     7
100
AcDbCircle
 10
245.15446846
 20
189.1832164361
 30
0.0
 40
4.500000000000001
  0
CIRCLE
  5
D3
330
40
100
AcDbEntity
  8
0-11MG
  6
Continuous
 62
     7
100
AcDbCircle
 10
245.15446846
 20
217.4674876836
 30
0.0
 40
4.500000000000001
  0
CIRCLE
  5
D4
330
40
100
AcDbEntity
  8
0-11MG
  6
Continuous
 62
     7
100
AcDbCircle
 10
259.2966040837
 20
203.3253520599
 30
0.0
 40
25.0
  0
CIRCLE
  5
D5
330
40
100
AcDbEntity
  8
0-11MG
  6
Continuous
 62
     7
100
AcDbCircle
 10
259.2966040837
 20
203.3253520599
 30
0.0
 40
7.5
  0
LINE
  5
D6
330
40
100
AcDbEntity
  8
0-11MG
  6
Continuous
 62
     7
100
AcDbLine
 10
246.1794633922
 20
216.4631917168
 30
0.0
 11
246.5442880934
 21
217.8247360376
 31
0.0
  0
LINE
  5
D7
330
40
100
AcDbEntity
  8
0-11MG
  6
Continuous
 62
     7
100
AcDbLine
 10
244.797220106
 20
216.0776680501
 30
0.0
 11
246.1587644267
 21
216.4424927513
 31
0.0
  0
LINE
  5
D8
330
40
100
AcDbEntity
  8
0-11MG
  6
Continuous
 62
     7
100
AcDbLine
 10
243.7722251737
 20
217.0819640169
 30
0.0
 11
244.7689447933
 21
216.0852443973
 31
0.0
  0
LINE
  5
D9
330
40
100
AcDbEntity
  8
0-11MG
  6
Continuous
 62
     7
100
AcDbLine
 10
244.1294735277
 20
218.4717836503
 30
0.0
 11
243.7646488265
 21
217.1102393296
 31
0.0
  0
LINE
  5
DA
330
40
100
AcDbEntity
  8
0-11MG
  6
Continuous
 62
     7
100
AcDbLine
 10
245.511716814
 20
218.8573073171
 30
0.0
 11
244.1501724932
 21
218.4924826158
 31
0.0
  0
LINE
  5
DB
330
40
100
AcDbEntity
  8
0-11MG
  6
Continuous
 62
     7
100
AcDbLine
 10
246.5367117462
 20
217.8530113503
 30
0.0
 11
245.5399921267
 21
218.8497309698
 31
0.0
  0
ARC
  5
DC
330
40
100
AcDbEntity
  8
0-11MG
  6
Continuous
 62
     7
100
AcDbCircle
 10
245.15446846
 20
217.4674876836
 30
0.0
 40
1.250000000000003
100
AcDbArc
 50
345.0
 51
45.0
  0
ARC
  5
DD
330
40
100
AcDbEntity
  8
0-11MG
  6
Continuous
 62
     7
100
AcDbCircle
 10
245.15446846
 20
217.4674876836
 30
0.0
 40
1.25
100
AcDbArc
 50
285.0
 51
345.0
  0
ARC
  5
DE
330
40
100
AcDbEntity
  8
0-11MG
  6
Continuous
 62
     7
100
AcDbCircle
 10
245.15446846
 20
217.4674876836
 30
0.0
 40
1.250000000000005
100
AcDbArc
 50
225.0
 51
285.0
  0
ARC
  5
DF
330
40
100
AcDbEntity
  8
0-11MG
  6
Continuous
 62
     7
100
AcDbCircle
 10
245.15446846
 20
217.4674876836
 30
0.0
 40
1.250000000000003
100
AcDbArc
 50
165.0
 51
225.0
  0
ARC
  5
E0
330
40
100
AcDbEntity
  8
0-11MG
  6
Continuous
 62
     7
100
AcDbCircle
 10
245.15446846
 20
217.4674876836
 30
0.0
 40
1.25
100
AcDbArc
 50
105.0
 51
165.0
  0
ARC
  5
E1
330
40
100
AcDbEntity
  8
0-11MG
  6
Continuous
 62
     7
100
AcDbCircle
 10
245.15446846
 20
217.4674876836
 30
0.0
 40
1.250000000000005
100
AcDbArc
 50
45.0
 51
105.0
  0
CIRCLE
  5
E2
330
40
100
AcDbEntity
  8
0-11MG
  6
Continuous
 62
     7
100
AcDbCircle
 10
245.15446846
 20
217.4674876836
 30
0.0
 40
4.0
  0
LINE
  5
E3
330
40
100
AcDbEntity
  8
0-11MG
  6
Continuous
 62
     7
100
AcDbLine
 10
246.5486622995
 20
217.841060797
 30
0.0
 11
246.5442880934
 21
217.8247360376
 31
0.0
  0
ARC
  5
E4
330
40
100
AcDbEntity
  8
0-11MG
  6
Continuous
 62
     7
100
AcDbCircle
 10
245.15446846
 20
217.4674876836
 30
0.0
 40
1.435000000000002
100
AcDbArc
 50
315.5844022839
 51
14.4155977161
  0
LINE
  5
E5
330
40
100
AcDbEntity
  8
0-11MG
  6
Continuous
 62
     7
100
AcDbLine
 10
246.1794633922
 20
216.4631917168
 30
0.0
 11
246.1750891861
 21
216.4468669574
 31
0.0
  0
LINE
  5
E6
330
40
100
AcDbEntity
  8
0-11MG
  6
Continuous
 62
     7
100
AcDbLine
 10
246.1750891861
 20
216.4468669574
 30
0.0
 11
246.1587644267
 21
216.4424927513
 31
0.0
  0
ARC
  5
E7
330
40
100
AcDbEntity
  8
0-11MG
  6
Continuous
 62
     7
100
AcDbCircle
 10
245.15446846
 20
217.4674876836
 30
0.0
 40
1.435000000000011
100
AcDbArc
 50
255.5844022839
 51
314.4155977161
  0
LINE
  5
E8
330
40
100
AcDbEntity
  8
0-11MG
  6
Continuous
 62
     7
100
AcDbLine
 10
244.797220106
 20
216.0776680501
 30
0.0
 11
244.7808953466
 21
216.073293844
 31
0.0
  0
LINE
  5
E9
330
40
100
AcDbEntity
  8
0-11MG
  6
Continuous
 62
     7
100
AcDbLine
 10
244.7808953466
 20
216.073293844
 30
0.0
 11
244.7689447933
 21
216.0852443973
 31
0.0
  0
ARC
  5
EA
330
40
100
AcDbEntity
  8
0-11MG
  6
Continuous
 62
     7
100
AcDbCircle
 10
245.15446846
 20
217.4674876836
 30
0.0
 40
1.435
100
AcDbArc
 50
195.5844022839
 51
254.4155977161
  0
LINE
  5
EB
330
40
100
AcDbEntity
  8
0-11MG
  6
Continuous
 62
     7
100
AcDbLine
 10
243.7722251737
 20
217.0819640169
 30
0.0
 11
243.7602746204
 21
217.0939145702
 31
0.0
  0
LINE
  5
EC
330
40
100
AcDbEntity
  8
0-11MG
  6
Continuous
 62
     7
100
AcDbLine
 10
243.7602746204
 20
217.0939145702
 30
0.0
 11
243.7646488265
 21
217.1102393296
 31
0.0
  0
ARC
  5
ED
330
40
100
AcDbEntity
  8
0-11MG
  6
Continuous
 62
     7
100
AcDbCircle
 10
245.15446846
 20
217.4674876836
 30
0.0
 40
1.435000000000002
100
AcDbArc
 50
135.5844022839
 51
194.4155977161
  0
LINE
  5
EE
330
40
100
AcDbEntity
  8
0-11MG
  6
Continuous
 62
     7
100
AcDbLine
 10
244.1294735277
 20
218.4717836503
 30
0.0
 11
244.1338477338
 21
218.4881084097
 31
0.0
  0
LINE
  5
EF
330
40
100
AcDbEntity
  8
0-11MG
  6
Continuous
 62
     7
100
AcDbLine
 10
244.1338477338
 20
218.4881084097
 30
0.0
 11
244.1501724932
 21
218.4924826158
 31
0.0
  0
ARC
  5
F0
330
40
100
AcDbEntity
  8
0-11MG
  6
Continuous
 62
     7
100
AcDbCircle
 10
245.15446846
 20
217.4674876836
 30
0.0
 40
1.435000000000011
100
AcDbArc
 50
75.5844022839
 51
134.4155977161
  0
LINE
  5
F1
330
40
100
AcDbEntity
  8
0-11MG
  6
Continuous
 62
     7
100
AcDbLine
 10
245.511716814
 20
218.8573073171
 30
0.0
 11
245.5280415734
 21
218.8616815232
 31
0.0
  0
LINE
  5
F2
330
40
100
AcDbEntity
  8
0-11MG
  6
Continuous
 62
     7
100
AcDbLine
 10
245.5280415734
 20
218.8616815232
 30
0.0
 11
245.5399921267
 21
218.8497309698
 31
0.0
  0
ARC
  5
F3
330
40
100
AcDbEntity
  8
0-11MG
  6
Continuous
 62
     7
100
AcDbCircle
 10
245.15446846
 20
217.4674876836
 30
0.0
 40
1.435
100
AcDbArc
 50
15.5844022839
 51
74.4155977161
  0
LINE
  5
F4
330
40
100
AcDbEntity
  8
0-11MG
  6
Continuous
 62
     7
100
AcDbLine
 10
246.5367117462
 20
217.8530113503
 30
0.0
 11
246.5486622995
 21
217.841060797
 31
0.0
  0
LINE
  5
F5
330
40
100
AcDbEntity
  8
0-11MG
  6
Continuous
 62
     7
100
AcDbLine
 10
237.4882761676
 20
253.3930365394
 30
0.0
 11
237.4882761676
 21
251.2576675803
 31
0.0
  0
LINE
  5
F6
330
40
100
AcDbEntity
  8
0-11MG
  6
Continuous
 62
     7
100
AcDbLine
 10
223.2966040837
 20
175.8253520599
 30
0.0
 11
233.2966040837
 21
175.8253520599
 31
0.0
  0
LINE
  5
F7
330
40
100
AcDbEntity
  8
0-11MG
  6
Continuous
 62
     7
100
AcDbLine
 10
233.2966040837
 20
173.8253520599
 30
0.0
 11
223.2966040837
 21
173.8253520599
 31
0.0
  0
LINE
  5
F8
330
40
100
AcDbEntity
  8
0-11MG
  6
Continuous
 62
     7
100
AcDbLine
 10
223.2966040837
 20
255.8253520599
 30
0.0
 11
233.2966040837
 21
255.8253520599
 31
0.0
  0
LINE
  5
F9
330
40
100
AcDbEntity
  8
0-11MG
  6
Continuous
 62
     7
100
AcDbLine
 10
233.2966040837
 20
257.8253520599
 30
0.0
 11
223.2966040837
 21
257.8253520599
 31
0.0
  0
LINE
  5
FA
330
40
100
AcDbEntity
  8
0-11MG
  6
Continuous
 62
     7
100
AcDbLine
 10
223.2966040837
 20
257.8253520599
 30
0.0
 11
222.2966040837
 21
256.8253520599
 31
0.0
  0
LINE
  5
FB
330
40
100
AcDbEntity
  8
0-11MG
  6
Continuous
 62
     7
100
AcDbLine
 10
222.2966040837
 20
256.8253520599
 30
0.0
 11
223.2966040837
 21
255.8253520599
 31
0.0
  0
LINE
  5
FC
330
40
100
AcDbEntity
  8
0-11MG
  6
Continuous
 62
     7
100
AcDbLine
 10
222.2966040837
 20
174.8253520599
 30
0.0
 11
223.2966040837
 21
173.8253520599
 31
0.0
  0
LINE
  5
FD
330
40
100
AcDbEntity
  8
0-11MG
  6
Continuous
 62
     7
100
AcDbLine
 10
221.2966040837
 20
175.8253520599
 30
0.0
 11
221.2966040837
 21
184.2924925055
 31
0.0
  0
LINE
  5
FE
330
40
100
AcDbEntity
  8
0-11MG
  6
Continuous
 62
     7
100
AcDbLine
 10
221.2966040837
 20
222.3581980548
 30
0.0
 11
221.2966040837
 21
255.8253520599
 31
0.0
  0
LINE
  5
FF
330
40
100
AcDbEntity
  8
0-11MG
  6
Continuous
 62
     7
100
AcDbLine
 10
222.2966040837
 20
174.8253520599
 30
0.0
 11
223.2966040837
 21
175.8253520599
 31
0.0
  0
LINE
  5
100
330
40
100
AcDbEntity
  8
0-11MG
  6
Continuous
 62
     7
100
AcDbLine
 10
223.2966040837
 20
175.8253520599
 30
0.0
 11
223.2966040837
 21
180.7366420889
 31
0.0
  0
LINE
  5
101
330
40
100
AcDbEntity
  8
0-11MG
  6
Continuous
 62
     7
100
AcDbLine
 10
223.2966040837
 20
225.9140484713
 30
0.0
 11
223.2966040837
 21
255.8253520599
 31
0.0
  0
LINE
  5
102
330
40
100
AcDbEntity
  8
0-11MG
  6
Continuous
 62
     7
100
AcDbLine
 10
222.2966040837
 20
256.8253520599
 30
0.0
 11
221.2966040837
 21
255.8253520599
 31
0.0
  0
LINE
  5
103
330
40
100
AcDbEntity
  8
0-11MG
  6
Continuous
 62
     7
100
AcDbLine
 10
222.2966040837
 20
174.8253520599
 30
0.0
 11
221.2966040837
 21
175.8253520599
 31
0.0
  0
ARC
  5
104
330
40
100
AcDbEntity
  8
0-11MG
  6
Continuous
 62
     7
100
AcDbCircle
 10
245.15446846
 20
189.1832164361
 30
0.0
 40
1.435000000000004
100
AcDbArc
 50
105.5844022839
 51
164.4155977161
  0
LINE
  5
105
330
40
100
AcDbEntity
  8
0-11MG
  6
Continuous
 62
     7
100
AcDbLine
 10
244.7689447933
 20
190.5654597224
 30
0.0
 11
243.7722251737
 21
189.5687401028
 31
0.0
  0
ARC
  5
106
330
40
100
AcDbEntity
  8
0-11MG
  6
Continuous
 62
     7
100
AcDbCircle
 10
245.15446846
 20
189.1832164361
 30
0.0
 40
1.435000000000002
100
AcDbArc
 50
165.5844022839
 51
224.4155977161
  0
LINE
  5
107
330
40
100
AcDbEntity
  8
0-11MG
  6
Continuous
 62
     7
100
AcDbLine
 10
243.7646488265
 20
189.5404647901
 30
0.0
 11
244.1294735277
 21
188.1789204694
 31
0.0
  0
ARC
  5
108
330
40
100
AcDbEntity
  8
0-11MG
  6
Continuous
 62
     7
100
AcDbCircle
 10
245.15446846
 20
189.1832164361
 30
0.0
 40
1.435000000000002
100
AcDbArc
 50
225.5844022839
 51
284.4155977161
  0
LINE
  5
109
330
40
100
AcDbEntity
  8
0-11MG
  6
Continuous
 62
     7
100
AcDbLine
 10
244.1501724932
 20
188.1582215039
 30
0.0
 11
245.511716814
 21
187.7933968027
 31
0.0
  0
ARC
  5
10A
330
40
100
AcDbEntity
  8
0-11MG
  6
Continuous
 62
     7
100
AcDbCircle
 10
245.15446846
 20
189.1832164361
 30
0.0
 40
1.434999999999997
100
AcDbArc
 50
285.5844022839
 51
344.4155977161
  0
LINE
  5
10B
330
40
100
AcDbEntity
  8
0-11MG
  6
Continuous
 62
     7
100
AcDbLine
 10
245.5399921267
 20
187.8009731499
 30
0.0
 11
246.5367117462
 21
188.7976927694
 31
0.0
  0
ARC
  5
10C
330
40
100
AcDbEntity
  8
0-11MG
  6
Continuous
 62
     7
100
AcDbCircle
 10
245.15446846
 20
189.1832164361
 30
0.0
 40
1.435000000000021
100
AcDbArc
 50
345.5844022839
 51
44.4155977161
  0
LINE
  5
10D
330
40
100
AcDbEntity
  8
0-11MG
  6
Continuous
 62
     7
100
AcDbLine
 10
246.5442880934
 20
188.8259680821
 30
0.0
 11
246.1794633922
 21
190.1875124029
 31
0.0
  0
ARC
  5
10E
330
40
100
AcDbEntity
  8
0-11MG
  6
Continuous
 62
     7
100
AcDbCircle
 10
245.15446846
 20
189.1832164361
 30
0.0
 40
1.435000000000002
100
AcDbArc
 50
45.5844022839
 51
104.4155977161
  0
LINE
  5
10F
330
40
100
AcDbEntity
  8
0-11MG
  6
Continuous
 62
     7
100
AcDbLine
 10
246.1587644267
 20
190.2082113684
 30
0.0
 11
244.797220106
 21
190.5730360696
 31
0.0
  0
CIRCLE
  5
110
330
40
100
AcDbEntity
  8
0-11MG
  6
Continuous
 62
     7
100
AcDbCircle
 10
245.15446846
 20
189.1832164361
 30
0.0
 40
4.0
  0
LINE
  5
111
330
40
100
AcDbEntity
  8
0-11MG
  6
Continuous
 62
     7
100
AcDbLine
 10
244.7808953466
 20
190.5774102757
 30
0.0
 11
244.797220106
 21
190.5730360696
 31
0.0
  0
LINE
  5
112
330
40
100
AcDbEntity
  8
0-11MG
  6
Continuous
 62
     7
100
AcDbLine
 10
246.1587644267
 20
190.2082113684
 30
0.0
 11
246.1750891861
 21
190.2038371623
 31
0.0
  0
LINE
  5
113
330
40
100
AcDbEntity
  8
0-11MG
  6
Continuous
 62
     7
100
AcDbLine
 10
246.1750891861
 20
190.2038371623
 30
0.0
 11
246.1794633922
 21
190.1875124029
 31
0.0
  0
LINE
  5
114
330
40
100
AcDbEntity
  8
0-11MG
  6
Continuous
 62
     7
100
AcDbLine
 10
246.5442880934
 20
188.8259680821
 30
0.0
 11
246.5486622995
 21
188.8096433227
 31
0.0
  0
LINE
  5
115
330
40
100
AcDbEntity
  8
0-11MG
  6
Continuous
 62
     7
100
AcDbLine
 10
246.5486622995
 20
188.8096433227
 30
0.0
 11
246.5367117462
 21
188.7976927694
 31
0.0
  0
LINE
  5
116
330
40
100
AcDbEntity
  8
0-11MG
  6
Continuous
 62
     7
100
AcDbLine
 10
245.5399921267
 20
187.8009731499
 30
0.0
 11
245.5280415734
 21
187.7890225966
 31
0.0
  0
LINE
  5
117
330
40
100
AcDbEntity
  8
0-11MG
  6
Continuous
 62
     7
100
AcDbLine
 10
245.5280415734
 20
187.7890225966
 30
0.0
 11
245.511716814
 21
187.7933968027
 31
0.0
  0
LINE
  5
118
330
40
100
AcDbEntity
  8
0-11MG
  6
Continuous
 62
     7
100
AcDbLine
 10
244.1501724932
 20
188.1582215039
 30
0.0
 11
244.1338477338
 21
188.16259571
 31
0.0
  0
LINE
  5
119
330
40
100
AcDbEntity
  8
0-11MG
  6
Continuous
 62
     7
100
AcDbLine
 10
244.1338477338
 20
188.16259571
 30
0.0
 11
244.1294735277
 21
188.1789204694
 31
0.0
  0
LINE
  5
11A
330
40
100
AcDbEntity
  8
0-11MG
  6
Continuous
 62
     7
100
AcDbLine
 10
243.7646488265
 20
189.5404647901
 30
0.0
 11
243.7602746204
 21
189.5567895495
 31
0.0
  0
LINE
  5
11B
330
40
100
AcDbEntity
  8
0-11MG
  6
Continuous
 62
     7
100
AcDbLine
 10
243.7602746204
 20
189.5567895495
 30
0.0
 11
243.7722251737
 21
189.5687401028
 31
0.0
  0
LINE
  5
11C
330
40
100
AcDbEntity
  8
0-11MG
  6
Continuous
 62
     7
100
AcDbLine
 10
244.7689447933
 20
190.5654597224
 30
0.0
 11
244.7808953466
 21
190.5774102757
 31
0.0
  0
ARC
  5
11D
330
40
100
AcDbEntity
  8
0-11MG
  6
Continuous
 62
     7
100
AcDbCircle
 10
245.15446846
 20
189.1832164361
 30
0.0
 40
1.250000000000004
100
AcDbArc
 50
135.0
 51
195.0
  0
ARC
  5
11E
330
40
100
AcDbEntity
  8
0-11MG
  6
Continuous
 62
     7
100
AcDbCircle
 10
245.15446846
 20
189.1832164361
 30
0.0
 40
1.250000000000004
100
AcDbArc
 50
195.0
 51
255.0
  0
ARC
  5
11F
330
40
100
AcDbEntity
  8
0-11MG
  6
Continuous
 62
     7
100
AcDbCircle
 10
245.15446846
 20
189.1832164361
 30
0.0
 40
1.250000000000006
100
AcDbArc
 50
255.0
 51
315.0
  0
ARC
  5
120
330
40
100
AcDbEntity
  8
0-11MG
  6
Continuous
 62
     7
100
AcDbCircle
 10
245.15446846
 20
189.1832164361
 30
0.0
 40
1.250000000000004
100
AcDbArc
 50
315.0
 51
15.0
  0
ARC
  5
121
330
40
100
AcDbEntity
  8
0-11MG
  6
Continuous
 62
     7
100
AcDbCircle
 10
245.15446846
 20
189.1832164361
 30
0.0
 40
1.250000000000004
100
AcDbArc
 50
15.0
 51
75.0
  0
ARC
  5
122
330
40
100
AcDbEntity
  8
0-11MG
  6
Continuous
 62
     7
100
AcDbCircle
 10
245.15446846
 20
189.1832164361
 30
0.0
 40
1.250000000000006
100
AcDbArc
 50
75.0
 51
135.0
  0
ARC
  5
123
330
40
100
AcDbEntity
  8
0-11MG
  6
Continuous
 62
     7
100
AcDbCircle
 10
273.4387397074
 20
189.1832164361
 30
0.0
 40
1.435000000000002
100
AcDbArc
 50
195.5844022839
 51
254.4155977161
  0
LINE
  5
124
330
40
100
AcDbEntity
  8
0-11MG
  6
Continuous
 62
     7
100
AcDbLine
 10
272.0564964212
 20
188.7976927694
 30
0.0
 11
273.0532160407
 21
187.8009731499
 31
0.0
  0
ARC
  5
125
330
40
100
AcDbEntity
  8
0-11MG
  6
Continuous
 62
     7
100
AcDbCircle
 10
273.4387397074
 20
189.1832164361
 30
0.0
 40
1.435000000000011
100
AcDbArc
 50
255.5844022839
 51
314.4155977161
  0
LINE
  5
126
330
40
100
AcDbEntity
  8
0-11MG
  6
Continuous
 62
     7
100
AcDbLine
 10
273.0814913534
 20
187.7933968027
 30
0.0
 11
274.4430356742
 21
188.1582215039
 31
0.0
  0
ARC
  5
127
330
40
100
AcDbEntity
  8
0-11MG
  6
Continuous
 62
     7
100
AcDbCircle
 10
273.4387397074
 20
189.1832164361
 30
0.0
 40
1.435000000000002
100
AcDbArc
 50
315.5844022839
 51
14.4155977161
  0
LINE
  5
128
330
40
100
AcDbEntity
  8
0-11MG
  6
Continuous
 62
     7
100
AcDbLine
 10
274.4637346397
 20
188.1789204694
 30
0.0
 11
274.8285593409
 21
189.5404647901
 31
0.0
  0
ARC
  5
129
330
40
100
AcDbEntity
  8
0-11MG
  6
Continuous
 62
     7
100
AcDbCircle
 10
273.4387397074
 20
189.1832164361
 30
0.0
 40
1.435
100
AcDbArc
 50
15.5844022839
 51
74.4155977161
  0
LINE
  5
12A
330
40
100
AcDbEntity
  8
0-11MG
  6
Continuous
 62
     7
100
AcDbLine
 10
274.8209829937
 20
189.5687401028
 30
0.0
 11
273.8242633741
 21
190.5654597224
 31
0.0
  0
ARC
  5
12B
330
40
100
AcDbEntity
  8
0-11MG
  6
Continuous
 62
     7
100
AcDbCircle
 10
273.4387397074
 20
189.1832164361
 30
0.0
 40
1.435000000000011
100
AcDbArc
 50
75.5844022839
 51
134.4155977161
  0
LINE
  5
12C
330
40
100
AcDbEntity
  8
0-11MG
  6
Continuous
 62
     7
100
AcDbLine
 10
273.7959880614
 20
190.5730360696
 30
0.0
 11
272.4344437407
 21
190.2082113684
 31
0.0
  0
ARC
  5
12D
330
40
100
AcDbEntity
  8
0-11MG
  6
Continuous
 62
     7
100
AcDbCircle
 10
273.4387397074
 20
189.1832164361
 30
0.0
 40
1.435000000000002
100
AcDbArc
 50
135.5844022839
 51
194.4155977161
  0
LINE
  5
12E
330
40
100
AcDbEntity
  8
0-11MG
  6
Continuous
 62
     7
100
AcDbLine
 10
272.4137447752
 20
190.1875124029
 30
0.0
 11
272.048920074
 21
188.8259680821
 31
0.0
  0
CIRCLE
  5
12F
330
40
100
AcDbEntity
  8
0-11MG
  6
Continuous
 62
     7
100
AcDbCircle
 10
273.4387397074
 20
189.1832164361
 30
0.0
 40
4.0
  0
LINE
  5
130
330
40
100
AcDbEntity
  8
0-11MG
  6
Continuous
 62
     7
100
AcDbLine
 10
272.0445458679
 20
188.8096433227
 30
0.0
 11
272.048920074
 21
188.8259680821
 31
0.0
  0
LINE
  5
131
330
40
100
AcDbEntity
  8
0-11MG
  6
Continuous
 62
     7
100
AcDbLine
 10
272.4137447752
 20
190.1875124029
 30
0.0
 11
272.4181189813
 21
190.2038371623
 31
0.0
  0
LINE
  5
132
330
40
100
AcDbEntity
  8
0-11MG
  6
Continuous
 62
     7
100
AcDbLine
 10
272.4181189813
 20
190.2038371623
 30
0.0
 11
272.4344437407
 21
190.2082113684
 31
0.0
  0
LINE
  5
133
330
40
100
AcDbEntity
  8
0-11MG
  6
Continuous
 62
     7
100
AcDbLine
 10
273.7959880614
 20
190.5730360696
 30
0.0
 11
273.8123128208
 21
190.5774102757
 31
0.0
  0
LINE
  5
134
330
40
100
AcDbEntity
  8
0-11MG
  6
Continuous
 62
     7
100
AcDbLine
 10
273.8123128208
 20
190.5774102757
 30
0.0
 11
273.8242633741
 21
190.5654597224
 31
0.0
  0
LINE
  5
135
330
40
100
AcDbEntity
  8
0-11MG
  6
Continuous
 62
     7
100
AcDbLine
 10
274.8209829937
 20
189.5687401028
 30
0.0
 11
274.832933547
 21
189.5567895495
 31
0.0
  0
LINE
  5
136
330
40
100
AcDbEntity
  8
0-11MG
  6
Continuous
 62
     7
100
AcDbLine
 10
274.832933547
 20
189.5567895495
 30
0.0
 11
274.8285593409
 21
189.5404647901
 31
0.0
  0
LINE
  5
137
330
40
100
AcDbEntity
  8
0-11MG
  6
Continuous
 62
     7
100
AcDbLine
 10
274.4637346397
 20
188.1789204694
 30
0.0
 11
274.4593604336
 21
188.16259571
 31
0.0
  0
LINE
  5
138
330
40
100
AcDbEntity
  8
0-11MG
  6
Continuous
 62
     7
100
AcDbLine
 10
274.4593604336
 20
188.16259571
 30
0.0
 11
274.4430356742
 21
188.1582215039
 31
0.0
  0
LINE
  5
139
330
40
100
AcDbEntity
  8
0-11MG
  6
Continuous
 62
     7
100
AcDbLine
 10
273.0814913534
 20
187.7933968027
 30
0.0
 11
273.065166594
 21
187.7890225966
 31
0.0
  0
LINE
  5
13A
330
40
100
AcDbEntity
  8
0-11MG
  6
Continuous
 62
     7
100
AcDbLine
 10
273.065166594
 20
187.7890225966
 30
0.0
 11
273.0532160407
 21
187.8009731499
 31
0.0
  0
LINE
  5
13B
330
40
100
AcDbEntity
  8
0-11MG
  6
Continuous
 62
     7
100
AcDbLine
 10
272.0564964212
 20
188.7976927694
 30
0.0
 11
272.0445458679
 21
188.8096433227
 31
0.0
  0
ARC
  5
13C
330
40
100
AcDbEntity
  8
0-11MG
  6
Continuous
 62
     7
100
AcDbCircle
 10
273.4387397074
 20
189.1832164361
 30
0.0
 40
1.250000000000004
100
AcDbArc
 50
225.0
 51
285.0
  0
ARC
  5
13D
330
40
100
AcDbEntity
  8
0-11MG
  6
Continuous
 62
     7
100
AcDbCircle
 10
273.4387397074
 20
189.1832164361
 30
0.0
 40
1.249999999999997
100
AcDbArc
 50
285.0
 51
345.0
  0
ARC
  5
13E
330
40
100
AcDbEntity
  8
0-11MG
  6
Continuous
 62
     7
100
AcDbCircle
 10
273.4387397074
 20
189.1832164361
 30
0.0
 40
1.25
100
AcDbArc
 50
345.0
 51
45.0
  0
ARC
  5
13F
330
40
100
AcDbEntity
  8
0-11MG
  6
Continuous
 62
     7
100
AcDbCircle
 10
273.4387397074
 20
189.1832164361
 30
0.0
 40
1.250000000000006
100
AcDbArc
 50
45.0
 51
105.0
  0
ARC
  5
140
330
40
100
AcDbEntity
  8
0-11MG
  6
Continuous
 62
     7
100
AcDbCircle
 10
273.4387397074
 20
189.1832164361
 30
0.0
 40
1.250000000000004
100
AcDbArc
 50
105.0
 51
165.0
  0
ARC
  5
141
330
40
100
AcDbEntity
  8
0-11MG
  6
Continuous
 62
     7
100
AcDbCircle
 10
273.4387397074
 20
189.1832164361
 30
0.0
 40
1.250000000000006
100
AcDbArc
 50
165.0
 51
225.0
  0
ARC
  5
142
330
40
100
AcDbEntity
  8
0-11MG
  6
Continuous
 62
     7
100
AcDbCircle
 10
273.4387397074
 20
217.4674876836
 30
0.0
 40
1.434999999999997
100
AcDbArc
 50
285.5844022839
 51
344.4155977161
  0
LINE
  5
143
330
40
100
AcDbEntity
  8
0-11MG
  6
Continuous
 62
     7
100
AcDbLine
 10
273.8242633741
 20
216.0852443973
 30
0.0
 11
274.8209829937
 21
217.0819640169
 31
0.0
  0
ARC
  5
144
330
40
100
AcDbEntity
  8
0-11MG
  6
Continuous
 62
     7
100
AcDbCircle
 10
273.4387397074
 20
217.4674876836
 30
0.0
 40
1.435000000000021
100
AcDbArc
 50
345.5844022839
 51
44.4155977161
  0
LINE
  5
145
330
40
100
AcDbEntity
  8
0-11MG
  6
Continuous
 62
     7
100
AcDbLine
 10
274.8285593409
 20
217.1102393296
 30
0.0
 11
274.4637346397
 21
218.4717836503
 31
0.0
  0
ARC
  5
146
330
40
100
AcDbEntity
  8
0-11MG
  6
Continuous
 62
     7
100
AcDbCircle
 10
273.4387397074
 20
217.4674876836
 30
0.0
 40
1.435000000000002
100
AcDbArc
 50
45.5844022839
 51
104.4155977161
  0
LINE
  5
147
330
40
100
AcDbEntity
  8
0-11MG
  6
Continuous
 62
     7
100
AcDbLine
 10
274.4430356742
 20
218.4924826158
 30
0.0
 11
273.0814913534
 21
218.8573073171
 31
0.0
  0
ARC
  5
148
330
40
100
AcDbEntity
  8
0-11MG
  6
Continuous
 62
     7
100
AcDbCircle
 10
273.4387397074
 20
217.4674876836
 30
0.0
 40
1.435000000000004
100
AcDbArc
 50
105.5844022839
 51
164.4155977161
  0
LINE
  5
149
330
40
100
AcDbEntity
  8
0-11MG
  6
Continuous
 62
     7
100
AcDbLine
 10
273.0532160407
 20
218.8497309698
 30
0.0
 11
272.0564964212
 21
217.8530113503
 31
0.0
  0
ARC
  5
14A
330
40
100
AcDbEntity
  8
0-11MG
  6
Continuous
 62
     7
100
AcDbCircle
 10
273.4387397074
 20
217.4674876836
 30
0.0
 40
1.435000000000002
100
AcDbArc
 50
165.5844022839
 51
224.4155977161
  0
LINE
  5
14B
330
40
100
AcDbEntity
  8
0-11MG
  6
Continuous
 62
     7
100
AcDbLine
 10
272.048920074
 20
217.8247360376
 30
0.0
 11
272.4137447752
 21
216.4631917168
 31
0.0
  0
ARC
  5
14C
330
40
100
AcDbEntity
  8
0-11MG
  6
Continuous
 62
     7
100
AcDbCircle
 10
273.4387397074
 20
217.4674876836
 30
0.0
 40
1.435000000000002
100
AcDbArc
 50
225.5844022839
 51
284.4155977161
  0
LINE
  5
14D
330
40
100
AcDbEntity
  8
0-11MG
  6
Continuous
 62
     7
100
AcDbLine
 10
272.4344437407
 20
216.4424927513
 30
0.0
 11
273.7959880614
 21
216.0776680501
 31
0.0
  0
CIRCLE
  5
14E
330
40
100
AcDbEntity
  8
0-11MG
  6
Continuous
 62
     7
100
AcDbCircle
 10
273.4387397074
 20
217.4674876836
 30
0.0
 40
4.0
  0
LINE
  5
14F
330
40
100
AcDbEntity
  8
0-11MG
  6
Continuous
 62
     7
100
AcDbLine
 10
273.8123128208
 20
216.073293844
 30
0.0
 11
273.7959880614
 21
216.0776680501
 31
0.0
  0
LINE
  5
150
330
40
100
AcDbEntity
  8
0-11MG
  6
Continuous
 62
     7
100
AcDbLine
 10
272.4344437407
 20
216.4424927513
 30
0.0
 11
272.4181189813
 21
216.4468669574
 31
0.0
  0
LINE
  5
151
330
40
100
AcDbEntity
  8
0-11MG
  6
Continuous
 62
     7
100
AcDbLine
 10
272.4181189813
 20
216.4468669574
 30
0.0
 11
272.4137447752
 21
216.4631917168
 31
0.0
  0
LINE
  5
152
330
40
100
AcDbEntity
  8
0-11MG
  6
Continuous
 62
     7
100
AcDbLine
 10
272.048920074
 20
217.8247360376
 30
0.0
 11
272.0445458679
 21
217.841060797
 31
0.0
  0
LINE
  5
153
330
40
100
AcDbEntity
  8
0-11MG
  6
Continuous
 62
     7
100
AcDbLine
 10
272.0445458679
 20
217.841060797
 30
0.0
 11
272.0564964212
 21
217.8530113503
 31
0.0
  0
LINE
  5
154
330
40
100
AcDbEntity
  8
0-11MG
  6
Continuous
 62
     7
100
AcDbLine
 10
273.0532160407
 20
218.8497309698
 30
0.0
 11
273.065166594
 21
218.8616815232
 31
0.0
  0
LINE
  5
155
330
40
100
AcDbEntity
  8
0-11MG
  6
Continuous
 62
     7
100
AcDbLine
 10
273.065166594
 20
218.8616815232
 30
0.0
 11
273.0814913534
 21
218.8573073171
 31
0.0
  0
LINE
  5
156
330
40
100
AcDbEntity
  8
0-11MG
  6
Continuous
 62
     7
100
AcDbLine
 10
274.4430356742
 20
218.4924826158
 30
0.0
 11
274.4593604336
 21
218.4881084097
 31
0.0
  0
LINE
  5
157
330
40
100
AcDbEntity
  8
0-11MG
  6
Continuous
 62
     7
100
AcDbLine
 10
274.4593604336
 20
218.4881084097
 30
0.0
 11
274.4637346397
 21
218.4717836503
 31
0.0
  0
LINE
  5
158
330
40
100
AcDbEntity
  8
0-11MG
  6
Continuous
 62
     7
100
AcDbLine
 10
274.8285593409
 20
217.1102393296
 30
0.0
 11
274.832933547
 21
217.0939145702
 31
0.0
  0
LINE
  5
159
330
40
100
AcDbEntity
  8
0-11MG
  6
Continuous
 62
     7
100
AcDbLine
 10
274.832933547
 20
217.0939145702
 30
0.0
 11
274.8209829937
 21
217.0819640169
 31
0.0
  0
LINE
  5
15A
330
40
100
AcDbEntity
  8
0-11MG
  6
Continuous
 62
     7
100
AcDbLine
 10
273.8242633741
 20
216.0852443973
 30
0.0
 11
273.8123128208
 21
216.073293844
 31
0.0
  0
ARC
  5
15B
330
40
100
AcDbEntity
  8
0-11MG
  6
Continuous
 62
     7
100
AcDbCircle
 10
273.4387397074
 20
217.4674876836
 30
0.0
 40
1.250000000000011
100
AcDbArc
 50
315.0
 51
15.0
  0
ARC
  5
15C
330
40
100
AcDbEntity
  8
0-11MG
  6
Continuous
 62
     7
100
AcDbCircle
 10
273.4387397074
 20
217.4674876836
 30
0.0
 40
1.250000000000004
100
AcDbArc
 50
15.0
 51
75.0
  0
ARC
  5
15D
330
40
100
AcDbEntity
  8
0-11MG
  6
Continuous
 62
     7
100
AcDbCircle
 10
273.4387397074
 20
217.4674876836
 30
0.0
 40
1.250000000000006
100
AcDbArc
 50
75.0
 51
135.0
  0
ARC
  5
15E
330
40
100
AcDbEntity
  8
0-11MG
  6
Continuous
 62
     7
100
AcDbCircle
 10
273.4387397074
 20
217.4674876836
 30
0.0
 40
1.250000000000004
100
AcDbArc
 50
135.0
 51
195.0
  0
ARC
  5
15F
330
40
100
AcDbEntity
  8
0-11MG
  6
Continuous
 62
     7
100
AcDbCircle
 10
273.4387397074
 20
217.4674876836
 30
0.0
 40
1.250000000000004
100
AcDbArc
 50
195.0
 51
255.0
  0
ARC
  5
160
330
40
100
AcDbEntity
  8
0-11MG
  6
Continuous
 62
     7
100
AcDbCircle
 10
273.4387397074
 20
217.4674876836
 30
0.0
 40
1.249999999999986
100
AcDbArc
 50
255.0
 51
315.0
  0
ENDBLK
  5
162
330
40
100
AcDbEntity
  8
0
100
AcDbBlockEnd
  0
BLOCK
  5
1BE
330
163
100
AcDbEntity
  8
0
100
AcDbBlockBegin
  2
SE1
 70
     0
 10
0.0
 20
0.0
 30
0.0
  3
SE1
  1

  0
LINE
  5
165
330
163
100
AcDbEntity
  8
0-11MG
  6
Continuous
 62
     7
100
AcDbLine
 10
233.2966040837
 20
278.5095523234
 30
0.0
 11
283.2966040837
 21
278.5095523234
 31
0.0
  0
LINE
  5
166
330
163
100
AcDbEntity
  8
0-11MG
  6
Continuous
 62
     7
100
AcDbLine
 10
283.2966040837
 20
280.5095523234
 30
0.0
 11
284.2966040837
 21
279.5095523234
 31
0.0
  0
LINE
  5
167
330
163
100
AcDbEntity
  8
0-11MG
  6
Continuous
 62
     7
100
AcDbLine
 10
283.2966040837
 20
278.5095523234
 30
0.0
 11
284.2966040837
 21
279.5095523234
 31
0.0
  0
LINE
  5
168
330
163
100
AcDbEntity
  8
0-11MG
  6
Continuous
 62
     7
100
AcDbLine
 10
233.2966040837
 20
280.5095523234
 30
0.0
 11
233.2966040837
 21
278.5095523234
 31
0.0
  0
LINE
  5
169
330
163
100
AcDbEntity
  8
0-11MG
  6
Continuous
 62
     7
100
AcDbLine
 10
283.2966040837
 20
280.5095523234
 30
0.0
 11
233.2966040837
 21
280.5095523234
 31
0.0
  0
LINE
  5
16A
330
163
100
AcDbEntity
  8
0-11MG
  6
Continuous
 62
     7
100
AcDbLine
 10
285.2966040837
 20
280.5095523234
 30
0.0
 11
284.2966040837
 21
279.5095523234
 31
0.0
  0
LINE
  5
16B
330
163
100
AcDbEntity
  8
0-11MG
  6
Continuous
 62
     7
100
AcDbLine
 10
233.2966040837
 20
351.5095523234
 30
0.0
 11
233.2966040837
 21
353.5095523234
 31
0.0
  0
LINE
  5
16C
330
163
100
AcDbEntity
  8
0-11MG
  6
Continuous
 62
     7
100
AcDbLine
 10
233.2966040837
 20
280.5095523234
 30
0.0
 11
233.2966040837
 21
351.5095523234
 31
0.0
  0
LINE
  5
16D
330
163
100
AcDbEntity
  8
0-11MG
  6
Continuous
 62
     7
100
AcDbLine
 10
285.2966040837
 20
280.5095523234
 30
0.0
 11
285.2966040837
 21
351.5095523234
 31
0.0
  0
LINE
  5
16E
330
163
100
AcDbEntity
  8
0-11MG
  6
Continuous
 62
     7
100
AcDbLine
 10
283.2966040837
 20
280.5095523234
 30
0.0
 11
283.2966040837
 21
351.5095523234
 31
0.0
  0
LINE
  5
16F
330
163
100
AcDbEntity
  8
0-11MG
  6
Continuous
 62
     7
100
AcDbLine
 10
283.2966040837
 20
351.5095523234
 30
0.0
 11
284.2966040837
 21
352.5095523234
 31
0.0
  0
LINE
  5
170
330
163
100
AcDbEntity
  8
0-11MG
  6
Continuous
 62
     7
100
AcDbLine
 10
284.2966040837
 20
352.5095523234
 30
0.0
 11
285.2966040837
 21
351.5095523234
 31
0.0
  0
CIRCLE
  5
171
330
163
100
AcDbEntity
  8
0-11MG
  6
Continuous
 62
     7
100
AcDbCircle
 10
246.2966040837
 20
346.0095523234
 30
0.0
 40
2.6
  0
CIRCLE
  5
172
330
163
100
AcDbEntity
  8
0-11MG
  6
Continuous
 62
     7
100
AcDbCircle
 10
272.2966040837
 20
286.0095523234
 30
0.0
 40
2.6
  0
CIRCLE
  5
173
330
163
100
AcDbEntity
  8
0-11MG
  6
Continuous
 62
     7
100
AcDbCircle
 10
272.2966040837
 20
346.0095523234
 30
0.0
 40
2.6
  0
CIRCLE
  5
174
330
163
100
AcDbEntity
  8
0-11MG
  6
Continuous
 62
     7
100
AcDbCircle
 10
246.2966040837
 20
286.0095523234
 30
0.0
 40
2.6
  0
LINE
  5
175
330
163
100
AcDbEntity
  8
0-11MG
  6
Continuous
 62
     7
100
AcDbLine
 10
283.2966040837
 20
351.5095523234
 30
0.0
 11
233.2966040837
 21
351.5095523234
 31
0.0
  0
LINE
  5
176
330
163
100
AcDbEntity
  8
0-11MG
  6
Continuous
 62
     7
100
AcDbLine
 10
283.2966040837
 20
353.5095523234
 30
0.0
 11
233.2966040837
 21
353.5095523234
 31
0.0
  0
LINE
  5
177
330
163
100
AcDbEntity
  8
0-11MG
  6
Continuous
 62
     7
100
AcDbLine
 10
283.2966040837
 20
353.5095523234
 30
0.0
 11
284.2966040837
 21
352.5095523234
 31
0.0
  0
CIRCLE
  5
178
330
163
100
AcDbEntity
  8
0-11MG
  6
Continuous
 62
     7
100
AcDbCircle
 10
246.2966040837
 20
346.0095523234
 30
0.0
 40
2.1
  0
CIRCLE
  5
179
330
163
100
AcDbEntity
  8
0-11MG
  6
Continuous
 62
     7
100
AcDbCircle
 10
272.2966040837
 20
286.0095523234
 30
0.0
 40
2.1
  0
CIRCLE
  5
17A
330
163
100
AcDbEntity
  8
0-11MG
  6
Continuous
 62
     7
100
AcDbCircle
 10
272.2966040837
 20
346.0095523234
 30
0.0
 40
2.1
  0
CIRCLE
  5
17B
330
163
100
AcDbEntity
  8
0-11MG
  6
Continuous
 62
     7
100
AcDbCircle
 10
246.2966040837
 20
286.0095523234
 30
0.0
 40
2.1
  0
LINE
  5
17C
330
163
100
AcDbEntity
  8
0-11MG
  6
Continuous
 62
     7
100
AcDbLine
 10
233.1313188089
 20
366.1095523234
 30
0.0
 11
285.461902918
 21
366.1095523234
 31
0.0
  0
LINE
  5
17D
330
163
100
AcDbEntity
  8
0-11MG
  6
Continuous
 62
     7
100
AcDbLine
 10
285.461902918
 20
366.1095523234
 30
0.0
 11
285.461902918
 21
373.5095523234
 31
0.0
  0
LINE
  5
17E
330
163
100
AcDbEntity
  8
0-11MG
  6
Continuous
 62
     7
100
AcDbLine
 10
233.1313188089
 20
373.5095523234
 30
0.0
 11
233.1313188089
 21
366.1095523234
 31
0.0
  0
ARC
  5
17F
330
163
100
AcDbEntity
  8
0-11MG
  6
Continuous
 62
     7
100
AcDbCircle
 10
227.9765820994
 20
367.9278583191
 30
0.0
 40
2.831621982821149
100
AcDbArc
 50
219.9517975419
 51
264.441251632
  0
LINE
  5
180
330
163
100
AcDbEntity
  8
0-11MG
  6
Continuous
 62
     7
100
AcDbLine
 10
227.7022932589
 20
365.1095523234
 30
0.0
 11
228.7459333371
 21
365.1095523234
 31
0.0
  0
SPLINE
  5
181
330
163
100
AcDbEntity
  8
0-11MG
  6
Continuous
 62
     7
100
AcDbSpline
210
0.0
220
0.0
230
1.0
 70
     8
 71
     3
 72
    14
 73
    10
 74
     0
 42
0.0000000068989975
 43
0.0000000001
 40
0.1372246572690747
 40
0.1372246572690747
 40
0.1372246572690747
 40
0.1372246572690747
 40
0.2500000000000021
 40
0.2500000000000021
 40
0.5000000000000013
 40
0.5000000000000013
 40
0.7500000000000007
 40
0.7500000000000007
 40
1.0
 40
1.0
 40
1.0
 40
1.0
 10
232.3626338023702
 20
365.1450624133154
 30
0.0
 10
232.362826704066
 20
365.1634274028022
 30
0.0
 10
232.3688586138653
 20
365.1882798962801
 30
0.0
 10
232.4051248208409
 20
365.2823113806588
 30
0.0
 10
232.4550841642869
 20
365.3678289156843
 30
0.0
 10
232.5933667864816
 20
365.5595081885967
 30
0.0
 10
232.6798741275805
 20
365.6635861532876
 30
0.0
 10
232.8837311823355
 20
365.8816348498193
 30
0.0
 10
233.0027241471783
 20
365.996909111829
 30
0.0
 10
233.1313188088944
 20
366.1095523233752
 30
0.0
  0
LINE
  5
182
330
163
100
AcDbEntity
  8
0-11MG
  6
Continuous
 62
     7
100
AcDbLine
 10
228.7459333371
 20
373.5095523234
 30
0.0
 11
228.7459333371
 21
365.1095523234
 31
0.0
  0
LINE
  5
183
330
163
100
AcDbEntity
  8
0-11MG
  6
Continuous
 62
     7
100
AcDbLine
 10
228.7459333371
 20
365.1095523234
 30
0.0
 11
232.3884504821
 21
365.1095523234
 31
0.0
  0
LINE
  5
184
330
163
100
AcDbEntity
  8
0-11MG
  6
Continuous
 62
     7
100
AcDbLine
 10
232.3626266703
 20
373.5095523234
 30
0.0
 11
228.7459333371
 21
373.5095523234
 31
0.0
  0
LINE
  5
185
330
163
100
AcDbEntity
  8
0-11MG
  6
Continuous
 62
     7
100
AcDbLine
 10
225.8059033209
 20
366.1095523234
 30
0.0
 11
216.7966108634
 21
366.1095523234
 31
0.0
  0
LINE
  5
186
330
163
100
AcDbEntity
  8
0-11MG
  6
Continuous
 62
     7
100
AcDbLine
 10
225.8059033209
 20
366.1095523234
 30
0.0
 11
225.8059033209
 21
373.5095523234
 31
0.0
  0
LINE
  5
187
330
163
100
AcDbEntity
  8
0-11MG
  6
Continuous
 62
     7
100
AcDbLine
 10
292.787318406
 20
366.1095523234
 30
0.0
 11
301.7966108634
 21
366.1095523234
 31
0.0
  0
LINE
  5
188
330
163
100
AcDbEntity
  8
0-11MG
  6
Continuous
 62
     7
100
AcDbLine
 10
292.787318406
 20
373.5095523234
 30
0.0
 11
292.787318406
 21
366.1095523234
 31
0.0
  0
LINE
  5
189
330
163
100
AcDbEntity
  8
0-11MG
  6
Continuous
 62
     7
100
AcDbLine
 10
231.7966108634
 20
376.5095523234
 30
0.0
 11
286.7966108634
 21
376.5095523234
 31
0.0
  0
LINE
  5
18A
330
163
100
AcDbEntity
  8
0-11MG
  6
Continuous
 62
     7
100
AcDbLine
 10
225.8059033209
 20
373.5095523234
 30
0.0
 11
216.7966108634
 21
373.5095523234
 31
0.0
  0
LINE
  5
18B
330
163
100
AcDbEntity
  8
0-11MG
  6
Continuous
 62
     7
100
AcDbLine
 10
225.8059033209
 20
373.5095523234
 30
0.0
 11
228.7459333371
 21
373.5095523234
 31
0.0
  0
LINE
  5
18C
330
163
100
AcDbEntity
  8
0-11MG
  6
Continuous
 62
     7
100
AcDbLine
 10
232.3626266703
 20
373.5095523234
 30
0.0
 11
233.1313188089
 21
373.5095523234
 31
0.0
  0
LINE
  5
18D
330
163
100
AcDbEntity
  8
0-11MG
  6
Continuous
 62
     7
100
AcDbLine
 10
233.1313188089
 20
373.5095523234
 30
0.0
 11
285.461902918
 21
373.5095523234
 31
0.0
  0
LINE
  5
18E
330
163
100
AcDbEntity
  8
0-11MG
  6
Continuous
 62
     7
100
AcDbLine
 10
285.461902918
 20
373.5095523234
 30
0.0
 11
286.2305950566
 21
373.5095523234
 31
0.0
  0
LINE
  5
18F
330
163
100
AcDbEntity
  8
0-11MG
  6
Continuous
 62
     7
100
AcDbLine
 10
289.8472883897
 20
373.5095523234
 30
0.0
 11
292.787318406
 21
373.5095523234
 31
0.0
  0
LINE
  5
190
330
163
100
AcDbEntity
  8
0-11MG
  6
Continuous
 62
     7
100
AcDbLine
 10
292.787318406
 20
373.5095523234
 30
0.0
 11
301.7966108634
 21
373.5095523234
 31
0.0
  0
LINE
  5
191
330
163
100
AcDbEntity
  8
0-11MG
  6
Continuous
 62
     7
100
AcDbLine
 10
286.2047712447
 20
365.1095523234
 30
0.0
 11
232.3884504821
 21
365.1095523234
 31
0.0
  0
LINE
  5
192
330
163
100
AcDbEntity
  8
0-11MG
  6
Continuous
 62
     7
100
AcDbLine
 10
217.7966108634
 20
365.1095523234
 30
0.0
 11
227.7022932589
 21
365.1095523234
 31
0.0
  0
LINE
  5
193
330
163
100
AcDbEntity
  8
0-11MG
  6
Continuous
 62
     7
100
AcDbLine
 10
300.7966108634
 20
365.1095523234
 30
0.0
 11
290.8909284679
 21
365.1095523234
 31
0.0
  0
LINE
  5
194
330
163
100
AcDbEntity
  8
0-11MG
  6
Continuous
 62
     7
100
AcDbLine
 10
290.8909284679
 20
365.1095523234
 30
0.0
 11
289.8472883897
 21
365.1095523234
 31
0.0
  0
LINE
  5
195
330
163
100
AcDbEntity
  8
0-11MG
  6
Continuous
 62
     7
100
AcDbLine
 10
232.4712398908
 20
363.6271904136
 30
0.0
 11
286.121981836
 21
363.6271904136
 31
0.0
  0
LINE
  5
196
330
163
100
AcDbEntity
  8
0-11MG
  6
Continuous
 62
     7
100
AcDbLine
 10
284.5899453272
 20
357.9095523234
 30
0.0
 11
234.0032763997
 21
357.9095523234
 31
0.0
  0
LINE
  5
197
330
163
100
AcDbEntity
  8
0-11MG
  6
Continuous
 62
     7
100
AcDbLine
 10
286.2047712447
 20
365.1095523234
 30
0.0
 11
289.8472883897
 21
365.1095523234
 31
0.0
  0
LINE
  5
198
330
163
100
AcDbEntity
  8
0-11MG
  6
Continuous
 62
     7
100
AcDbLine
 10
289.8472883897
 20
365.1095523234
 30
0.0
 11
289.8472883897
 21
373.5095523234
 31
0.0
  0
LINE
  5
199
330
163
100
AcDbEntity
  8
0-11MG
  6
Continuous
 62
     7
100
AcDbLine
 10
289.8472883897
 20
373.5095523234
 30
0.0
 11
286.2305950566
 21
373.5095523234
 31
0.0
  0
SPLINE
  5
19A
330
163
100
AcDbEntity
  8
0-11MG
  6
Continuous
 62
     7
100
AcDbSpline
210
0.0
220
0.0
230
1.0
 70
     8
 71
     3
 72
    14
 73
    10
 74
     0
 42
0.0000000068989975
 43
0.0000000001
 40
0.0
 40
0.0
 40
0.0
 40
0.0
 40
0.2500000000000008
 40
0.2500000000000008
 40
0.5000000000000014
 40
0.5000000000000014
 40
0.7500000000000021
 40
0.7500000000000021
 40
0.86277534273096
 40
0.86277534273096
 40
0.86277534273096
 40
0.86277534273096
 10
285.4619029179511
 20
366.1095523233752
 30
0.0
 10
285.5904975796597
 20
365.9969091118152
 30
0.0
 10
285.70949054451
 20
365.8816348498193
 30
0.0
 10
285.913347599265
 20
365.6635861532876
 30
0.0
 10
285.9998549403639
 20
365.5595081885967
 30
0.0
 10
286.1381375625586
 20
365.3678289156843
 30
0.0
 10
286.1880969060047
 20
365.2823113806588
 30
0.0
 10
286.2243631129802
 20
365.1882798962801
 30
0.0
 10
286.2303950227796
 20
365.1634274028022
 30
0.0
 10
286.2305879244753
 20
365.1450624133154
 30
0.0
  0
ARC
  5
19B
330
163
100
AcDbEntity
  8
0-11MG
  6
Continuous
 62
     7
100
AcDbCircle
 10
290.6166396275
 20
367.9278583191
 30
0.0
 40
2.831621982821411
100
AcDbArc
 50
275.558748368
 51
320.0482024581
  0
LINE
  5
19C
330
163
100
AcDbEntity
  8
0-11MG
  6
Continuous
 62
     7
100
AcDbLine
 10
254.2966040837
 20
403.7095523234
 30
0.0
 11
264.2966040837
 21
403.7095523234
 31
0.0
  0
LINE
  5
19D
330
163
100
AcDbEntity
  8
0-11MG
  6
Continuous
 62
     7
100
AcDbLine
 10
263.4966040837
 20
404.5095523234
 30
0.0
 11
255.0966040837
 21
404.5095523234
 31
0.0
  0
LINE
  5
19E
330
163
100
AcDbEntity
  8
0-11MG
  6
Continuous
 62
     7
100
AcDbLine
 10
283.7966040837
 20
279.0095523234
 30
0.0
 11
284.2966040837
 21
279.0095523234
 31
0.0
  0
LINE
  5
19F
330
163
100
AcDbEntity
  8
0-11MG
  6
Continuous
 62
     7
100
AcDbLine
 10
223.2966040837
 20
353.0095523234
 30
0.0
 11
233.2966040837
 21
353.0095523234
 31
0.0
  0
LINE
  5
1A0
330
163
100
AcDbEntity
  8
0-11MG
  6
Continuous
 62
     7
100
AcDbLine
 10
233.2966040837
 20
351.0095523234
 30
0.0
 11
223.2966040837
 21
351.0095523234
 31
0.0
  0
LINE
  5
1A1
330
163
100
AcDbEntity
  8
0-11MG
  6
Continuous
 62
     7
100
AcDbLine
 10
223.2966040837
 20
279.0095523234
 30
0.0
 11
233.2966040837
 21
279.0095523234
 31
0.0
  0
LINE
  5
1A2
330
163
100
AcDbEntity
  8
0-11MG
  6
Continuous
 62
     7
100
AcDbLine
 10
233.2966040837
 20
281.0095523234
 30
0.0
 11
223.2966040837
 21
281.0095523234
 31
0.0
  0
LINE
  5
1A3
330
163
100
AcDbEntity
  8
0-11MG
  6
Continuous
 62
     7
100
AcDbLine
 10
222.2966040837
 20
352.0095523234
 30
0.0
 11
223.2966040837
 21
351.0095523234
 31
0.0
  0
LINE
  5
1A4
330
163
100
AcDbEntity
  8
0-11MG
  6
Continuous
 62
     7
100
AcDbLine
 10
221.2966040837
 20
281.0095523234
 30
0.0
 11
221.2966040837
 21
351.0095523234
 31
0.0
  0
LINE
  5
1A5
330
163
100
AcDbEntity
  8
0-11MG
  6
Continuous
 62
     7
100
AcDbLine
 10
222.2966040837
 20
352.0095523234
 30
0.0
 11
223.2966040837
 21
353.0095523234
 31
0.0
  0
LINE
  5
1A6
330
163
100
AcDbEntity
  8
0-11MG
  6
Continuous
 62
     7
100
AcDbLine
 10
221.2966040837
 20
281.0095523234
 30
0.0
 11
222.2966040837
 21
280.0095523234
 31
0.0
  0
LINE
  5
1A7
330
163
100
AcDbEntity
  8
0-11MG
  6
Continuous
 62
     7
100
AcDbLine
 10
222.2966040837
 20
280.0095523234
 30
0.0
 11
223.2966040837
 21
281.0095523234
 31
0.0
  0
LINE
  5
1A8
330
163
100
AcDbEntity
  8
0-11MG
  6
Continuous
 62
     7
100
AcDbLine
 10
223.2966040837
 20
281.0095523234
 30
0.0
 11
223.2966040837
 21
351.0095523234
 31
0.0
  0
LINE
  5
1A9
330
163
100
AcDbEntity
  8
0-11MG
  6
Continuous
 62
     7
100
AcDbLine
 10
222.2966040837
 20
352.0095523234
 30
0.0
 11
221.2966040837
 21
351.0095523234
 31
0.0
  0
LINE
  5
1AA
330
163
100
AcDbEntity
  8
0-11MG
  6
Continuous
 62
     7
100
AcDbLine
 10
223.2966040837
 20
279.0095523234
 30
0.0
 11
222.2966040837
 21
280.0095523234
 31
0.0
  0
ARC
  5
1AB
330
163
100
AcDbEntity
  8
0-11MG
  6
Continuous
 62
     7
100
AcDbCircle
 10
217.7966108634
 20
366.1095523234
 30
0.0
 40
1.000000000000008
100
AcDbArc
 50
180.0
 51
270.0
  0
LINE
  5
1AC
330
163
100
AcDbEntity
  8
0-11MG
  6
Continuous
 62
     7
100
AcDbLine
 10
232.3626266703
 20
373.5095523234
 30
0.0
 11
232.3626266703
 21
365.1616095466
 31
0.0
  0
LINE
  5
1AD
330
163
100
AcDbEntity
  8
0-11MG
  6
Continuous
 62
     7
100
AcDbLine
 10
216.7966108634
 20
373.5095523234
 30
0.0
 11
216.7966108634
 21
366.1095523234
 31
0.0
  0
ARC
  5
1AE
330
163
100
AcDbEntity
  8
0-11MG
  6
Continuous
 62
     7
100
AcDbCircle
 10
300.7966108634
 20
366.1095523234
 30
0.0
 40
1.000000000000001
100
AcDbArc
 50
270.0
 51
0.0
  0
LINE
  5
1AF
330
163
100
AcDbEntity
  8
0-11MG
  6
Continuous
 62
     7
100
AcDbLine
 10
301.7966108634
 20
366.1095523234
 30
0.0
 11
301.7966108634
 21
373.5095523234
 31
0.0
  0
LINE
  5
1B0
330
163
100
AcDbEntity
  8
0-11MG
  6
Continuous
 62
     7
100
AcDbLine
 10
231.7966108634
 20
376.5095523234
 30
0.0
 11
231.7966108634
 21
373.5095523234
 31
0.0
  0
LINE
  5
1B1
330
163
100
AcDbEntity
  8
0-11MG
  6
Continuous
 62
     7
100
AcDbLine
 10
286.7966108634
 20
373.5095523234
 30
0.0
 11
286.7966108634
 21
376.5095523234
 31
0.0
  0
LINE
  5
1B2
330
163
100
AcDbEntity
  8
0-11MG
  6
Continuous
 62
     7
100
AcDbLine
 10
232.4712398908
 20
363.6271904136
 30
0.0
 11
234.0032763997
 21
357.9095523234
 31
0.0
  0
LINE
  5
1B3
330
163
100
AcDbEntity
  8
0-11MG
  6
Continuous
 62
     7
100
AcDbLine
 10
284.5899453272
 20
357.9095523234
 30
0.0
 11
286.121981836
 21
363.6271904136
 31
0.0
  0
LINE
  5
1B4
330
163
100
AcDbEntity
  8
0-11MG
  6
Continuous
 62
     7
100
AcDbLine
 10
234.0032763997
 20
357.9095523234
 30
0.0
 11
234.1569277855
 21
353.5095523234
 31
0.0
  0
LINE
  5
1B5
330
163
100
AcDbEntity
  8
0-11MG
  6
Continuous
 62
     7
100
AcDbLine
 10
284.3978380055
 20
352.4083184016
 30
0.0
 11
284.5899453272
 21
357.9095523234
 31
0.0
  0
ARC
  5
1B6
330
163
100
AcDbEntity
  8
0-11MG
  6
Continuous
 62
     7
100
AcDbCircle
 10
288.0538334886
 20
363.1095523234
 30
0.0
 40
1.999999999999994
100
AcDbArc
 50
90.0
 51
165.0
  0
ARC
  5
1B7
330
163
100
AcDbEntity
  8
0-11MG
  6
Continuous
 62
     7
100
AcDbCircle
 10
230.5393882382
 20
363.1095523234
 30
0.0
 40
2.000000000000002
100
AcDbArc
 50
15.0
 51
90.0
  0
LINE
  5
1B8
330
163
100
AcDbEntity
  8
0-11MG
  6
Continuous
 62
     7
100
AcDbLine
 10
286.2305950566
 20
365.1616095466
 30
0.0
 11
286.2305950566
 21
373.5095523234
 31
0.0
  0
LINE
  5
1B9
330
163
100
AcDbEntity
  8
0-11MG
  6
Continuous
 62
     7
100
AcDbLine
 10
254.2966040837
 20
403.7095523234
 30
0.0
 11
254.2966040837
 21
376.5095523234
 31
0.0
  0
LINE
  5
1BA
330
163
100
AcDbEntity
  8
0-11MG
  6
Continuous
 62
     7
100
AcDbLine
 10
264.2966040837
 20
376.5095523234
 30
0.0
 11
264.2966040837
 21
403.7095523234
 31
0.0
  0
LINE
  5
1BB
330
163
100
AcDbEntity
  8
0-11MG
  6
Continuous
 62
     7
100
AcDbLine
 10
264.2966040837
 20
403.7095523234
 30
0.0
 11
263.4966040837
 21
404.5095523234
 31
0.0
  0
LINE
  5
1BC
330
163
100
AcDbEntity
  8
0-11MG
  6
Continuous
 62
     7
100
AcDbLine
 10
255.0966040837
 20
404.5095523234
 30
0.0
 11
254.2966040837
 21
403.7095523234
 31
0.0
  0
LINE
  5
1BD
330
163
100
AcDbEntity
  8
0-11MG
  6
Continuous
 62
     7
100
AcDbLine
 10
284.2966040837
 20
279.0095523234
 30
0.0
 11
284.2966040837
 21
279.5095523234
 31
0.0
  0
ENDBLK
  5
1BF
330
163
100
AcDbEntity
  8
0
100
AcDbBlockEnd
  0
BLOCK
  5
21F
330
1C0
100
AcDbEntity
  8
0
100
AcDbBlockBegin
  2
SE2
 70
     0
 10
0.0
 20
0.0
 30
0.0
  3
SE2
  1

  0
LINE
  5
1C2
330
1C0
100
AcDbEntity
  8
0-11MG
  6
Continuous
 62
     7
100
AcDbLine
 10
233.2966040837
 20
133.3390267016
 30
0.0
 11
283.2966040837
 21
133.3390267016
 31
0.0
  0
LINE
  5
1C3
330
1C0
100
AcDbEntity
  8
0-11MG
  6
Continuous
 62
     7
100
AcDbLine
 10
233.2966040837
 20
131.3390267016
 30
0.0
 11
233.2966040837
 21
133.3390267016
 31
0.0
  0
LINE
  5
1C4
330
1C0
100
AcDbEntity
  8
0-11MG
  6
Continuous
 62
     7
100
AcDbLine
 10
233.2966040837
 20
60.3390267016
 30
0.0
 11
233.2966040837
 21
131.3390267016
 31
0.0
  0
LINE
  5
1C5
330
1C0
100
AcDbEntity
  8
0-11MG
  6
Continuous
 62
     7
100
AcDbLine
 10
233.2966040837
 20
60.3390267016
 30
0.0
 11
233.2966040837
 21
58.3390267016
 31
0.0
  0
LINE
  5
1C6
330
1C0
100
AcDbEntity
  8
0-11MG
  6
Continuous
 62
     7
100
AcDbLine
 10
285.2966040837
 20
60.3390267016
 30
0.0
 11
285.2966040837
 21
131.3390267016
 31
0.0
  0
LINE
  5
1C7
330
1C0
100
AcDbEntity
  8
0-11MG
  6
Continuous
 62
     7
100
AcDbLine
 10
285.2966040837
 20
131.3390267016
 30
0.0
 11
284.2966040837
 21
132.3390267016
 31
0.0
  0
LINE
  5
1C8
330
1C0
100
AcDbEntity
  8
0-11MG
  6
Continuous
 62
     7
100
AcDbLine
 10
283.2966040837
 20
133.3390267016
 30
0.0
 11
284.2966040837
 21
132.3390267016
 31
0.0
  0
LINE
  5
1C9
330
1C0
100
AcDbEntity
  8
0-11MG
  6
Continuous
 62
     7
100
AcDbLine
 10
284.2966040837
 20
132.3390267016
 30
0.0
 11
283.2966040837
 21
131.3390267016
 31
0.0
  0
LINE
  5
1CA
330
1C0
100
AcDbEntity
  8
0-11MG
  6
Continuous
 62
     7
100
AcDbLine
 10
283.2966040837
 20
131.3390267016
 30
0.0
 11
233.2966040837
 21
131.3390267016
 31
0.0
  0
CIRCLE
  5
1CB
330
1C0
100
AcDbEntity
  8
0-11MG
  6
Continuous
 62
     7
100
AcDbCircle
 10
246.2966040837
 20
125.8390267016
 30
0.0
 40
2.6
  0
CIRCLE
  5
1CC
330
1C0
100
AcDbEntity
  8
0-11MG
  6
Continuous
 62
     7
100
AcDbCircle
 10
272.2966040837
 20
65.8390267016
 30
0.0
 40
2.6
  0
CIRCLE
  5
1CD
330
1C0
100
AcDbEntity
  8
0-11MG
  6
Continuous
 62
     7
100
AcDbCircle
 10
272.2966040837
 20
125.8390267016
 30
0.0
 40
2.6
  0
CIRCLE
  5
1CE
330
1C0
100
AcDbEntity
  8
0-11MG
  6
Continuous
 62
     7
100
AcDbCircle
 10
246.2966040837
 20
65.8390267016
 30
0.0
 40
2.6
  0
LINE
  5
1CF
330
1C0
100
AcDbEntity
  8
0-11MG
  6
Continuous
 62
     7
100
AcDbLine
 10
283.2966040837
 20
60.3390267016
 30
0.0
 11
283.2966040837
 21
131.3390267016
 31
0.0
  0
LINE
  5
1D0
330
1C0
100
AcDbEntity
  8
0-11MG
  6
Continuous
 62
     7
100
AcDbLine
 10
283.2966040837
 20
60.3390267016
 30
0.0
 11
233.2966040837
 21
60.3390267016
 31
0.0
  0
LINE
  5
1D1
330
1C0
100
AcDbEntity
  8
0-11MG
  6
Continuous
 62
     7
100
AcDbLine
 10
283.2966040837
 20
60.3390267016
 30
0.0
 11
284.2966040837
 21
59.3390267016
 31
0.0
  0
LINE
  5
1D2
330
1C0
100
AcDbEntity
  8
0-11MG
  6
Continuous
 62
     7
100
AcDbLine
 10
283.2966040837
 20
58.3390267016
 30
0.0
 11
284.2966040837
 21
59.3390267016
 31
0.0
  0
LINE
  5
1D3
330
1C0
100
AcDbEntity
  8
0-11MG
  6
Continuous
 62
     7
100
AcDbLine
 10
283.2966040837
 20
58.3390267016
 30
0.0
 11
233.2966040837
 21
58.3390267016
 31
0.0
  0
LINE
  5
1D4
330
1C0
100
AcDbEntity
  8
0-11MG
  6
Continuous
 62
     7
100
AcDbLine
 10
285.2966040837
 20
60.3390267016
 30
0.0
 11
284.2966040837
 21
59.3390267016
 31
0.0
  0
CIRCLE
  5
1D5
330
1C0
100
AcDbEntity
  8
0-11MG
  6
Continuous
 62
     7
100
AcDbCircle
 10
246.2966040837
 20
125.8390267016
 30
0.0
 40
2.1
  0
CIRCLE
  5
1D6
330
1C0
100
AcDbEntity
  8
0-11MG
  6
Continuous
 62
     7
100
AcDbCircle
 10
272.2966040837
 20
65.8390267016
 30
0.0
 40
2.1
  0
CIRCLE
  5
1D7
330
1C0
100
AcDbEntity
  8
0-11MG
  6
Continuous
 62
     7
100
AcDbCircle
 10
272.2966040837
 20
125.8390267016
 30
0.0
 40
2.1
  0
CIRCLE
  5
1D8
330
1C0
100
AcDbEntity
  8
0-11MG
  6
Continuous
 62
     7
100
AcDbCircle
 10
246.2966040837
 20
65.8390267016
 30
0.0
 40
2.1
  0
LINE
  5
1D9
330
1C0
100
AcDbEntity
  8
0-11MG
  6
Continuous
 62
     7
100
AcDbLine
 10
225.8059033209
 20
45.7390267016
 30
0.0
 11
216.7966108634
 21
45.7390267016
 31
0.0
  0
LINE
  5
1DA
330
1C0
100
AcDbEntity
  8
0-11MG
  6
Continuous
 62
     7
100
AcDbLine
 10
225.8059033209
 20
38.3390267016
 30
0.0
 11
225.8059033209
 21
45.7390267016
 31
0.0
  0
SPLINE
  5
1DB
330
1C0
100
AcDbEntity
  8
0-11MG
  6
Continuous
 62
     7
100
AcDbSpline
210
0.0
220
0.0
230
1.0
 70
     8
 71
     3
 72
    14
 73
    10
 74
     0
 42
0.0000000068989975
 43
0.0000000001
 40
0.0
 40
0.0
 40
0.0
 40
0.0
 40
0.2499999999999993
 40
0.2499999999999993
 40
0.4999999999999987
 40
0.4999999999999987
 40
0.7499999999999979
 40
0.7499999999999979
 40
0.8627753427309957
 40
0.8627753427309957
 40
0.8627753427309957
 40
0.8627753427309957
 10
233.1313188088951
 20
45.7390267016458
 30
0.0
 10
233.0027241471865
 20
45.85166991320587
 30
0.0
 10
232.8837311823362
 20
45.96694417520183
 30
0.0
 10
232.6798741275812
 20
46.18499287173344
 30
0.0
 10
232.5933667864823
 20
46.28907083642426
 30
0.0
 10
232.4550841642876
 20
46.48075010933667
 30
0.0
 10
232.4051248208415
 20
46.56626764436226
 30
0.0
 10
232.368858613866
 20
46.66029912874094
 30
0.0
 10
232.3628267040666
 20
46.6851516222188
 30
0.0
 10
232.3626338023709
 20
46.70351661170563
 30
0.0
  0
ARC
  5
1DC
330
1C0
100
AcDbEntity
  8
0-11MG
  6
Continuous
 62
     7
100
AcDbCircle
 10
227.9765820994
 20
43.9207207059
 30
0.0
 40
2.831621982821104
100
AcDbArc
 50
95.558748368
 51
140.0482024581
  0
LINE
  5
1DD
330
1C0
100
AcDbEntity
  8
0-11MG
  6
Continuous
 62
     7
100
AcDbLine
 10
232.3884504821
 20
46.7390267016
 30
0.0
 11
228.7459333371
 21
46.7390267016
 31
0.0
  0
LINE
  5
1DE
330
1C0
100
AcDbEntity
  8
0-11MG
  6
Continuous
 62
     7
100
AcDbLine
 10
228.7459333371
 20
46.7390267016
 30
0.0
 11
228.7459333371
 21
38.3390267016
 31
0.0
  0
LINE
  5
1DF
330
1C0
100
AcDbEntity
  8
0-11MG
  6
Continuous
 62
     7
100
AcDbLine
 10
228.7459333371
 20
38.3390267016
 30
0.0
 11
232.3626266703
 21
38.3390267016
 31
0.0
  0
LINE
  5
1E0
330
1C0
100
AcDbEntity
  8
0-11MG
  6
Continuous
 62
     7
100
AcDbLine
 10
285.461902918
 20
45.7390267016
 30
0.0
 11
233.1313188089
 21
45.7390267016
 31
0.0
  0
LINE
  5
1E1
330
1C0
100
AcDbEntity
  8
0-11MG
  6
Continuous
 62
     7
100
AcDbLine
 10
233.1313188089
 20
45.7390267016
 30
0.0
 11
233.1313188089
 21
38.3390267016
 31
0.0
  0
LINE
  5
1E2
330
1C0
100
AcDbEntity
  8
0-11MG
  6
Continuous
 62
     7
100
AcDbLine
 10
285.461902918
 20
38.3390267016
 30
0.0
 11
285.461902918
 21
45.7390267016
 31
0.0
  0
ARC
  5
1E3
330
1C0
100
AcDbEntity
  8
0-11MG
  6
Continuous
 62
     7
100
AcDbCircle
 10
290.6166396275
 20
43.9207207059
 30
0.0
 40
2.831621982821261
100
AcDbArc
 50
39.9517975419
 51
84.441251632
  0
LINE
  5
1E4
330
1C0
100
AcDbEntity
  8
0-11MG
  6
Continuous
 62
     7
100
AcDbLine
 10
290.8909284679
 20
46.7390267016
 30
0.0
 11
289.8472883897
 21
46.7390267016
 31
0.0
  0
SPLINE
  5
1E5
330
1C0
100
AcDbEntity
  8
0-11MG
  6
Continuous
 62
     7
100
AcDbSpline
210
0.0
220
0.0
230
1.0
 70
     8
 71
     3
 72
    14
 73
    10
 74
     0
 42
0.0000000068989975
 43
0.0000000001
 40
0.137224657269028
 40
0.137224657269028
 40
0.137224657269028
 40
0.137224657269028
 40
0.2500000000000021
 40
0.2500000000000021
 40
0.5000000000000014
 40
0.5000000000000014
 40
0.7500000000000008
 40
0.7500000000000008
 40
1.0
 40
1.0
 40
1.0
 40
1.0
 10
286.2305879244759
 20
46.70351661170562
 30
0.0
 10
286.2303950227803
 20
46.68515162221878
 30
0.0
 10
286.2243631129808
 20
46.66029912874091
 30
0.0
 10
286.1880969060053
 20
46.56626764436223
 30
0.0
 10
286.1381375625593
 20
46.48075010933666
 30
0.0
 10
285.9998549403646
 20
46.28907083642427
 30
0.0
 10
285.9133475992656
 20
46.18499287173341
 30
0.0
 10
285.7094905445106
 20
45.9669441752018
 30
0.0
 10
285.590497579668
 20
45.85166991319181
 30
0.0
 10
285.4619029179518
 20
45.73902670164579
 30
0.0
  0
LINE
  5
1E6
330
1C0
100
AcDbEntity
  8
0-11MG
  6
Continuous
 62
     7
100
AcDbLine
 10
289.8472883897
 20
38.3390267016
 30
0.0
 11
289.8472883897
 21
46.7390267016
 31
0.0
  0
LINE
  5
1E7
330
1C0
100
AcDbEntity
  8
0-11MG
  6
Continuous
 62
     7
100
AcDbLine
 10
289.8472883897
 20
46.7390267016
 30
0.0
 11
286.2047712447
 21
46.7390267016
 31
0.0
  0
LINE
  5
1E8
330
1C0
100
AcDbEntity
  8
0-11MG
  6
Continuous
 62
     7
100
AcDbLine
 10
286.2305950566
 20
38.3390267016
 30
0.0
 11
289.8472883897
 21
38.3390267016
 31
0.0
  0
LINE
  5
1E9
330
1C0
100
AcDbEntity
  8
0-11MG
  6
Continuous
 62
     7
100
AcDbLine
 10
292.787318406
 20
45.7390267016
 30
0.0
 11
301.7966108634
 21
45.7390267016
 31
0.0
  0
LINE
  5
1EA
330
1C0
100
AcDbEntity
  8
0-11MG
  6
Continuous
 62
     7
100
AcDbLine
 10
292.787318406
 20
45.7390267016
 30
0.0
 11
292.787318406
 21
38.3390267016
 31
0.0
  0
LINE
  5
1EB
330
1C0
100
AcDbEntity
  8
0-11MG
  6
Continuous
 62
     7
100
AcDbLine
 10
231.7966108634
 20
35.3390267016
 30
0.0
 11
286.7966108634
 21
35.3390267016
 31
0.0
  0
LINE
  5
1EC
330
1C0
100
AcDbEntity
  8
0-11MG
  6
Continuous
 62
     7
100
AcDbLine
 10
225.8059033209
 20
38.3390267016
 30
0.0
 11
216.7966108634
 21
38.3390267016
 31
0.0
  0
LINE
  5
1ED
330
1C0
100
AcDbEntity
  8
0-11MG
  6
Continuous
 62
     7
100
AcDbLine
 10
292.787318406
 20
38.3390267016
 30
0.0
 11
301.7966108634
 21
38.3390267016
 31
0.0
  0
LINE
  5
1EE
330
1C0
100
AcDbEntity
  8
0-11MG
  6
Continuous
 62
     7
100
AcDbLine
 10
292.787318406
 20
38.3390267016
 30
0.0
 11
289.8472883897
 21
38.3390267016
 31
0.0
  0
LINE
  5
1EF
330
1C0
100
AcDbEntity
  8
0-11MG
  6
Continuous
 62
     7
100
AcDbLine
 10
286.2305950566
 20
38.3390267016
 30
0.0
 11
285.461902918
 21
38.3390267016
 31
0.0
  0
LINE
  5
1F0
330
1C0
100
AcDbEntity
  8
0-11MG
  6
Continuous
 62
     7
100
AcDbLine
 10
285.461902918
 20
38.3390267016
 30
0.0
 11
233.1313188089
 21
38.3390267016
 31
0.0
  0
LINE
  5
1F1
330
1C0
100
AcDbEntity
  8
0-11MG
  6
Continuous
 62
     7
100
AcDbLine
 10
233.1313188089
 20
38.3390267016
 30
0.0
 11
232.3626266703
 21
38.3390267016
 31
0.0
  0
LINE
  5
1F2
330
1C0
100
AcDbEntity
  8
0-11MG
  6
Continuous
 62
     7
100
AcDbLine
 10
228.7459333371
 20
38.3390267016
 30
0.0
 11
225.8059033209
 21
38.3390267016
 31
0.0
  0
LINE
  5
1F3
330
1C0
100
AcDbEntity
  8
0-11MG
  6
Continuous
 62
     7
100
AcDbLine
 10
217.7966108634
 20
46.7390267016
 30
0.0
 11
227.7022932589
 21
46.7390267016
 31
0.0
  0
LINE
  5
1F4
330
1C0
100
AcDbEntity
  8
0-11MG
  6
Continuous
 62
     7
100
AcDbLine
 10
227.7022932589
 20
46.7390267016
 30
0.0
 11
228.7459333371
 21
46.7390267016
 31
0.0
  0
LINE
  5
1F5
330
1C0
100
AcDbEntity
  8
0-11MG
  6
Continuous
 62
     7
100
AcDbLine
 10
232.3884504821
 20
46.7390267016
 30
0.0
 11
286.2047712447
 21
46.7390267016
 31
0.0
  0
LINE
  5
1F6
330
1C0
100
AcDbEntity
  8
0-11MG
  6
Continuous
 62
     7
100
AcDbLine
 10
300.7966108634
 20
46.7390267016
 30
0.0
 11
290.8909284679
 21
46.7390267016
 31
0.0
  0
LINE
  5
1F7
330
1C0
100
AcDbEntity
  8
0-11MG
  6
Continuous
 62
     7
100
AcDbLine
 10
232.4712398908
 20
48.2213886114
 30
0.0
 11
286.121981836
 21
48.2213886114
 31
0.0
  0
LINE
  5
1F8
330
1C0
100
AcDbEntity
  8
0-11MG
  6
Continuous
 62
     7
100
AcDbLine
 10
284.5899453272
 20
53.9390267016
 30
0.0
 11
234.0032763997
 21
53.9390267016
 31
0.0
  0
LINE
  5
1F9
330
1C0
100
AcDbEntity
  8
0-11MG
  6
Continuous
 62
     7
100
AcDbLine
 10
254.2966040837
 20
8.1390267016
 30
0.0
 11
264.2966040837
 21
8.1390267016
 31
0.0
  0
LINE
  5
1FA
330
1C0
100
AcDbEntity
  8
0-11MG
  6
Continuous
 62
     7
100
AcDbLine
 10
257.7966040837
 20
11.3390267016
 30
0.0
 11
257.7966040837
 21
28.3390267016
 31
0.0
  0
ARC
  5
1FB
330
1C0
100
AcDbEntity
  8
0-11MG
  6
Continuous
 62
     7
100
AcDbCircle
 10
259.2966040837
 20
28.3390267016
 30
0.0
 40
1.500000000000001
100
AcDbArc
 50
0.0
 51
180.0
  0
LINE
  5
1FC
330
1C0
100
AcDbEntity
  8
0-11MG
  6
Continuous
 62
     7
100
AcDbLine
 10
260.7966040837
 20
28.3390267016
 30
0.0
 11
260.7966040837
 21
11.3390267016
 31
0.0
  0
ARC
  5
1FD
330
1C0
100
AcDbEntity
  8
0-11MG
  6
Continuous
 62
     7
100
AcDbCircle
 10
259.2966040837
 20
11.3390267016
 30
0.0
 40
1.500000000000003
100
AcDbArc
 50
180.0
 51
0.0
  0
LINE
  5
1FE
330
1C0
100
AcDbEntity
  8
0-11MG
  6
Continuous
 62
     7
100
AcDbLine
 10
263.4966040837
 20
7.3390267016
 30
0.0
 11
255.0966040837
 21
7.3390267016
 31
0.0
  0
LINE
  5
1FF
330
1C0
100
AcDbEntity
  8
0-11MG
  6
Continuous
 62
     7
100
AcDbLine
 10
283.7966040837
 20
132.8390267016
 30
0.0
 11
284.2966040837
 21
132.8390267016
 31
0.0
  0
LINE
  5
200
330
1C0
100
AcDbEntity
  8
0-11MG
  6
Continuous
 62
     7
100
AcDbLine
 10
223.2966040837
 20
130.8390267016
 30
0.0
 11
233.2966040837
 21
130.8390267016
 31
0.0
  0
LINE
  5
201
330
1C0
100
AcDbEntity
  8
0-11MG
  6
Continuous
 62
     7
100
AcDbLine
 10
233.2966040837
 20
132.8390267016
 30
0.0
 11
223.2966040837
 21
132.8390267016
 31
0.0
  0
LINE
  5
202
330
1C0
100
AcDbEntity
  8
0-11MG
  6
Continuous
 62
     7
100
AcDbLine
 10
223.2966040837
 20
132.8390267016
 30
0.0
 11
222.2966040837
 21
131.8390267016
 31
0.0
  0
LINE
  5
203
330
1C0
100
AcDbEntity
  8
0-11MG
  6
Continuous
 62
     7
100
AcDbLine
 10
222.2966040837
 20
131.8390267016
 30
0.0
 11
223.2966040837
 21
130.8390267016
 31
0.0
  0
LINE
  5
204
330
1C0
100
AcDbEntity
  8
0-11MG
  6
Continuous
 62
     7
100
AcDbLine
 10
223.2966040837
 20
58.8390267016
 30
0.0
 11
233.2966040837
 21
58.8390267016
 31
0.0
  0
LINE
  5
205
330
1C0
100
AcDbEntity
  8
0-11MG
  6
Continuous
 62
     7
100
AcDbLine
 10
233.2966040837
 20
60.8390267016
 30
0.0
 11
223.2966040837
 21
60.8390267016
 31
0.0
  0
LINE
  5
206
330
1C0
100
AcDbEntity
  8
0-11MG
  6
Continuous
 62
     7
100
AcDbLine
 10
223.2966040837
 20
60.8390267016
 30
0.0
 11
222.2966040837
 21
59.8390267016
 31
0.0
  0
LINE
  5
207
330
1C0
100
AcDbEntity
  8
0-11MG
  6
Continuous
 62
     7
100
AcDbLine
 10
222.2966040837
 20
59.8390267016
 30
0.0
 11
223.2966040837
 21
58.8390267016
 31
0.0
  0
LINE
  5
208
330
1C0
100
AcDbEntity
  8
0-11MG
  6
Continuous
 62
     7
100
AcDbLine
 10
221.2966040837
 20
60.8390267016
 30
0.0
 11
221.2966040837
 21
130.8390267016
 31
0.0
  0
LINE
  5
209
330
1C0
100
AcDbEntity
  8
0-11MG
  6
Continuous
 62
     7
100
AcDbLine
 10
223.2966040837
 20
60.8390267016
 30
0.0
 11
223.2966040837
 21
130.8390267016
 31
0.0
  0
LINE
  5
20A
330
1C0
100
AcDbEntity
  8
0-11MG
  6
Continuous
 62
     7
100
AcDbLine
 10
222.2966040837
 20
59.8390267016
 30
0.0
 11
221.2966040837
 21
60.8390267016
 31
0.0
  0
LINE
  5
20B
330
1C0
100
AcDbEntity
  8
0-11MG
  6
Continuous
 62
     7
100
AcDbLine
 10
221.2966040837
 20
130.8390267016
 30
0.0
 11
222.2966040837
 21
131.8390267016
 31
0.0
  0
ARC
  5
20C
330
1C0
100
AcDbEntity
  8
0-11MG
  6
Continuous
 62
     7
100
AcDbCircle
 10
217.7966108634
 20
45.7390267016
 30
0.0
 40
1.000000000000001
100
AcDbArc
 50
90.0
 51
180.0
  0
LINE
  5
20D
330
1C0
100
AcDbEntity
  8
0-11MG
  6
Continuous
 62
     7
100
AcDbLine
 10
216.7966108634
 20
45.7390267016
 30
0.0
 11
216.7966108634
 21
38.3390267016
 31
0.0
  0
LINE
  5
20E
330
1C0
100
AcDbEntity
  8
0-11MG
  6
Continuous
 62
     7
100
AcDbLine
 10
232.3626266703
 20
46.6869694784
 30
0.0
 11
232.3626266703
 21
38.3390267016
 31
0.0
  0
ARC
  5
20F
330
1C0
100
AcDbEntity
  8
0-11MG
  6
Continuous
 62
     7
100
AcDbCircle
 10
300.7966108634
 20
45.7390267016
 30
0.0
 40
1.000000000000015
100
AcDbArc
 50
0.0
 51
90.0
  0
LINE
  5
210
330
1C0
100
AcDbEntity
  8
0-11MG
  6
Continuous
 62
     7
100
AcDbLine
 10
286.2305950566
 20
38.3390267016
 30
0.0
 11
286.2305950566
 21
46.6869694784
 31
0.0
  0
LINE
  5
211
330
1C0
100
AcDbEntity
  8
0-11MG
  6
Continuous
 62
     7
100
AcDbLine
 10
301.7966108634
 20
38.3390267016
 30
0.0
 11
301.7966108634
 21
45.7390267016
 31
0.0
  0
LINE
  5
212
330
1C0
100
AcDbEntity
  8
0-11MG
  6
Continuous
 62
     7
100
AcDbLine
 10
286.7966108634
 20
35.3390267016
 30
0.0
 11
286.7966108634
 21
38.3390267016
 31
0.0
  0
LINE
  5
213
330
1C0
100
AcDbEntity
  8
0-11MG
  6
Continuous
 62
     7
100
AcDbLine
 10
231.7966108634
 20
38.3390267016
 30
0.0
 11
231.7966108634
 21
35.3390267016
 31
0.0
  0
LINE
  5
214
330
1C0
100
AcDbEntity
  8
0-11MG
  6
Continuous
 62
     7
100
AcDbLine
 10
286.121981836
 20
48.2213886114
 30
0.0
 11
284.5899453272
 21
53.9390267016
 31
0.0
  0
LINE
  5
215
330
1C0
100
AcDbEntity
  8
0-11MG
  6
Continuous
 62
     7
100
AcDbLine
 10
234.0032763997
 20
53.9390267016
 30
0.0
 11
232.4712398908
 21
48.2213886114
 31
0.0
  0
LINE
  5
216
330
1C0
100
AcDbEntity
  8
0-11MG
  6
Continuous
 62
     7
100
AcDbLine
 10
284.5899453272
 20
53.9390267016
 30
0.0
 11
284.3978380055
 21
59.4402606234
 31
0.0
  0
LINE
  5
217
330
1C0
100
AcDbEntity
  8
0-11MG
  6
Continuous
 62
     7
100
AcDbLine
 10
234.1569277855
 20
58.3390267016
 30
0.0
 11
234.0032763997
 21
53.9390267016
 31
0.0
  0
ARC
  5
218
330
1C0
100
AcDbEntity
  8
0-11MG
  6
Continuous
 62
     7
100
AcDbCircle
 10
230.5393882382
 20
48.7390267016
 30
0.0
 40
1.999999999999993
100
AcDbArc
 50
270.0
 51
345.0
  0
ARC
  5
219
330
1C0
100
AcDbEntity
  8
0-11MG
  6
Continuous
 62
     7
100
AcDbCircle
 10
288.0538334886
 20
48.7390267016
 30
0.0
 40
2.000000000000002
100
AcDbArc
 50
195.0
 51
270.0
  0
LINE
  5
21A
330
1C0
100
AcDbEntity
  8
0-11MG
  6
Continuous
 62
     7
100
AcDbLine
 10
264.2966040837
 20
8.1390267016
 30
0.0
 11
264.2966040837
 21
35.3390267016
 31
0.0
  0
LINE
  5
21B
330
1C0
100
AcDbEntity
  8
0-11MG
  6
Continuous
 62
     7
100
AcDbLine
 10
254.2966040837
 20
35.3390267016
 30
0.0
 11
254.2966040837
 21
8.1390267016
 31
0.0
  0
LINE
  5
21C
330
1C0
100
AcDbEntity
  8
0-11MG
  6
Continuous
 62
     7
100
AcDbLine
 10
254.2966040837
 20
8.1390267016
 30
0.0
 11
255.0966040837
 21
7.3390267016
 31
0.0
  0
LINE
  5
21D
330
1C0
100
AcDbEntity
  8
0-11MG
  6
Continuous
 62
     7
100
AcDbLine
 10
263.4966040837
 20
7.3390267016
 30
0.0
 11
264.2966040837
 21
8.1390267016
 31
0.0
  0
LINE
  5
21E
330
1C0
100
AcDbEntity
  8
0-11MG
  6
Continuous
 62
     7
100
AcDbLine
 10
284.2966040837
 20
132.3390267016
 30
0.0
 11
284.2966040837
 21
132.8390267016
 31
0.0
  0
ENDBLK
  5
220
330
1C0
100
AcDbEntity
  8
0
100
AcDbBlockEnd
  0
BLOCK
  5
325
330
221
100
AcDbEntity
  8
0
100
AcDbBlockBegin
  2
SE3
 70
     0
 10
0.0
 20
0.0
 30
0.0
  3
SE3
  1

  0
LINE
  5
223
330
221
100
AcDbEntity
  8
0-11MG
  6
Continuous
 62
     7
100
AcDbLine
 10
330.7707996058
 20
188.3253520599
 30
0.0
 11
330.7707996058
 21
175.3253520599
 31
0.0
  0
LINE
  5
224
330
221
100
AcDbEntity
  8
0-11MG
  6
Continuous
 62
     7
100
AcDbLine
 10
330.7707996058
 20
256.3253520599
 30
0.0
 11
330.7707996058
 21
218.3253520599
 31
0.0
  0
LINE
  5
225
330
221
100
AcDbEntity
  8
0-11MG
  6
Continuous
 62
     7
100
AcDbLine
 10
330.7707996058
 20
188.3253520599
 30
0.0
 11
331.2707996058
 21
188.3253520599
 31
0.0
  0
LINE
  5
226
330
221
100
AcDbEntity
  8
0-11MG
  6
Continuous
 62
     7
100
AcDbLine
 10
332.7707996058
 20
173.3253520599
 30
0.0
 11
330.7707996058
 21
175.3253520599
 31
0.0
  0
LINE
  5
227
330
221
100
AcDbEntity
  8
0-11MG
  6
Continuous
 62
     7
100
AcDbLine
 10
332.7707996058
 20
258.3253520599
 30
0.0
 11
330.7707996058
 21
256.3253520599
 31
0.0
  0
LINE
  5
228
330
221
100
AcDbEntity
  8
0-11MG
  6
Continuous
 62
     7
100
AcDbLine
 10
403.7707996058
 20
258.3253520599
 30
0.0
 11
332.7707996058
 21
258.3253520599
 31
0.0
  0
LINE
  5
229
330
221
100
AcDbEntity
  8
0-11MG
  6
Continuous
 62
     7
100
AcDbLine
 10
403.7707996058
 20
258.3253520599
 30
0.0
 11
405.7707996058
 21
256.3253520599
 31
0.0
  0
LINE
  5
22A
330
221
100
AcDbEntity
  8
0-11MG
  6
Continuous
 62
     7
100
AcDbLine
 10
405.7707996058
 20
256.3253520599
 30
0.0
 11
405.7707996058
 21
218.3253520599
 31
0.0
  0
LINE
  5
22B
330
221
100
AcDbEntity
  8
0-11MG
  6
Continuous
 62
     7
100
AcDbLine
 10
405.7707996058
 20
218.3253520599
 30
0.0
 11
405.2707996058
 21
218.3253520599
 31
0.0
  0
LINE
  5
22C
330
221
100
AcDbEntity
  8
0-11MG
  6
Continuous
 62
     7
100
AcDbLine
 10
405.7707996058
 20
188.3253520599
 30
0.0
 11
405.7707996058
 21
175.3253520599
 31
0.0
  0
LINE
  5
22D
330
221
100
AcDbEntity
  8
0-11MG
  6
Continuous
 62
     7
100
AcDbLine
 10
403.7707996058
 20
173.3253520599
 30
0.0
 11
405.7707996058
 21
175.3253520599
 31
0.0
  0
LINE
  5
22E
330
221
100
AcDbEntity
  8
0-11MG
  6
Continuous
 62
     7
100
AcDbLine
 10
332.7707996058
 20
173.3253520599
 30
0.0
 11
403.7707996058
 21
173.3253520599
 31
0.0
  0
LINE
  5
22F
330
221
100
AcDbEntity
  8
0-11MG
  6
Continuous
 62
     7
100
AcDbLine
 10
418.3707996058
 20
169.8346377376
 30
0.0
 11
418.3707996058
 21
160.8253452801
 31
0.0
  0
LINE
  5
230
330
221
100
AcDbEntity
  8
0-11MG
  6
Continuous
 62
     7
100
AcDbLine
 10
425.7707996058
 20
169.8346377376
 30
0.0
 11
418.3707996058
 21
169.8346377376
 31
0.0
  0
SPLINE
  5
231
330
221
100
AcDbEntity
  8
0-11MG
  6
Continuous
 62
     7
100
AcDbSpline
210
0.0
220
0.0
230
1.0
 70
     8
 71
     3
 72
    14
 73
    10
 74
     0
 42
0.0000000068989975
 43
0.0000000001
 40
0.0
 40
0.0
 40
0.0
 40
0.0
 40
0.2500000000000004
 40
0.2500000000000004
 40
0.5000000000000009
 40
0.5000000000000009
 40
0.7500000000000013
 40
0.7500000000000013
 40
0.862775342730972
 40
0.862775342730972
 40
0.862775342730972
 40
0.862775342730972
 10
418.3707996058209
 20
177.1600532256077
 30
0.0
 10
418.2581563942609
 20
177.0314585638992
 30
0.0
 10
418.1428821322649
 20
176.9124655990488
 30
0.0
 10
417.9248334357333
 20
176.7086085442938
 30
0.0
 10
417.8207554710424
 20
176.6221012031948
 30
0.0
 10
417.62907619813
 20
176.4838185810002
 30
0.0
 10
417.5435586631044
 20
176.4338592375541
 30
0.0
 10
417.4495271787258
 20
176.3975930305786
 30
0.0
 10
417.4246746852479
 20
176.3915611207792
 30
0.0
 10
417.4063096957611
 20
176.3913682190835
 30
0.0
  0
ARC
  5
232
330
221
100
AcDbEntity
  8
0-11MG
  6
Continuous
 62
     7
100
AcDbCircle
 10
420.1891056016
 20
172.0053165161
 30
0.0
 40
2.831621982821287
100
AcDbArc
 50
185.558748368
 51
230.0482024581
  0
LINE
  5
233
330
221
100
AcDbEntity
  8
0-11MG
  6
Continuous
 62
     7
100
AcDbLine
 10
417.3707996058
 20
176.4171848988
 30
0.0
 11
417.3707996058
 21
172.7746677538
 31
0.0
  0
LINE
  5
234
330
221
100
AcDbEntity
  8
0-11MG
  6
Continuous
 62
     7
100
AcDbLine
 10
417.3707996058
 20
172.7746677538
 30
0.0
 11
425.7707996058
 21
172.7746677538
 31
0.0
  0
LINE
  5
235
330
221
100
AcDbEntity
  8
0-11MG
  6
Continuous
 62
     7
100
AcDbLine
 10
425.7707996058
 20
172.7746677538
 30
0.0
 11
425.7707996058
 21
176.391361087
 31
0.0
  0
LINE
  5
236
330
221
100
AcDbEntity
  8
0-11MG
  6
Continuous
 62
     7
100
AcDbLine
 10
418.3707996058
 20
229.4906373347
 30
0.0
 11
418.3707996058
 21
177.1600532256
 31
0.0
  0
LINE
  5
237
330
221
100
AcDbEntity
  8
0-11MG
  6
Continuous
 62
     7
100
AcDbLine
 10
418.3707996058
 20
177.1600532256
 30
0.0
 11
425.7707996058
 21
177.1600532256
 31
0.0
  0
LINE
  5
238
330
221
100
AcDbEntity
  8
0-11MG
  6
Continuous
 62
     7
100
AcDbLine
 10
425.7707996058
 20
229.4906373347
 30
0.0
 11
418.3707996058
 21
229.4906373347
 31
0.0
  0
ARC
  5
239
330
221
100
AcDbEntity
  8
0-11MG
  6
Continuous
 62
     7
100
AcDbCircle
 10
420.1891056016
 20
234.6453740442
 30
0.0
 40
2.831621982821249
100
AcDbArc
 50
129.9517975419
 51
174.441251632
  0
LINE
  5
23A
330
221
100
AcDbEntity
  8
0-11MG
  6
Continuous
 62
     7
100
AcDbLine
 10
417.3707996058
 20
234.9196628846
 30
0.0
 11
417.3707996058
 21
233.8760228064
 31
0.0
  0
SPLINE
  5
23B
330
221
100
AcDbEntity
  8
0-11MG
  6
Continuous
 62
     7
100
AcDbSpline
210
0.0
220
0.0
230
1.0
 70
     8
 71
     3
 72
    14
 73
    10
 74
     0
 42
0.0000000068989975
 43
0.0000000001
 40
0.1372246572690436
 40
0.1372246572690436
 40
0.1372246572690436
 40
0.1372246572690436
 40
0.2499999999999957
 40
0.2499999999999957
 40
0.4999999999999971
 40
0.4999999999999971
 40
0.7499999999999986
 40
0.7499999999999986
 40
1.0
 40
1.0
 40
1.0
 40
1.0
 10
417.406309695761
 20
230.2593223411886
 30
0.0
 10
417.4246746852479
 20
230.2591294394929
 30
0.0
 10
417.4495271787258
 20
230.2530975296935
 30
0.0
 10
417.5435586631044
 20
230.2168313227179
 30
0.0
 10
417.62907619813
 20
230.1668719792718
 30
0.0
 10
417.8207554710423
 20
230.0285893570773
 30
0.0
 10
417.9248334357332
 20
229.9420820159783
 30
0.0
 10
418.1428821322648
 20
229.7382249612232
 30
0.0
 10
418.2581563942751
 20
229.6192319963807
 30
0.0
 10
418.3707996058209
 20
229.4906373346643
 30
0.0
  0
LINE
  5
23C
330
221
100
AcDbEntity
  8
0-11MG
  6
Continuous
 62
     7
100
AcDbLine
 10
425.7707996058
 20
233.8760228064
 30
0.0
 11
417.3707996058
 21
233.8760228064
 31
0.0
  0
LINE
  5
23D
330
221
100
AcDbEntity
  8
0-11MG
  6
Continuous
 62
     7
100
AcDbLine
 10
417.3707996058
 20
233.8760228064
 30
0.0
 11
417.3707996058
 21
230.2335056614
 31
0.0
  0
LINE
  5
23E
330
221
100
AcDbEntity
  8
0-11MG
  6
Continuous
 62
     7
100
AcDbLine
 10
425.7707996058
 20
230.2593294733
 30
0.0
 11
425.7707996058
 21
233.8760228064
 31
0.0
  0
LINE
  5
23F
330
221
100
AcDbEntity
  8
0-11MG
  6
Continuous
 62
     7
100
AcDbLine
 10
418.3707996058
 20
236.8160528227
 30
0.0
 11
418.3707996058
 21
245.8253452801
 31
0.0
  0
LINE
  5
240
330
221
100
AcDbEntity
  8
0-11MG
  6
Continuous
 62
     7
100
AcDbLine
 10
418.3707996058
 20
236.8160528227
 30
0.0
 11
425.7707996058
 21
236.8160528227
 31
0.0
  0
LINE
  5
241
330
221
100
AcDbEntity
  8
0-11MG
  6
Continuous
 62
     7
100
AcDbLine
 10
428.7707996058
 20
230.8253452801
 30
0.0
 11
428.7707996058
 21
175.8253452801
 31
0.0
  0
LINE
  5
242
330
221
100
AcDbEntity
  8
0-11MG
  6
Continuous
 62
     7
100
AcDbLine
 10
425.7707996058
 20
229.4906373347
 30
0.0
 11
425.7707996058
 21
177.1600532256
 31
0.0
  0
LINE
  5
243
330
221
100
AcDbEntity
  8
0-11MG
  6
Continuous
 62
     7
100
AcDbLine
 10
425.7707996058
 20
177.1600532256
 30
0.0
 11
425.7707996058
 21
176.391361087
 31
0.0
  0
LINE
  5
244
330
221
100
AcDbEntity
  8
0-11MG
  6
Continuous
 62
     7
100
AcDbLine
 10
425.7707996058
 20
172.7746677538
 30
0.0
 11
425.7707996058
 21
169.8346377376
 31
0.0
  0
LINE
  5
245
330
221
100
AcDbEntity
  8
0-11MG
  6
Continuous
 62
     7
100
AcDbLine
 10
425.7707996058
 20
169.8346377376
 30
0.0
 11
425.7707996058
 21
160.8253452801
 31
0.0
  0
LINE
  5
246
330
221
100
AcDbEntity
  8
0-11MG
  6
Continuous
 62
     7
100
AcDbLine
 10
425.7707996058
 20
236.8160528227
 30
0.0
 11
425.7707996058
 21
245.8253452801
 31
0.0
  0
LINE
  5
247
330
221
100
AcDbEntity
  8
0-11MG
  6
Continuous
 62
     7
100
AcDbLine
 10
425.7707996058
 20
236.8160528227
 30
0.0
 11
425.7707996058
 21
233.8760228064
 31
0.0
  0
LINE
  5
248
330
221
100
AcDbEntity
  8
0-11MG
  6
Continuous
 62
     7
100
AcDbLine
 10
425.7707996058
 20
230.2593294733
 30
0.0
 11
425.7707996058
 21
229.4906373347
 31
0.0
  0
LINE
  5
249
330
221
100
AcDbEntity
  8
0-11MG
  6
Continuous
 62
     7
100
AcDbLine
 10
417.3707996058
 20
161.8253452801
 30
0.0
 11
417.3707996058
 21
171.7310276756
 31
0.0
  0
LINE
  5
24A
330
221
100
AcDbEntity
  8
0-11MG
  6
Continuous
 62
     7
100
AcDbLine
 10
417.3707996058
 20
171.7310276756
 30
0.0
 11
417.3707996058
 21
172.7746677538
 31
0.0
  0
LINE
  5
24B
330
221
100
AcDbEntity
  8
0-11MG
  6
Continuous
 62
     7
100
AcDbLine
 10
417.3707996058
 20
176.4171848988
 30
0.0
 11
417.3707996058
 21
230.2335056615
 31
0.0
  0
LINE
  5
24C
330
221
100
AcDbEntity
  8
0-11MG
  6
Continuous
 62
     7
100
AcDbLine
 10
417.3707996058
 20
244.8253452801
 30
0.0
 11
417.3707996058
 21
234.9196628846
 31
0.0
  0
LINE
  5
24D
330
221
100
AcDbEntity
  8
0-11MG
  6
Continuous
 62
     7
100
AcDbLine
 10
415.888437696
 20
230.1507162527
 30
0.0
 11
415.888437696
 21
176.4999743075
 31
0.0
  0
LINE
  5
24E
330
221
100
AcDbEntity
  8
0-11MG
  6
Continuous
 62
     7
100
AcDbLine
 10
410.1707996058
 20
228.6186797439
 30
0.0
 11
410.1707996058
 21
178.0320108164
 31
0.0
  0
LINE
  5
24F
330
221
100
AcDbEntity
  8
0-11MG
  6
Continuous
 62
     7
100
AcDbLine
 10
455.9707996058
 20
208.3253520599
 30
0.0
 11
455.9707996058
 21
198.3253520599
 31
0.0
  0
LINE
  5
250
330
221
100
AcDbEntity
  8
0-11MG
  6
Continuous
 62
     7
100
AcDbLine
 10
452.7707996058
 20
208.0950480669
 30
0.0
 11
435.7707996058
 21
208.0950480669
 31
0.0
  0
ARC
  5
251
330
221
100
AcDbEntity
  8
0-11MG
  6
Continuous
 62
     7
100
AcDbCircle
 10
435.797514058
 20
213.2695669499
 30
0.0
 40
5.174587841776617
100
AcDbArc
 50
252.8413126491
 51
269.7042021106
  0
ARC
  5
252
330
221
100
AcDbEntity
  8
0-11MG
  6
Continuous
 62
     7
100
AcDbCircle
 10
452.7440851536
 20
213.2695669499
 30
0.0
 40
5.17458784177659
100
AcDbArc
 50
270.2957978894
 51
287.1586873509
  0
LINE
  5
253
330
221
100
AcDbEntity
  8
0-11MG
  6
Continuous
 62
     7
100
AcDbLine
 10
456.7707996058
 20
199.1253520599
 30
0.0
 11
456.7707996058
 21
207.5253520599
 31
0.0
  0
LINE
  5
254
330
221
100
AcDbEntity
  8
0-11MG
  6
Continuous
 62
     7
100
AcDbLine
 10
331.2707996058
 20
218.3253520599
 30
0.0
 11
330.7707996058
 21
218.3253520599
 31
0.0
  0
LINE
  5
255
330
221
100
AcDbEntity
  8
0-11MG
  6
Continuous
 62
     7
100
AcDbLine
 10
405.2707996058
 20
188.3253520599
 30
0.0
 11
405.7707996058
 21
188.3253520599
 31
0.0
  0
LINE
  5
256
330
221
100
AcDbEntity
  8
0-11MG
  6
Continuous
 62
     7
100
AcDbLine
 10
331.2707996058
 20
255.8253520599
 30
0.0
 11
332.2707996058
 21
256.8253520599
 31
0.0
  0
LINE
  5
257
330
221
100
AcDbEntity
  8
0-11MG
  6
Continuous
 62
     7
100
AcDbLine
 10
332.2707996058
 20
256.8253520599
 30
0.0
 11
333.2707996058
 21
257.8253520599
 31
0.0
  0
LINE
  5
258
330
221
100
AcDbEntity
  8
0-11MG
  6
Continuous
 62
     7
100
AcDbLine
 10
403.2707996058
 20
257.8253520599
 30
0.0
 11
404.2707996058
 21
256.8253520599
 31
0.0
  0
LINE
  5
259
330
221
100
AcDbEntity
  8
0-11MG
  6
Continuous
 62
     7
100
AcDbLine
 10
404.2707996058
 20
256.8253520599
 30
0.0
 11
405.2707996058
 21
255.8253520599
 31
0.0
  0
LINE
  5
25A
330
221
100
AcDbEntity
  8
0-11MG
  6
Continuous
 62
     7
100
AcDbLine
 10
404.2707996058
 20
174.8253520599
 30
0.0
 11
403.2707996058
 21
173.8253520599
 31
0.0
  0
CIRCLE
  5
25B
330
221
100
AcDbEntity
  8
0-11MG
  6
Continuous
 62
     7
100
AcDbCircle
 10
393.7707996058
 20
184.3253520599
 30
0.0
 40
4.0
  0
CIRCLE
  5
25C
330
221
100
AcDbEntity
  8
0-11MG
  6
Continuous
 62
     7
100
AcDbCircle
 10
342.7707996058
 20
184.3253520599
 30
0.0
 40
4.22698500169636
  0
CIRCLE
  5
25D
330
221
100
AcDbEntity
  8
0-11MG
  6
Continuous
 62
     7
100
AcDbCircle
 10
342.7707996058
 20
247.3253520599
 30
0.0
 40
4.0
  0
CIRCLE
  5
25E
330
221
100
AcDbEntity
  8
0-11MG
  6
Continuous
 62
     7
100
AcDbCircle
 10
393.7707996058
 20
247.3253520599
 30
0.0
 40
4.22698500169636
  0
CIRCLE
  5
25F
330
221
100
AcDbEntity
  8
0-11MG
  6
Continuous
 62
     7
100
AcDbCircle
 10
342.7707996058
 20
215.8253520599
 30
0.0
 40
4.0
  0
CIRCLE
  5
260
330
221
100
AcDbEntity
  8
0-11MG
  6
Continuous
 62
     7
100
AcDbCircle
 10
342.7707996058
 20
215.8253520599
 30
0.0
 40
4.22698500169636
  0
LINE
  5
261
330
221
100
AcDbEntity
  8
0-11MG
  6
Continuous
 62
     7
100
AcDbLine
 10
403.2707996058
 20
175.8253520599
 30
0.0
 11
403.2707996058
 21
255.8253520599
 31
0.0
  0
LINE
  5
262
330
221
100
AcDbEntity
  8
0-11MG
  6
Continuous
 62
     7
100
AcDbLine
 10
403.2707996058
 20
255.8253520599
 30
0.0
 11
333.2707996058
 21
255.8253520599
 31
0.0
  0
LINE
  5
263
330
221
100
AcDbEntity
  8
0-11MG
  6
Continuous
 62
     7
100
AcDbLine
 10
333.2707996058
 20
255.8253520599
 30
0.0
 11
333.2707996058
 21
175.8253520599
 31
0.0
  0
LINE
  5
264
330
221
100
AcDbEntity
  8
0-11MG
  6
Continuous
 62
     7
100
AcDbLine
 10
333.2707996058
 20
175.8253520599
 30
0.0
 11
403.2707996058
 21
175.8253520599
 31
0.0
  0
CIRCLE
  5
265
330
221
100
AcDbEntity
  8
0-11MG
  6
Continuous
 62
     7
100
AcDbCircle
 10
393.7707996058
 20
215.8253520599
 30
0.0
 40
4.22698500169636
  0
CIRCLE
  5
266
330
221
100
AcDbEntity
  8
0-11MG
  6
Continuous
 62
     7
100
AcDbCircle
 10
393.7707996058
 20
247.3253520599
 30
0.0
 40
4.0
  0
CIRCLE
  5
267
330
221
100
AcDbEntity
  8
0-11MG
  6
Continuous
 62
     7
100
AcDbCircle
 10
393.7707996058
 20
184.3253520599
 30
0.0
 40
4.22698500169636
  0
CIRCLE
  5
268
330
221
100
AcDbEntity
  8
0-11MG
  6
Continuous
 62
     7
100
AcDbCircle
 10
342.7707996058
 20
184.3253520599
 30
0.0
 40
4.0
  0
CIRCLE
  5
269
330
221
100
AcDbEntity
  8
0-11MG
  6
Continuous
 62
     7
100
AcDbCircle
 10
342.7707996058
 20
247.3253520599
 30
0.0
 40
4.22698500169636
  0
CIRCLE
  5
26A
330
221
100
AcDbEntity
  8
0-11MG
  6
Continuous
 62
     7
100
AcDbCircle
 10
393.7707996058
 20
215.8253520599
 30
0.0
 40
4.0
  0
LINE
  5
26B
330
221
100
AcDbEntity
  8
0-11MG
  6
Continuous
 62
     7
100
AcDbLine
 10
403.2707996058
 20
257.8253520599
 30
0.0
 11
333.2707996058
 21
257.8253520599
 31
0.0
  0
LINE
  5
26C
330
221
100
AcDbEntity
  8
0-11MG
  6
Continuous
 62
     7
100
AcDbLine
 10
404.2707996058
 20
174.8253520599
 30
0.0
 11
405.2707996058
 21
175.8253520599
 31
0.0
  0
LINE
  5
26D
330
221
100
AcDbEntity
  8
0-11MG
  6
Continuous
 62
     7
100
AcDbLine
 10
405.2707996058
 20
175.8253520599
 30
0.0
 11
405.2707996058
 21
255.8253520599
 31
0.0
  0
LINE
  5
26E
330
221
100
AcDbEntity
  8
0-11MG
  6
Continuous
 62
     7
100
AcDbLine
 10
404.2707996058
 20
256.8253520599
 30
0.0
 11
403.2707996058
 21
255.8253520599
 31
0.0
  0
LINE
  5
26F
330
221
100
AcDbEntity
  8
0-11MG
  6
Continuous
 62
     7
100
AcDbLine
 10
333.2707996058
 20
175.8253520599
 30
0.0
 11
332.2707996058
 21
174.8253520599
 31
0.0
  0
LINE
  5
270
330
221
100
AcDbEntity
  8
0-11MG
  6
Continuous
 62
     7
100
AcDbLine
 10
332.2707996058
 20
174.8253520599
 30
0.0
 11
333.2707996058
 21
173.8253520599
 31
0.0
  0
LINE
  5
271
330
221
100
AcDbEntity
  8
0-11MG
  6
Continuous
 62
     7
100
AcDbLine
 10
333.2707996058
 20
173.8253520599
 30
0.0
 11
403.2707996058
 21
173.8253520599
 31
0.0
  0
LINE
  5
272
330
221
100
AcDbEntity
  8
0-11MG
  6
Continuous
 62
     7
100
AcDbLine
 10
404.2707996058
 20
174.8253520599
 30
0.0
 11
403.2707996058
 21
175.8253520599
 31
0.0
  0
LINE
  5
273
330
221
100
AcDbEntity
  8
0-11MG
  6
Continuous
 62
     7
100
AcDbLine
 10
333.2707996058
 20
255.8253520599
 30
0.0
 11
332.2707996058
 21
256.8253520599
 31
0.0
  0
LINE
  5
274
330
221
100
AcDbEntity
  8
0-11MG
  6
Continuous
 62
     7
100
AcDbLine
 10
331.2707996058
 20
255.8253520599
 30
0.0
 11
331.2707996058
 21
175.8253520599
 31
0.0
  0
LINE
  5
275
330
221
100
AcDbEntity
  8
0-11MG
  6
Continuous
 62
     7
100
AcDbLine
 10
331.2707996058
 20
175.8253520599
 30
0.0
 11
332.2707996058
 21
174.8253520599
 31
0.0
  0
LINE
  5
276
330
221
100
AcDbEntity
  8
0-11MG
  6
Continuous
 62
     7
100
AcDbLine
 10
344.2497028916
 20
248.2035576573
 30
0.0
 11
342.7918963201
 21
249.0452226738
 31
0.0
  0
LINE
  5
277
330
221
100
AcDbEntity
  8
0-11MG
  6
Continuous
 62
     7
100
AcDbLine
 10
342.7497028916
 20
249.0452226738
 30
0.0
 11
341.2918963201
 21
248.2035576573
 31
0.0
  0
LINE
  5
278
330
221
100
AcDbEntity
  8
0-11MG
  6
Continuous
 62
     7
100
AcDbLine
 10
341.2707996058
 20
248.1670170764
 30
0.0
 11
341.2707996058
 21
246.4836870434
 31
0.0
  0
LINE
  5
279
330
221
100
AcDbEntity
  8
0-11MG
  6
Continuous
 62
     7
100
AcDbLine
 10
341.2918963201
 20
246.4471464624
 30
0.0
 11
342.7497028916
 21
245.6054814459
 31
0.0
  0
LINE
  5
27A
330
221
100
AcDbEntity
  8
0-11MG
  6
Continuous
 62
     7
100
AcDbLine
 10
342.7918963201
 20
245.6054814459
 30
0.0
 11
344.2497028916
 21
246.4471464624
 31
0.0
  0
LINE
  5
27B
330
221
100
AcDbEntity
  8
0-11MG
  6
Continuous
 62
     7
100
AcDbLine
 10
344.2707996058
 20
246.4836870434
 30
0.0
 11
344.2707996058
 21
248.1670170764
 31
0.0
  0
CIRCLE
  5
27C
330
221
100
AcDbEntity
  8
0-11MG
  6
Continuous
 62
     7
100
AcDbCircle
 10
342.7707996058
 20
247.3253520599
 30
0.0
 40
3.5
  0
CIRCLE
  5
27D
330
221
100
AcDbEntity
  8
0-11MG
  6
Continuous
 62
     7
100
AcDbCircle
 10
342.7707996058
 20
247.3253520599
 30
0.0
 40
3.1
  0
LINE
  5
27E
330
221
100
AcDbEntity
  8
0-11MG
  6
Continuous
 62
     7
100
AcDbLine
 10
342.7707996058
 20
249.0574028674
 30
0.0
 11
342.7918963201
 21
249.0452226738
 31
0.0
  0
ARC
  5
27F
330
221
100
AcDbEntity
  8
0-11MG
  6
Continuous
 62
     7
100
AcDbCircle
 10
342.7707996058
 20
247.3253520599
 30
0.0
 40
1.720000000000026
100
AcDbArc
 50
30.7027808124
 51
89.2972191876
  0
LINE
  5
280
330
221
100
AcDbEntity
  8
0-11MG
  6
Continuous
 62
     7
100
AcDbLine
 10
344.2497028916
 20
248.2035576573
 30
0.0
 11
344.2707996058
 21
248.1913774636
 31
0.0
  0
LINE
  5
281
330
221
100
AcDbEntity
  8
0-11MG
  6
Continuous
 62
     7
100
AcDbLine
 10
344.2707996058
 20
248.1913774636
 30
0.0
 11
344.2707996058
 21
248.1670170764
 31
0.0
  0
ARC
  5
282
330
221
100
AcDbEntity
  8
0-11MG
  6
Continuous
 62
     7
100
AcDbCircle
 10
342.7707996058
 20
247.3253520599
 30
0.0
 40
1.719999999999991
100
AcDbArc
 50
330.7027808124
 51
29.2972191876
  0
LINE
  5
283
330
221
100
AcDbEntity
  8
0-11MG
  6
Continuous
 62
     7
100
AcDbLine
 10
344.2707996058
 20
246.4836870434
 30
0.0
 11
344.2707996058
 21
246.4593266561
 31
0.0
  0
LINE
  5
284
330
221
100
AcDbEntity
  8
0-11MG
  6
Continuous
 62
     7
100
AcDbLine
 10
344.2707996058
 20
246.4593266561
 30
0.0
 11
344.2497028916
 21
246.4471464624
 31
0.0
  0
LINE
  5
285
330
221
100
AcDbEntity
  8
0-11MG
  6
Continuous
 62
     7
100
AcDbLine
 10
342.7918963201
 20
245.6054814459
 30
0.0
 11
342.7707996058
 21
245.5933012523
 31
0.0
  0
LINE
  5
286
330
221
100
AcDbEntity
  8
0-11MG
  6
Continuous
 62
     7
100
AcDbLine
 10
342.7707996058
 20
245.5933012523
 30
0.0
 11
342.7497028916
 21
245.6054814459
 31
0.0
  0
ARC
  5
287
330
221
100
AcDbEntity
  8
0-11MG
  6
Continuous
 62
     7
100
AcDbCircle
 10
342.7707996058
 20
247.3253520599
 30
0.0
 40
1.720000000000025
100
AcDbArc
 50
210.7027808124
 51
269.2972191876
  0
LINE
  5
288
330
221
100
AcDbEntity
  8
0-11MG
  6
Continuous
 62
     7
100
AcDbLine
 10
341.2918963201
 20
246.4471464624
 30
0.0
 11
341.2707996058
 21
246.4593266561
 31
0.0
  0
LINE
  5
289
330
221
100
AcDbEntity
  8
0-11MG
  6
Continuous
 62
     7
100
AcDbLine
 10
341.2707996058
 20
246.4593266561
 30
0.0
 11
341.2707996058
 21
246.4836870434
 31
0.0
  0
ARC
  5
28A
330
221
100
AcDbEntity
  8
0-11MG
  6
Continuous
 62
     7
100
AcDbCircle
 10
342.7707996058
 20
247.3253520599
 30
0.0
 40
1.719999999999993
100
AcDbArc
 50
150.7027808124
 51
209.2972191876
  0
LINE
  5
28B
330
221
100
AcDbEntity
  8
0-11MG
  6
Continuous
 62
     7
100
AcDbLine
 10
341.2707996058
 20
248.1670170764
 30
0.0
 11
341.2707996058
 21
248.1913774636
 31
0.0
  0
LINE
  5
28C
330
221
100
AcDbEntity
  8
0-11MG
  6
Continuous
 62
     7
100
AcDbLine
 10
341.2707996058
 20
248.1913774636
 30
0.0
 11
341.2918963201
 21
248.2035576573
 31
0.0
  0
ARC
  5
28D
330
221
100
AcDbEntity
  8
0-11MG
  6
Continuous
 62
     7
100
AcDbCircle
 10
342.7707996058
 20
247.3253520599
 30
0.0
 40
1.72
100
AcDbArc
 50
90.7027808124
 51
149.2972191876
  0
LINE
  5
28E
330
221
100
AcDbEntity
  8
0-11MG
  6
Continuous
 62
     7
100
AcDbLine
 10
342.7497028916
 20
249.0452226738
 30
0.0
 11
342.7707996058
 21
249.0574028674
 31
0.0
  0
ARC
  5
28F
330
221
100
AcDbEntity
  8
0-11MG
  6
Continuous
 62
     7
100
AcDbCircle
 10
342.7707996058
 20
247.3253520599
 30
0.0
 40
1.720000000000026
100
AcDbArc
 50
270.7027808124
 51
329.2972191876
  0
CIRCLE
  5
290
330
221
100
AcDbEntity
  8
0-11MG
  6
Continuous
 62
     7
100
AcDbCircle
 10
393.7707996058
 20
247.3253520599
 30
0.0
 40
3.1
  0
CIRCLE
  5
291
330
221
100
AcDbEntity
  8
0-11MG
  6
Continuous
 62
     7
100
AcDbCircle
 10
393.7707996058
 20
247.3253520599
 30
0.0
 40
3.5
  0
ARC
  5
292
330
221
100
AcDbEntity
  8
0-11MG
  6
Continuous
 62
     7
100
AcDbCircle
 10
393.7707996058
 20
247.3253520599
 30
0.0
 40
1.720000000000026
100
AcDbArc
 50
30.7027808124
 51
89.2972191876
  0
LINE
  5
293
330
221
100
AcDbEntity
  8
0-11MG
  6
Continuous
 62
     7
100
AcDbLine
 10
395.2497028916
 20
248.2035576573
 30
0.0
 11
393.7918963201
 21
249.0452226738
 31
0.0
  0
ARC
  5
294
330
221
100
AcDbEntity
  8
0-11MG
  6
Continuous
 62
     7
100
AcDbCircle
 10
393.7707996058
 20
247.3253520599
 30
0.0
 40
1.71999999999999
100
AcDbArc
 50
330.7027808124
 51
29.2972191876
  0
LINE
  5
295
330
221
100
AcDbEntity
  8
0-11MG
  6
Continuous
 62
     7
100
AcDbLine
 10
395.2707996058
 20
246.4836870434
 30
0.0
 11
395.2707996058
 21
248.1670170764
 31
0.0
  0
ARC
  5
296
330
221
100
AcDbEntity
  8
0-11MG
  6
Continuous
 62
     7
100
AcDbCircle
 10
393.7707996058
 20
247.3253520599
 30
0.0
 40
1.720000000000026
100
AcDbArc
 50
270.7027808124
 51
329.2972191876
  0
LINE
  5
297
330
221
100
AcDbEntity
  8
0-11MG
  6
Continuous
 62
     7
100
AcDbLine
 10
393.7918963201
 20
245.6054814459
 30
0.0
 11
395.2497028916
 21
246.4471464624
 31
0.0
  0
ARC
  5
298
330
221
100
AcDbEntity
  8
0-11MG
  6
Continuous
 62
     7
100
AcDbCircle
 10
393.7707996058
 20
247.3253520599
 30
0.0
 40
1.720000000000025
100
AcDbArc
 50
210.7027808124
 51
269.2972191876
  0
LINE
  5
299
330
221
100
AcDbEntity
  8
0-11MG
  6
Continuous
 62
     7
100
AcDbLine
 10
392.2918963201
 20
246.4471464624
 30
0.0
 11
393.7497028916
 21
245.6054814459
 31
0.0
  0
ARC
  5
29A
330
221
100
AcDbEntity
  8
0-11MG
  6
Continuous
 62
     7
100
AcDbCircle
 10
393.7707996058
 20
247.3253520599
 30
0.0
 40
1.71999999999999
100
AcDbArc
 50
150.7027808124
 51
209.2972191876
  0
LINE
  5
29B
330
221
100
AcDbEntity
  8
0-11MG
  6
Continuous
 62
     7
100
AcDbLine
 10
392.2707996058
 20
248.1670170764
 30
0.0
 11
392.2707996058
 21
246.4836870434
 31
0.0
  0
ARC
  5
29C
330
221
100
AcDbEntity
  8
0-11MG
  6
Continuous
 62
     7
100
AcDbCircle
 10
393.7707996058
 20
247.3253520599
 30
0.0
 40
1.720000000000001
100
AcDbArc
 50
90.7027808124
 51
149.2972191876
  0
LINE
  5
29D
330
221
100
AcDbEntity
  8
0-11MG
  6
Continuous
 62
     7
100
AcDbLine
 10
393.7497028916
 20
249.0452226738
 30
0.0
 11
392.2918963201
 21
248.2035576573
 31
0.0
  0
LINE
  5
29E
330
221
100
AcDbEntity
  8
0-11MG
  6
Continuous
 62
     7
100
AcDbLine
 10
393.7707996058
 20
249.0574028674
 30
0.0
 11
393.7918963201
 21
249.0452226738
 31
0.0
  0
LINE
  5
29F
330
221
100
AcDbEntity
  8
0-11MG
  6
Continuous
 62
     7
100
AcDbLine
 10
395.2497028916
 20
248.2035576573
 30
0.0
 11
395.2707996058
 21
248.1913774636
 31
0.0
  0
LINE
  5
2A0
330
221
100
AcDbEntity
  8
0-11MG
  6
Continuous
 62
     7
100
AcDbLine
 10
395.2707996058
 20
248.1913774636
 30
0.0
 11
395.2707996058
 21
248.1670170764
 31
0.0
  0
LINE
  5
2A1
330
221
100
AcDbEntity
  8
0-11MG
  6
Continuous
 62
     7
100
AcDbLine
 10
395.2707996058
 20
246.4836870434
 30
0.0
 11
395.2707996058
 21
246.4593266561
 31
0.0
  0
LINE
  5
2A2
330
221
100
AcDbEntity
  8
0-11MG
  6
Continuous
 62
     7
100
AcDbLine
 10
395.2707996058
 20
246.4593266561
 30
0.0
 11
395.2497028916
 21
246.4471464624
 31
0.0
  0
LINE
  5
2A3
330
221
100
AcDbEntity
  8
0-11MG
  6
Continuous
 62
     7
100
AcDbLine
 10
393.7918963201
 20
245.6054814459
 30
0.0
 11
393.7707996058
 21
245.5933012523
 31
0.0
  0
LINE
  5
2A4
330
221
100
AcDbEntity
  8
0-11MG
  6
Continuous
 62
     7
100
AcDbLine
 10
393.7707996058
 20
245.5933012523
 30
0.0
 11
393.7497028916
 21
245.6054814459
 31
0.0
  0
LINE
  5
2A5
330
221
100
AcDbEntity
  8
0-11MG
  6
Continuous
 62
     7
100
AcDbLine
 10
392.2918963201
 20
246.4471464624
 30
0.0
 11
392.2707996058
 21
246.4593266561
 31
0.0
  0
LINE
  5
2A6
330
221
100
AcDbEntity
  8
0-11MG
  6
Continuous
 62
     7
100
AcDbLine
 10
392.2707996058
 20
246.4593266561
 30
0.0
 11
392.2707996058
 21
246.4836870434
 31
0.0
  0
LINE
  5
2A7
330
221
100
AcDbEntity
  8
0-11MG
  6
Continuous
 62
     7
100
AcDbLine
 10
392.2707996058
 20
248.1670170764
 30
0.0
 11
392.2707996058
 21
248.1913774636
 31
0.0
  0
LINE
  5
2A8
330
221
100
AcDbEntity
  8
0-11MG
  6
Continuous
 62
     7
100
AcDbLine
 10
392.2707996058
 20
248.1913774636
 30
0.0
 11
392.2918963201
 21
248.2035576573
 31
0.0
  0
LINE
  5
2A9
330
221
100
AcDbEntity
  8
0-11MG
  6
Continuous
 62
     7
100
AcDbLine
 10
393.7497028916
 20
249.0452226738
 30
0.0
 11
393.7707996058
 21
249.0574028674
 31
0.0
  0
CIRCLE
  5
2AA
330
221
100
AcDbEntity
  8
0-11MG
  6
Continuous
 62
     7
100
AcDbCircle
 10
342.7707996058
 20
215.8253520599
 30
0.0
 40
3.1
  0
CIRCLE
  5
2AB
330
221
100
AcDbEntity
  8
0-11MG
  6
Continuous
 62
     7
100
AcDbCircle
 10
342.7707996058
 20
215.8253520599
 30
0.0
 40
3.5
  0
ARC
  5
2AC
330
221
100
AcDbEntity
  8
0-11MG
  6
Continuous
 62
     7
100
AcDbCircle
 10
342.7707996058
 20
215.8253520599
 30
0.0
 40
1.720000000000026
100
AcDbArc
 50
30.7027808124
 51
89.2972191876
  0
LINE
  5
2AD
330
221
100
AcDbEntity
  8
0-11MG
  6
Continuous
 62
     7
100
AcDbLine
 10
344.2497028916
 20
216.7035576573
 30
0.0
 11
342.7918963201
 21
217.5452226738
 31
0.0
  0
ARC
  5
2AE
330
221
100
AcDbEntity
  8
0-11MG
  6
Continuous
 62
     7
100
AcDbCircle
 10
342.7707996058
 20
215.8253520599
 30
0.0
 40
1.719999999999991
100
AcDbArc
 50
330.7027808124
 51
29.2972191876
  0
LINE
  5
2AF
330
221
100
AcDbEntity
  8
0-11MG
  6
Continuous
 62
     7
100
AcDbLine
 10
344.2707996058
 20
214.9836870434
 30
0.0
 11
344.2707996058
 21
216.6670170764
 31
0.0
  0
ARC
  5
2B0
330
221
100
AcDbEntity
  8
0-11MG
  6
Continuous
 62
     7
100
AcDbCircle
 10
342.7707996058
 20
215.8253520599
 30
0.0
 40
1.720000000000026
100
AcDbArc
 50
270.7027808124
 51
329.2972191876
  0
LINE
  5
2B1
330
221
100
AcDbEntity
  8
0-11MG
  6
Continuous
 62
     7
100
AcDbLine
 10
342.7918963201
 20
214.1054814459
 30
0.0
 11
344.2497028916
 21
214.9471464624
 31
0.0
  0
ARC
  5
2B2
330
221
100
AcDbEntity
  8
0-11MG
  6
Continuous
 62
     7
100
AcDbCircle
 10
342.7707996058
 20
215.8253520599
 30
0.0
 40
1.720000000000025
100
AcDbArc
 50
210.7027808124
 51
269.2972191876
  0
LINE
  5
2B3
330
221
100
AcDbEntity
  8
0-11MG
  6
Continuous
 62
     7
100
AcDbLine
 10
341.2918963201
 20
214.9471464624
 30
0.0
 11
342.7497028916
 21
214.1054814459
 31
0.0
  0
ARC
  5
2B4
330
221
100
AcDbEntity
  8
0-11MG
  6
Continuous
 62
     7
100
AcDbCircle
 10
342.7707996058
 20
215.8253520599
 30
0.0
 40
1.719999999999993
100
AcDbArc
 50
150.7027808124
 51
209.2972191876
  0
LINE
  5
2B5
330
221
100
AcDbEntity
  8
0-11MG
  6
Continuous
 62
     7
100
AcDbLine
 10
341.2707996058
 20
216.6670170764
 30
0.0
 11
341.2707996058
 21
214.9836870434
 31
0.0
  0
ARC
  5
2B6
330
221
100
AcDbEntity
  8
0-11MG
  6
Continuous
 62
     7
100
AcDbCircle
 10
342.7707996058
 20
215.8253520599
 30
0.0
 40
1.72
100
AcDbArc
 50
90.7027808124
 51
149.2972191876
  0
LINE
  5
2B7
330
221
100
AcDbEntity
  8
0-11MG
  6
Continuous
 62
     7
100
AcDbLine
 10
342.7497028916
 20
217.5452226738
 30
0.0
 11
341.2918963201
 21
216.7035576573
 31
0.0
  0
LINE
  5
2B8
330
221
100
AcDbEntity
  8
0-11MG
  6
Continuous
 62
     7
100
AcDbLine
 10
342.7707996058
 20
217.5574028674
 30
0.0
 11
342.7918963201
 21
217.5452226738
 31
0.0
  0
LINE
  5
2B9
330
221
100
AcDbEntity
  8
0-11MG
  6
Continuous
 62
     7
100
AcDbLine
 10
344.2497028916
 20
216.7035576573
 30
0.0
 11
344.2707996058
 21
216.6913774636
 31
0.0
  0
LINE
  5
2BA
330
221
100
AcDbEntity
  8
0-11MG
  6
Continuous
 62
     7
100
AcDbLine
 10
344.2707996058
 20
216.6913774636
 30
0.0
 11
344.2707996058
 21
216.6670170764
 31
0.0
  0
LINE
  5
2BB
330
221
100
AcDbEntity
  8
0-11MG
  6
Continuous
 62
     7
100
AcDbLine
 10
344.2707996058
 20
214.9836870434
 30
0.0
 11
344.2707996058
 21
214.9593266561
 31
0.0
  0
LINE
  5
2BC
330
221
100
AcDbEntity
  8
0-11MG
  6
Continuous
 62
     7
100
AcDbLine
 10
344.2707996058
 20
214.9593266561
 30
0.0
 11
344.2497028916
 21
214.9471464624
 31
0.0
  0
LINE
  5
2BD
330
221
100
AcDbEntity
  8
0-11MG
  6
Continuous
 62
     7
100
AcDbLine
 10
342.7918963201
 20
214.1054814459
 30
0.0
 11
342.7707996058
 21
214.0933012523
 31
0.0
  0
LINE
  5
2BE
330
221
100
AcDbEntity
  8
0-11MG
  6
Continuous
 62
     7
100
AcDbLine
 10
342.7707996058
 20
214.0933012523
 30
0.0
 11
342.7497028916
 21
214.1054814459
 31
0.0
  0
LINE
  5
2BF
330
221
100
AcDbEntity
  8
0-11MG
  6
Continuous
 62
     7
100
AcDbLine
 10
341.2918963201
 20
214.9471464624
 30
0.0
 11
341.2707996058
 21
214.9593266561
 31
0.0
  0
LINE
  5
2C0
330
221
100
AcDbEntity
  8
0-11MG
  6
Continuous
 62
     7
100
AcDbLine
 10
341.2707996058
 20
214.9593266561
 30
0.0
 11
341.2707996058
 21
214.9836870434
 31
0.0
  0
LINE
  5
2C1
330
221
100
AcDbEntity
  8
0-11MG
  6
Continuous
 62
     7
100
AcDbLine
 10
341.2707996058
 20
216.6670170764
 30
0.0
 11
341.2707996058
 21
216.6913774636
 31
0.0
  0
LINE
  5
2C2
330
221
100
AcDbEntity
  8
0-11MG
  6
Continuous
 62
     7
100
AcDbLine
 10
341.2707996058
 20
216.6913774636
 30
0.0
 11
341.2918963201
 21
216.7035576573
 31
0.0
  0
LINE
  5
2C3
330
221
100
AcDbEntity
  8
0-11MG
  6
Continuous
 62
     7
100
AcDbLine
 10
342.7497028916
 20
217.5452226738
 30
0.0
 11
342.7707996058
 21
217.5574028674
 31
0.0
  0
CIRCLE
  5
2C4
330
221
100
AcDbEntity
  8
0-11MG
  6
Continuous
 62
     7
100
AcDbCircle
 10
393.7707996058
 20
215.8253520599
 30
0.0
 40
3.1
  0
CIRCLE
  5
2C5
330
221
100
AcDbEntity
  8
0-11MG
  6
Continuous
 62
     7
100
AcDbCircle
 10
393.7707996058
 20
215.8253520599
 30
0.0
 40
3.5
  0
ARC
  5
2C6
330
221
100
AcDbEntity
  8
0-11MG
  6
Continuous
 62
     7
100
AcDbCircle
 10
393.7707996058
 20
215.8253520599
 30
0.0
 40
1.720000000000026
100
AcDbArc
 50
30.7027808124
 51
89.2972191876
  0
LINE
  5
2C7
330
221
100
AcDbEntity
  8
0-11MG
  6
Continuous
 62
     7
100
AcDbLine
 10
395.2497028916
 20
216.7035576573
 30
0.0
 11
393.7918963201
 21
217.5452226738
 31
0.0
  0
ARC
  5
2C8
330
221
100
AcDbEntity
  8
0-11MG
  6
Continuous
 62
     7
100
AcDbCircle
 10
393.7707996058
 20
215.8253520599
 30
0.0
 40
1.71999999999999
100
AcDbArc
 50
330.7027808124
 51
29.2972191876
  0
LINE
  5
2C9
330
221
100
AcDbEntity
  8
0-11MG
  6
Continuous
 62
     7
100
AcDbLine
 10
395.2707996058
 20
214.9836870434
 30
0.0
 11
395.2707996058
 21
216.6670170764
 31
0.0
  0
ARC
  5
2CA
330
221
100
AcDbEntity
  8
0-11MG
  6
Continuous
 62
     7
100
AcDbCircle
 10
393.7707996058
 20
215.8253520599
 30
0.0
 40
1.720000000000026
100
AcDbArc
 50
270.7027808124
 51
329.2972191876
  0
LINE
  5
2CB
330
221
100
AcDbEntity
  8
0-11MG
  6
Continuous
 62
     7
100
AcDbLine
 10
393.7918963201
 20
214.1054814459
 30
0.0
 11
395.2497028916
 21
214.9471464624
 31
0.0
  0
ARC
  5
2CC
330
221
100
AcDbEntity
  8
0-11MG
  6
Continuous
 62
     7
100
AcDbCircle
 10
393.7707996058
 20
215.8253520599
 30
0.0
 40
1.720000000000025
100
AcDbArc
 50
210.7027808124
 51
269.2972191876
  0
LINE
  5
2CD
330
221
100
AcDbEntity
  8
0-11MG
  6
Continuous
 62
     7
100
AcDbLine
 10
392.2918963201
 20
214.9471464624
 30
0.0
 11
393.7497028916
 21
214.1054814459
 31
0.0
  0
ARC
  5
2CE
330
221
100
AcDbEntity
  8
0-11MG
  6
Continuous
 62
     7
100
AcDbCircle
 10
393.7707996058
 20
215.8253520599
 30
0.0
 40
1.71999999999999
100
AcDbArc
 50
150.7027808124
 51
209.2972191876
  0
LINE
  5
2CF
330
221
100
AcDbEntity
  8
0-11MG
  6
Continuous
 62
     7
100
AcDbLine
 10
392.2707996058
 20
216.6670170764
 30
0.0
 11
392.2707996058
 21
214.9836870434
 31
0.0
  0
ARC
  5
2D0
330
221
100
AcDbEntity
  8
0-11MG
  6
Continuous
 62
     7
100
AcDbCircle
 10
393.7707996058
 20
215.8253520599
 30
0.0
 40
1.720000000000001
100
AcDbArc
 50
90.7027808124
 51
149.2972191876
  0
LINE
  5
2D1
330
221
100
AcDbEntity
  8
0-11MG
  6
Continuous
 62
     7
100
AcDbLine
 10
393.7497028916
 20
217.5452226738
 30
0.0
 11
392.2918963201
 21
216.7035576573
 31
0.0
  0
LINE
  5
2D2
330
221
100
AcDbEntity
  8
0-11MG
  6
Continuous
 62
     7
100
AcDbLine
 10
393.7707996058
 20
217.5574028674
 30
0.0
 11
393.7918963201
 21
217.5452226738
 31
0.0
  0
LINE
  5
2D3
330
221
100
AcDbEntity
  8
0-11MG
  6
Continuous
 62
     7
100
AcDbLine
 10
395.2497028916
 20
216.7035576573
 30
0.0
 11
395.2707996058
 21
216.6913774636
 31
0.0
  0
LINE
  5
2D4
330
221
100
AcDbEntity
  8
0-11MG
  6
Continuous
 62
     7
100
AcDbLine
 10
395.2707996058
 20
216.6913774636
 30
0.0
 11
395.2707996058
 21
216.6670170764
 31
0.0
  0
LINE
  5
2D5
330
221
100
AcDbEntity
  8
0-11MG
  6
Continuous
 62
     7
100
AcDbLine
 10
395.2707996058
 20
214.9836870434
 30
0.0
 11
395.2707996058
 21
214.9593266561
 31
0.0
  0
LINE
  5
2D6
330
221
100
AcDbEntity
  8
0-11MG
  6
Continuous
 62
     7
100
AcDbLine
 10
395.2707996058
 20
214.9593266561
 30
0.0
 11
395.2497028916
 21
214.9471464624
 31
0.0
  0
LINE
  5
2D7
330
221
100
AcDbEntity
  8
0-11MG
  6
Continuous
 62
     7
100
AcDbLine
 10
393.7918963201
 20
214.1054814459
 30
0.0
 11
393.7707996058
 21
214.0933012523
 31
0.0
  0
LINE
  5
2D8
330
221
100
AcDbEntity
  8
0-11MG
  6
Continuous
 62
     7
100
AcDbLine
 10
393.7707996058
 20
214.0933012523
 30
0.0
 11
393.7497028916
 21
214.1054814459
 31
0.0
  0
LINE
  5
2D9
330
221
100
AcDbEntity
  8
0-11MG
  6
Continuous
 62
     7
100
AcDbLine
 10
392.2918963201
 20
214.9471464624
 30
0.0
 11
392.2707996058
 21
214.9593266561
 31
0.0
  0
LINE
  5
2DA
330
221
100
AcDbEntity
  8
0-11MG
  6
Continuous
 62
     7
100
AcDbLine
 10
392.2707996058
 20
214.9593266561
 30
0.0
 11
392.2707996058
 21
214.9836870434
 31
0.0
  0
LINE
  5
2DB
330
221
100
AcDbEntity
  8
0-11MG
  6
Continuous
 62
     7
100
AcDbLine
 10
392.2707996058
 20
216.6670170764
 30
0.0
 11
392.2707996058
 21
216.6913774636
 31
0.0
  0
LINE
  5
2DC
330
221
100
AcDbEntity
  8
0-11MG
  6
Continuous
 62
     7
100
AcDbLine
 10
392.2707996058
 20
216.6913774636
 30
0.0
 11
392.2918963201
 21
216.7035576573
 31
0.0
  0
LINE
  5
2DD
330
221
100
AcDbEntity
  8
0-11MG
  6
Continuous
 62
     7
100
AcDbLine
 10
393.7497028916
 20
217.5452226738
 30
0.0
 11
393.7707996058
 21
217.5574028674
 31
0.0
  0
CIRCLE
  5
2DE
330
221
100
AcDbEntity
  8
0-11MG
  6
Continuous
 62
     7
100
AcDbCircle
 10
342.7707996058
 20
184.3253520599
 30
0.0
 40
3.1
  0
CIRCLE
  5
2DF
330
221
100
AcDbEntity
  8
0-11MG
  6
Continuous
 62
     7
100
AcDbCircle
 10
342.7707996058
 20
184.3253520599
 30
0.0
 40
3.5
  0
ARC
  5
2E0
330
221
100
AcDbEntity
  8
0-11MG
  6
Continuous
 62
     7
100
AcDbCircle
 10
342.7707996058
 20
184.3253520599
 30
0.0
 40
1.720000000000026
100
AcDbArc
 50
30.7027808124
 51
89.2972191876
  0
LINE
  5
2E1
330
221
100
AcDbEntity
  8
0-11MG
  6
Continuous
 62
     7
100
AcDbLine
 10
344.2497028916
 20
185.2035576573
 30
0.0
 11
342.7918963201
 21
186.0452226738
 31
0.0
  0
ARC
  5
2E2
330
221
100
AcDbEntity
  8
0-11MG
  6
Continuous
 62
     7
100
AcDbCircle
 10
342.7707996058
 20
184.3253520599
 30
0.0
 40
1.719999999999991
100
AcDbArc
 50
330.7027808124
 51
29.2972191876
  0
LINE
  5
2E3
330
221
100
AcDbEntity
  8
0-11MG
  6
Continuous
 62
     7
100
AcDbLine
 10
344.2707996058
 20
183.4836870434
 30
0.0
 11
344.2707996058
 21
185.1670170764
 31
0.0
  0
ARC
  5
2E4
330
221
100
AcDbEntity
  8
0-11MG
  6
Continuous
 62
     7
100
AcDbCircle
 10
342.7707996058
 20
184.3253520599
 30
0.0
 40
1.720000000000026
100
AcDbArc
 50
270.7027808124
 51
329.2972191876
  0
LINE
  5
2E5
330
221
100
AcDbEntity
  8
0-11MG
  6
Continuous
 62
     7
100
AcDbLine
 10
342.7918963201
 20
182.6054814459
 30
0.0
 11
344.2497028916
 21
183.4471464624
 31
0.0
  0
ARC
  5
2E6
330
221
100
AcDbEntity
  8
0-11MG
  6
Continuous
 62
     7
100
AcDbCircle
 10
342.7707996058
 20
184.3253520599
 30
0.0
 40
1.720000000000025
100
AcDbArc
 50
210.7027808124
 51
269.2972191876
  0
LINE
  5
2E7
330
221
100
AcDbEntity
  8
0-11MG
  6
Continuous
 62
     7
100
AcDbLine
 10
341.2918963201
 20
183.4471464624
 30
0.0
 11
342.7497028916
 21
182.6054814459
 31
0.0
  0
ARC
  5
2E8
330
221
100
AcDbEntity
  8
0-11MG
  6
Continuous
 62
     7
100
AcDbCircle
 10
342.7707996058
 20
184.3253520599
 30
0.0
 40
1.719999999999993
100
AcDbArc
 50
150.7027808124
 51
209.2972191876
  0
LINE
  5
2E9
330
221
100
AcDbEntity
  8
0-11MG
  6
Continuous
 62
     7
100
AcDbLine
 10
341.2707996058
 20
185.1670170764
 30
0.0
 11
341.2707996058
 21
183.4836870434
 31
0.0
  0
ARC
  5
2EA
330
221
100
AcDbEntity
  8
0-11MG
  6
Continuous
 62
     7
100
AcDbCircle
 10
342.7707996058
 20
184.3253520599
 30
0.0
 40
1.72
100
AcDbArc
 50
90.7027808124
 51
149.2972191876
  0
LINE
  5
2EB
330
221
100
AcDbEntity
  8
0-11MG
  6
Continuous
 62
     7
100
AcDbLine
 10
342.7497028916
 20
186.0452226738
 30
0.0
 11
341.2918963201
 21
185.2035576573
 31
0.0
  0
LINE
  5
2EC
330
221
100
AcDbEntity
  8
0-11MG
  6
Continuous
 62
     7
100
AcDbLine
 10
342.7707996058
 20
186.0574028674
 30
0.0
 11
342.7918963201
 21
186.0452226738
 31
0.0
  0
LINE
  5
2ED
330
221
100
AcDbEntity
  8
0-11MG
  6
Continuous
 62
     7
100
AcDbLine
 10
344.2497028916
 20
185.2035576573
 30
0.0
 11
344.2707996058
 21
185.1913774636
 31
0.0
  0
LINE
  5
2EE
330
221
100
AcDbEntity
  8
0-11MG
  6
Continuous
 62
     7
100
AcDbLine
 10
344.2707996058
 20
185.1913774636
 30
0.0
 11
344.2707996058
 21
185.1670170764
 31
0.0
  0
LINE
  5
2EF
330
221
100
AcDbEntity
  8
0-11MG
  6
Continuous
 62
     7
100
AcDbLine
 10
344.2707996058
 20
183.4836870434
 30
0.0
 11
344.2707996058
 21
183.4593266561
 31
0.0
  0
LINE
  5
2F0
330
221
100
AcDbEntity
  8
0-11MG
  6
Continuous
 62
     7
100
AcDbLine
 10
344.2707996058
 20
183.4593266561
 30
0.0
 11
344.2497028916
 21
183.4471464624
 31
0.0
  0
LINE
  5
2F1
330
221
100
AcDbEntity
  8
0-11MG
  6
Continuous
 62
     7
100
AcDbLine
 10
342.7918963201
 20
182.6054814459
 30
0.0
 11
342.7707996058
 21
182.5933012523
 31
0.0
  0
LINE
  5
2F2
330
221
100
AcDbEntity
  8
0-11MG
  6
Continuous
 62
     7
100
AcDbLine
 10
342.7707996058
 20
182.5933012523
 30
0.0
 11
342.7497028916
 21
182.6054814459
 31
0.0
  0
LINE
  5
2F3
330
221
100
AcDbEntity
  8
0-11MG
  6
Continuous
 62
     7
100
AcDbLine
 10
341.2918963201
 20
183.4471464624
 30
0.0
 11
341.2707996058
 21
183.4593266561
 31
0.0
  0
LINE
  5
2F4
330
221
100
AcDbEntity
  8
0-11MG
  6
Continuous
 62
     7
100
AcDbLine
 10
341.2707996058
 20
183.4593266561
 30
0.0
 11
341.2707996058
 21
183.4836870434
 31
0.0
  0
LINE
  5
2F5
330
221
100
AcDbEntity
  8
0-11MG
  6
Continuous
 62
     7
100
AcDbLine
 10
341.2707996058
 20
185.1670170764
 30
0.0
 11
341.2707996058
 21
185.1913774636
 31
0.0
  0
LINE
  5
2F6
330
221
100
AcDbEntity
  8
0-11MG
  6
Continuous
 62
     7
100
AcDbLine
 10
341.2707996058
 20
185.1913774636
 30
0.0
 11
341.2918963201
 21
185.2035576573
 31
0.0
  0
LINE
  5
2F7
330
221
100
AcDbEntity
  8
0-11MG
  6
Continuous
 62
     7
100
AcDbLine
 10
342.7497028916
 20
186.0452226738
 30
0.0
 11
342.7707996058
 21
186.0574028674
 31
0.0
  0
CIRCLE
  5
2F8
330
221
100
AcDbEntity
  8
0-11MG
  6
Continuous
 62
     7
100
AcDbCircle
 10
393.7707996058
 20
184.3253520599
 30
0.0
 40
3.1
  0
CIRCLE
  5
2F9
330
221
100
AcDbEntity
  8
0-11MG
  6
Continuous
 62
     7
100
AcDbCircle
 10
393.7707996058
 20
184.3253520599
 30
0.0
 40
3.5
  0
ARC
  5
2FA
330
221
100
AcDbEntity
  8
0-11MG
  6
Continuous
 62
     7
100
AcDbCircle
 10
393.7707996058
 20
184.3253520599
 30
0.0
 40
1.720000000000026
100
AcDbArc
 50
30.7027808124
 51
89.2972191876
  0
LINE
  5
2FB
330
221
100
AcDbEntity
  8
0-11MG
  6
Continuous
 62
     7
100
AcDbLine
 10
395.2497028916
 20
185.2035576573
 30
0.0
 11
393.7918963201
 21
186.0452226738
 31
0.0
  0
ARC
  5
2FC
330
221
100
AcDbEntity
  8
0-11MG
  6
Continuous
 62
     7
100
AcDbCircle
 10
393.7707996058
 20
184.3253520599
 30
0.0
 40
1.71999999999999
100
AcDbArc
 50
330.7027808124
 51
29.2972191876
  0
LINE
  5
2FD
330
221
100
AcDbEntity
  8
0-11MG
  6
Continuous
 62
     7
100
AcDbLine
 10
395.2707996058
 20
183.4836870434
 30
0.0
 11
395.2707996058
 21
185.1670170764
 31
0.0
  0
ARC
  5
2FE
330
221
100
AcDbEntity
  8
0-11MG
  6
Continuous
 62
     7
100
AcDbCircle
 10
393.7707996058
 20
184.3253520599
 30
0.0
 40
1.720000000000026
100
AcDbArc
 50
270.7027808124
 51
329.2972191876
  0
LINE
  5
2FF
330
221
100
AcDbEntity
  8
0-11MG
  6
Continuous
 62
     7
100
AcDbLine
 10
393.7918963201
 20
182.6054814459
 30
0.0
 11
395.2497028916
 21
183.4471464624
 31
0.0
  0
ARC
  5
300
330
221
100
AcDbEntity
  8
0-11MG
  6
Continuous
 62
     7
100
AcDbCircle
 10
393.7707996058
 20
184.3253520599
 30
0.0
 40
1.720000000000025
100
AcDbArc
 50
210.7027808124
 51
269.2972191876
  0
LINE
  5
301
330
221
100
AcDbEntity
  8
0-11MG
  6
Continuous
 62
     7
100
AcDbLine
 10
392.2918963201
 20
183.4471464624
 30
0.0
 11
393.7497028916
 21
182.6054814459
 31
0.0
  0
ARC
  5
302
330
221
100
AcDbEntity
  8
0-11MG
  6
Continuous
 62
     7
100
AcDbCircle
 10
393.7707996058
 20
184.3253520599
 30
0.0
 40
1.71999999999999
100
AcDbArc
 50
150.7027808124
 51
209.2972191876
  0
LINE
  5
303
330
221
100
AcDbEntity
  8
0-11MG
  6
Continuous
 62
     7
100
AcDbLine
 10
392.2707996058
 20
185.1670170764
 30
0.0
 11
392.2707996058
 21
183.4836870434
 31
0.0
  0
ARC
  5
304
330
221
100
AcDbEntity
  8
0-11MG
  6
Continuous
 62
     7
100
AcDbCircle
 10
393.7707996058
 20
184.3253520599
 30
0.0
 40
1.720000000000001
100
AcDbArc
 50
90.7027808124
 51
149.2972191876
  0
LINE
  5
305
330
221
100
AcDbEntity
  8
0-11MG
  6
Continuous
 62
     7
100
AcDbLine
 10
393.7497028916
 20
186.0452226738
 30
0.0
 11
392.2918963201
 21
185.2035576573
 31
0.0
  0
LINE
  5
306
330
221
100
AcDbEntity
  8
0-11MG
  6
Continuous
 62
     7
100
AcDbLine
 10
393.7707996058
 20
186.0574028674
 30
0.0
 11
393.7918963201
 21
186.0452226738
 31
0.0
  0
LINE
  5
307
330
221
100
AcDbEntity
  8
0-11MG
  6
Continuous
 62
     7
100
AcDbLine
 10
395.2497028916
 20
185.2035576573
 30
0.0
 11
395.2707996058
 21
185.1913774636
 31
0.0
  0
LINE
  5
308
330
221
100
AcDbEntity
  8
0-11MG
  6
Continuous
 62
     7
100
AcDbLine
 10
395.2707996058
 20
185.1913774636
 30
0.0
 11
395.2707996058
 21
185.1670170764
 31
0.0
  0
LINE
  5
309
330
221
100
AcDbEntity
  8
0-11MG
  6
Continuous
 62
     7
100
AcDbLine
 10
395.2707996058
 20
183.4836870434
 30
0.0
 11
395.2707996058
 21
183.4593266561
 31
0.0
  0
LINE
  5
30A
330
221
100
AcDbEntity
  8
0-11MG
  6
Continuous
 62
     7
100
AcDbLine
 10
395.2707996058
 20
183.4593266561
 30
0.0
 11
395.2497028916
 21
183.4471464624
 31
0.0
  0
LINE
  5
30B
330
221
100
AcDbEntity
  8
0-11MG
  6
Continuous
 62
     7
100
AcDbLine
 10
393.7918963201
 20
182.6054814459
 30
0.0
 11
393.7707996058
 21
182.5933012523
 31
0.0
  0
LINE
  5
30C
330
221
100
AcDbEntity
  8
0-11MG
  6
Continuous
 62
     7
100
AcDbLine
 10
393.7707996058
 20
182.5933012523
 30
0.0
 11
393.7497028916
 21
182.6054814459
 31
0.0
  0
LINE
  5
30D
330
221
100
AcDbEntity
  8
0-11MG
  6
Continuous
 62
     7
100
AcDbLine
 10
392.2918963201
 20
183.4471464624
 30
0.0
 11
392.2707996058
 21
183.4593266561
 31
0.0
  0
LINE
  5
30E
330
221
100
AcDbEntity
  8
0-11MG
  6
Continuous
 62
     7
100
AcDbLine
 10
392.2707996058
 20
183.4593266561
 30
0.0
 11
392.2707996058
 21
183.4836870434
 31
0.0
  0
LINE
  5
30F
330
221
100
AcDbEntity
  8
0-11MG
  6
Continuous
 62
     7
100
AcDbLine
 10
392.2707996058
 20
185.1670170764
 30
0.0
 11
392.2707996058
 21
185.1913774636
 31
0.0
  0
LINE
  5
310
330
221
100
AcDbEntity
  8
0-11MG
  6
Continuous
 62
     7
100
AcDbLine
 10
392.2707996058
 20
185.1913774636
 30
0.0
 11
392.2918963201
 21
185.2035576573
 31
0.0
  0
LINE
  5
311
330
221
100
AcDbEntity
  8
0-11MG
  6
Continuous
 62
     7
100
AcDbLine
 10
393.7497028916
 20
186.0452226738
 30
0.0
 11
393.7707996058
 21
186.0574028674
 31
0.0
  0
LINE
  5
312
330
221
100
AcDbEntity
  8
0-11MG
  6
Continuous
 62
     7
100
AcDbLine
 10
418.3707996058
 20
160.8253452801
 30
0.0
 11
425.7707996058
 21
160.8253452801
 31
0.0
  0
LINE
  5
313
330
221
100
AcDbEntity
  8
0-11MG
  6
Continuous
 62
     7
100
AcDbLine
 10
417.4228568291
 20
176.391361087
 30
0.0
 11
425.7707996058
 21
176.391361087
 31
0.0
  0
ARC
  5
314
330
221
100
AcDbEntity
  8
0-11MG
  6
Continuous
 62
     7
100
AcDbCircle
 10
418.3707996058
 20
244.8253452801
 30
0.0
 40
1.000000000000056
100
AcDbArc
 50
90.0
 51
180.0
  0
LINE
  5
315
330
221
100
AcDbEntity
  8
0-11MG
  6
Continuous
 62
     7
100
AcDbLine
 10
425.7707996058
 20
230.2593294733
 30
0.0
 11
417.4228568291
 21
230.2593294733
 31
0.0
  0
LINE
  5
316
330
221
100
AcDbEntity
  8
0-11MG
  6
Continuous
 62
     7
100
AcDbLine
 10
425.7707996058
 20
245.8253452801
 30
0.0
 11
418.3707996058
 21
245.8253452801
 31
0.0
  0
LINE
  5
317
330
221
100
AcDbEntity
  8
0-11MG
  6
Continuous
 62
     7
100
AcDbLine
 10
428.7707996058
 20
230.8253452801
 30
0.0
 11
425.7707996058
 21
230.8253452801
 31
0.0
  0
LINE
  5
318
330
221
100
AcDbEntity
  8
0-11MG
  6
Continuous
 62
     7
100
AcDbLine
 10
425.7707996058
 20
175.8253452801
 30
0.0
 11
428.7707996058
 21
175.8253452801
 31
0.0
  0
LINE
  5
319
330
221
100
AcDbEntity
  8
0-11MG
  6
Continuous
 62
     7
100
AcDbLine
 10
415.888437696
 20
230.1507162528
 30
0.0
 11
410.1707996058
 21
228.6186797439
 31
0.0
  0
LINE
  5
31A
330
221
100
AcDbEntity
  8
0-11MG
  6
Continuous
 62
     7
100
AcDbLine
 10
410.1707996058
 20
178.0320108164
 30
0.0
 11
415.888437696
 21
176.4999743075
 31
0.0
  0
LINE
  5
31B
330
221
100
AcDbEntity
  8
0-11MG
  6
Continuous
 62
     7
100
AcDbLine
 10
410.1707996058
 20
228.6186797439
 30
0.0
 11
405.7707996058
 21
228.4650283581
 31
0.0
  0
LINE
  5
31C
330
221
100
AcDbEntity
  8
0-11MG
  6
Continuous
 62
     7
100
AcDbLine
 10
405.7707996058
 20
178.1856622022
 30
0.0
 11
410.1707996058
 21
178.0320108164
 31
0.0
  0
ARC
  5
31D
330
221
100
AcDbEntity
  8
0-11MG
  6
Continuous
 62
     7
100
AcDbCircle
 10
415.3707996058
 20
174.5681226549
 30
0.0
 40
1.999999999999982
100
AcDbArc
 50
0.0
 51
75.0
  0
ARC
  5
31E
330
221
100
AcDbEntity
  8
0-11MG
  6
Continuous
 62
     7
100
AcDbCircle
 10
415.3707996058
 20
232.0825679053
 30
0.0
 40
2.000000000000002
100
AcDbArc
 50
285.0
 51
0.0
  0
ARC
  5
31F
330
221
100
AcDbEntity
  8
0-11MG
  6
Continuous
 62
     7
100
AcDbCircle
 10
418.3707996058
 20
161.8253452801
 30
0.0
 40
0.999999999999994
100
AcDbArc
 50
180.0
 51
270.0
  0
LINE
  5
320
330
221
100
AcDbEntity
  8
0-11MG
  6
Continuous
 62
     7
100
AcDbLine
 10
434.2878408516
 20
208.3253520599
 30
0.0
 11
428.7707996058
 21
208.3253520599
 31
0.0
  0
LINE
  5
321
330
221
100
AcDbEntity
  8
0-11MG
  6
Continuous
 62
     7
100
AcDbLine
 10
455.9707996058
 20
208.3253520599
 30
0.0
 11
454.25375836
 21
208.3253520599
 31
0.0
  0
LINE
  5
322
330
221
100
AcDbEntity
  8
0-11MG
  6
Continuous
 62
     7
100
AcDbLine
 10
428.7707996058
 20
198.3253520599
 30
0.0
 11
455.9707996058
 21
198.3253520599
 31
0.0
  0
LINE
  5
323
330
221
100
AcDbEntity
  8
0-11MG
  6
Continuous
 62
     7
100
AcDbLine
 10
455.9707996058
 20
198.3253520599
 30
0.0
 11
456.7707996058
 21
199.1253520599
 31
0.0
  0
LINE
  5
324
330
221
100
AcDbEntity
  8
0-11MG
  6
Continuous
 62
     7
100
AcDbLine
 10
456.7707996058
 20
207.5253520599
 30
0.0
 11
455.9707996058
 21
208.3253520599
 31
0.0
  0
ENDBLK
  5
326
330
221
100
AcDbEntity
  8
0
100
AcDbBlockEnd
  0
BLOCK
  5
38D
330
327
100
AcDbEntity
  8
0
100
AcDbBlockBegin
  2
SE4
 70
     0
 10
0.0
 20
0.0
 30
0.0
  3
SE4
  1

  0
LINE
  5
329
330
327
100
AcDbEntity
  8
0-11MG
  6
Continuous
 62
     7
100
AcDbLine
 10
179.062612217
 20
188.3253520599
 30
0.0
 11
179.062612217
 21
175.3253520599
 31
0.0
  0
LINE
  5
32A
330
327
100
AcDbEntity
  8
0-11MG
  6
Continuous
 62
     7
100
AcDbLine
 10
179.062612217
 20
188.3253520599
 30
0.0
 11
177.062612217
 21
188.3253520599
 31
0.0
  0
LINE
  5
32B
330
327
100
AcDbEntity
  8
0-11MG
  6
Continuous
 62
     7
100
AcDbLine
 10
177.062612217
 20
188.3253520599
 30
0.0
 11
175.462612217
 21
188.3253520599
 31
0.0
  0
LINE
  5
32C
330
327
100
AcDbEntity
  8
0-11MG
  6
Continuous
 62
     7
100
AcDbLine
 10
175.462612217
 20
218.3253520599
 30
0.0
 11
175.462612217
 21
203.3253520599
 31
0.0
  0
LINE
  5
32D
330
327
100
AcDbEntity
  8
0-11MG
  6
Continuous
 62
     7
100
AcDbLine
 10
175.462612217
 20
203.3253520599
 30
0.0
 11
175.462612217
 21
188.3253520599
 31
0.0
  0
LINE
  5
32E
330
327
100
AcDbEntity
  8
0-11MG
  6
Continuous
 62
     7
100
AcDbLine
 10
175.462612217
 20
218.3253520599
 30
0.0
 11
177.062612217
 21
218.3253520599
 31
0.0
  0
LINE
  5
32F
330
327
100
AcDbEntity
  8
0-11MG
  6
Continuous
 62
     7
100
AcDbLine
 10
177.062612217
 20
218.3253520599
 30
0.0
 11
179.062612217
 21
218.3253520599
 31
0.0
  0
LINE
  5
330
330
327
100
AcDbEntity
  8
0-11MG
  6
Continuous
 62
     7
100
AcDbLine
 10
179.062612217
 20
256.3253520599
 30
0.0
 11
179.062612217
 21
218.3253520599
 31
0.0
  0
LINE
  5
331
330
327
100
AcDbEntity
  8
0-11MG
  6
Continuous
 62
     7
100
AcDbLine
 10
177.062612217
 20
173.3253520599
 30
0.0
 11
178.062612217
 21
174.3253520599
 31
0.0
  0
LINE
  5
332
330
327
100
AcDbEntity
  8
0-11MG
  6
Continuous
 62
     7
100
AcDbLine
 10
179.062612217
 20
175.3253520599
 30
0.0
 11
178.062612217
 21
174.3253520599
 31
0.0
  0
LINE
  5
333
330
327
100
AcDbEntity
  8
0-11MG
  6
Continuous
 62
     7
100
AcDbLine
 10
177.062612217
 20
175.3253520599
 30
0.0
 11
178.062612217
 21
174.3253520599
 31
0.0
  0
LINE
  5
334
330
327
100
AcDbEntity
  8
0-11MG
  6
Continuous
 62
     7
100
AcDbLine
 10
177.062612217
 20
188.3253520599
 30
0.0
 11
177.062612217
 21
175.3253520599
 31
0.0
  0
LINE
  5
335
330
327
100
AcDbEntity
  8
0-11MG
  6
Continuous
 62
     7
100
AcDbLine
 10
106.062612217
 20
188.3253520599
 30
0.0
 11
106.062612217
 21
175.3253520599
 31
0.0
  0
LINE
  5
336
330
327
100
AcDbEntity
  8
0-11MG
  6
Continuous
 62
     7
100
AcDbLine
 10
107.662612217
 20
188.3253520599
 30
0.0
 11
106.062612217
 21
188.3253520599
 31
0.0
  0
LINE
  5
337
330
327
100
AcDbEntity
  8
0-11MG
  6
Continuous
 62
     7
100
AcDbLine
 10
107.662612217
 20
203.3253520599
 30
0.0
 11
107.662612217
 21
218.3253520599
 31
0.0
  0
LINE
  5
338
330
327
100
AcDbEntity
  8
0-11MG
  6
Continuous
 62
     7
100
AcDbLine
 10
106.062612217
 20
218.3253520599
 30
0.0
 11
107.662612217
 21
218.3253520599
 31
0.0
  0
LINE
  5
339
330
327
100
AcDbEntity
  8
0-11MG
  6
Continuous
 62
     7
100
AcDbLine
 10
106.062612217
 20
256.3253520599
 30
0.0
 11
106.062612217
 21
218.3253520599
 31
0.0
  0
LINE
  5
33A
330
327
100
AcDbEntity
  8
0-11MG
  6
Continuous
 62
     7
100
AcDbLine
 10
106.062612217
 20
256.3253520599
 30
0.0
 11
177.062612217
 21
256.3253520599
 31
0.0
  0
LINE
  5
33B
330
327
100
AcDbEntity
  8
0-11MG
  6
Continuous
 62
     7
100
AcDbLine
 10
177.062612217
 20
256.3253520599
 30
0.0
 11
177.062612217
 21
218.3253520599
 31
0.0
  0
LINE
  5
33C
330
327
100
AcDbEntity
  8
0-11MG
  6
Continuous
 62
     7
100
AcDbLine
 10
177.062612217
 20
175.3253520599
 30
0.0
 11
106.062612217
 21
175.3253520599
 31
0.0
  0
LINE
  5
33D
330
327
100
AcDbEntity
  8
0-11MG
  6
Continuous
 62
     7
100
AcDbLine
 10
177.062612217
 20
256.3253520599
 30
0.0
 11
178.062612217
 21
257.3253520599
 31
0.0
  0
LINE
  5
33E
330
327
100
AcDbEntity
  8
0-11MG
  6
Continuous
 62
     7
100
AcDbLine
 10
179.062612217
 20
256.3253520599
 30
0.0
 11
178.062612217
 21
257.3253520599
 31
0.0
  0
LINE
  5
33F
330
327
100
AcDbEntity
  8
0-11MG
  6
Continuous
 62
     7
100
AcDbLine
 10
178.062612217
 20
257.3253520599
 30
0.0
 11
177.062612217
 21
258.3253520599
 31
0.0
  0
LINE
  5
340
330
327
100
AcDbEntity
  8
0-11MG
  6
Continuous
 62
     7
100
AcDbLine
 10
177.062612217
 20
173.3253520599
 30
0.0
 11
106.062612217
 21
173.3253520599
 31
0.0
  0
LINE
  5
341
330
327
100
AcDbEntity
  8
0-11MG
  6
Continuous
 62
     7
100
AcDbLine
 10
106.062612217
 20
173.3253520599
 30
0.0
 11
105.062612217
 21
174.3253520599
 31
0.0
  0
LINE
  5
342
330
327
100
AcDbEntity
  8
0-11MG
  6
Continuous
 62
     7
100
AcDbLine
 10
105.062612217
 20
174.3253520599
 30
0.0
 11
106.062612217
 21
175.3253520599
 31
0.0
  0
LINE
  5
343
330
327
100
AcDbEntity
  8
0-11MG
  6
Continuous
 62
     7
100
AcDbLine
 10
106.062612217
 20
258.3253520599
 30
0.0
 11
177.062612217
 21
258.3253520599
 31
0.0
  0
LINE
  5
344
330
327
100
AcDbEntity
  8
0-11MG
  6
Continuous
 62
     7
100
AcDbLine
 10
106.062612217
 20
258.3253520599
 30
0.0
 11
105.062612217
 21
257.3253520599
 31
0.0
  0
LINE
  5
345
330
327
100
AcDbEntity
  8
0-11MG
  6
Continuous
 62
     7
100
AcDbLine
 10
104.062612217
 20
256.3253520599
 30
0.0
 11
105.062612217
 21
257.3253520599
 31
0.0
  0
LINE
  5
346
330
327
100
AcDbEntity
  8
0-11MG
  6
Continuous
 62
     7
100
AcDbLine
 10
104.062612217
 20
218.3253520599
 30
0.0
 11
104.062612217
 21
256.3253520599
 31
0.0
  0
LINE
  5
347
330
327
100
AcDbEntity
  8
0-11MG
  6
Continuous
 62
     7
100
AcDbLine
 10
104.062612217
 20
175.3253520599
 30
0.0
 11
104.062612217
 21
188.3253520599
 31
0.0
  0
LINE
  5
348
330
327
100
AcDbEntity
  8
0-11MG
  6
Continuous
 62
     7
100
AcDbLine
 10
104.062612217
 20
175.3253520599
 30
0.0
 11
105.062612217
 21
174.3253520599
 31
0.0
  0
LINE
  5
349
330
327
100
AcDbEntity
  8
0-11MG
  6
Continuous
 62
     7
100
AcDbLine
 10
104.062612217
 20
188.3253520599
 30
0.0
 11
106.062612217
 21
188.3253520599
 31
0.0
  0
LINE
  5
34A
330
327
100
AcDbEntity
  8
0-11MG
  6
Continuous
 62
     7
100
AcDbLine
 10
107.662612217
 20
188.3253520599
 30
0.0
 11
107.662612217
 21
203.3253520599
 31
0.0
  0
LINE
  5
34B
330
327
100
AcDbEntity
  8
0-11MG
  6
Continuous
 62
     7
100
AcDbLine
 10
106.062612217
 20
218.3253520599
 30
0.0
 11
104.062612217
 21
218.3253520599
 31
0.0
  0
LINE
  5
34C
330
327
100
AcDbEntity
  8
0-11MG
  6
Continuous
 62
     7
100
AcDbLine
 10
106.062612217
 20
256.3253520599
 30
0.0
 11
105.062612217
 21
257.3253520599
 31
0.0
  0
LINE
  5
34D
330
327
100
AcDbEntity
  8
0-11MG
  6
Continuous
 62
     7
100
AcDbLine
 10
91.462612217
 20
169.8346377376
 30
0.0
 11
91.462612217
 21
160.8253452801
 31
0.0
  0
LINE
  5
34E
330
327
100
AcDbEntity
  8
0-11MG
  6
Continuous
 62
     7
100
AcDbLine
 10
91.462612217
 20
169.8346377376
 30
0.0
 11
84.062612217
 21
169.8346377376
 31
0.0
  0
LINE
  5
34F
330
327
100
AcDbEntity
  8
0-11MG
  6
Continuous
 62
     7
100
AcDbLine
 10
91.462612217
 20
236.8160528227
 30
0.0
 11
91.462612217
 21
245.8253452801
 31
0.0
  0
LINE
  5
350
330
327
100
AcDbEntity
  8
0-11MG
  6
Continuous
 62
     7
100
AcDbLine
 10
84.062612217
 20
236.8160528227
 30
0.0
 11
91.462612217
 21
236.8160528227
 31
0.0
  0
SPLINE
  5
351
330
327
100
AcDbEntity
  8
0-11MG
  6
Continuous
 62
     7
100
AcDbSpline
210
0.0
220
0.0
230
1.0
 70
     8
 71
     3
 72
    14
 73
    10
 74
     0
 42
0.0000000068989975
 43
0.0000000001
 40
0.0
 40
0.0
 40
0.0
 40
0.0
 40
0.250000000000005
 40
0.250000000000005
 40
0.5000000000000099
 40
0.5000000000000099
 40
0.7500000000000148
 40
0.7500000000000148
 40
0.8627753427309766
 40
0.8627753427309766
 40
0.8627753427309766
 40
0.8627753427309766
 10
91.4626122169804
 20
229.4906373346637
 30
0.0
 10
91.57525542854044
 20
229.6192319963723
 30
0.0
 10
91.6905296905364
 20
229.7382249612226
 30
0.0
 10
91.90857838706805
 20
229.9420820159775
 30
0.0
 10
92.01265635175888
 20
230.0285893570765
 30
0.0
 10
92.2043356246713
 20
230.1668719792711
 30
0.0
 10
92.28985315969685
 20
230.2168313227172
 30
0.0
 10
92.38388464407552
 20
230.2530975296927
 30
0.0
 10
92.4087371375534
 20
230.2591294394922
 30
0.0
 10
92.42710212704023
 20
230.2593223411879
 30
0.0
  0
ARC
  5
352
330
327
100
AcDbEntity
  8
0-11MG
  6
Continuous
 62
     7
100
AcDbCircle
 10
89.6443062212
 20
234.6453740442
 30
0.0
 40
2.831621982821132
100
AcDbArc
 50
5.558748368
 51
50.0482024581
  0
LINE
  5
353
330
327
100
AcDbEntity
  8
0-11MG
  6
Continuous
 62
     7
100
AcDbLine
 10
92.462612217
 20
230.2335056615
 30
0.0
 11
92.462612217
 21
233.8760228064
 31
0.0
  0
LINE
  5
354
330
327
100
AcDbEntity
  8
0-11MG
  6
Continuous
 62
     7
100
AcDbLine
 10
92.462612217
 20
233.8760228064
 30
0.0
 11
84.062612217
 21
233.8760228064
 31
0.0
  0
LINE
  5
355
330
327
100
AcDbEntity
  8
0-11MG
  6
Continuous
 62
     7
100
AcDbLine
 10
84.062612217
 20
233.8760228064
 30
0.0
 11
84.062612217
 21
230.2593294733
 31
0.0
  0
LINE
  5
356
330
327
100
AcDbEntity
  8
0-11MG
  6
Continuous
 62
     7
100
AcDbLine
 10
91.462612217
 20
177.1600532256
 30
0.0
 11
91.462612217
 21
229.4906373347
 31
0.0
  0
LINE
  5
357
330
327
100
AcDbEntity
  8
0-11MG
  6
Continuous
 62
     7
100
AcDbLine
 10
91.462612217
 20
229.4906373347
 30
0.0
 11
84.062612217
 21
229.4906373347
 31
0.0
  0
LINE
  5
358
330
327
100
AcDbEntity
  8
0-11MG
  6
Continuous
 62
     7
100
AcDbLine
 10
84.062612217
 20
177.1600532256
 30
0.0
 11
91.462612217
 21
177.1600532256
 31
0.0
  0
LINE
  5
359
330
327
100
AcDbEntity
  8
0-11MG
  6
Continuous
 62
     7
100
AcDbLine
 10
81.062612217
 20
230.8253452801
 30
0.0
 11
81.062612217
 21
175.8253452801
 31
0.0
  0
LINE
  5
35A
330
327
100
AcDbEntity
  8
0-11MG
  6
Continuous
 62
     7
100
AcDbLine
 10
84.062612217
 20
169.8346377376
 30
0.0
 11
84.062612217
 21
160.8253452801
 31
0.0
  0
LINE
  5
35B
330
327
100
AcDbEntity
  8
0-11MG
  6
Continuous
 62
     7
100
AcDbLine
 10
84.062612217
 20
169.8346377376
 30
0.0
 11
84.062612217
 21
172.7746677538
 31
0.0
  0
LINE
  5
35C
330
327
100
AcDbEntity
  8
0-11MG
  6
Continuous
 62
     7
100
AcDbLine
 10
84.062612217
 20
176.391361087
 30
0.0
 11
84.062612217
 21
177.1600532256
 31
0.0
  0
LINE
  5
35D
330
327
100
AcDbEntity
  8
0-11MG
  6
Continuous
 62
     7
100
AcDbLine
 10
84.062612217
 20
177.1600532256
 30
0.0
 11
84.062612217
 21
229.4906373347
 31
0.0
  0
LINE
  5
35E
330
327
100
AcDbEntity
  8
0-11MG
  6
Continuous
 62
     7
100
AcDbLine
 10
84.062612217
 20
229.4906373347
 30
0.0
 11
84.062612217
 21
230.2593294733
 31
0.0
  0
LINE
  5
35F
330
327
100
AcDbEntity
  8
0-11MG
  6
Continuous
 62
     7
100
AcDbLine
 10
84.062612217
 20
233.8760228064
 30
0.0
 11
84.062612217
 21
236.8160528227
 31
0.0
  0
LINE
  5
360
330
327
100
AcDbEntity
  8
0-11MG
  6
Continuous
 62
     7
100
AcDbLine
 10
84.062612217
 20
236.8160528227
 30
0.0
 11
84.062612217
 21
245.8253452801
 31
0.0
  0
LINE
  5
361
330
327
100
AcDbEntity
  8
0-11MG
  6
Continuous
 62
     7
100
AcDbLine
 10
92.462612217
 20
161.8253452801
 30
0.0
 11
92.462612217
 21
171.7310276756
 31
0.0
  0
LINE
  5
362
330
327
100
AcDbEntity
  8
0-11MG
  6
Continuous
 62
     7
100
AcDbLine
 10
92.462612217
 20
244.8253452801
 30
0.0
 11
92.462612217
 21
234.9196628846
 31
0.0
  0
LINE
  5
363
330
327
100
AcDbEntity
  8
0-11MG
  6
Continuous
 62
     7
100
AcDbLine
 10
92.462612217
 20
234.9196628846
 30
0.0
 11
92.462612217
 21
233.8760228064
 31
0.0
  0
LINE
  5
364
330
327
100
AcDbEntity
  8
0-11MG
  6
Continuous
 62
     7
100
AcDbLine
 10
92.462612217
 20
230.2335056614
 30
0.0
 11
92.462612217
 21
176.4171848988
 31
0.0
  0
LINE
  5
365
330
327
100
AcDbEntity
  8
0-11MG
  6
Continuous
 62
     7
100
AcDbLine
 10
93.9449741268
 20
230.1507162527
 30
0.0
 11
93.9449741268
 21
176.4999743075
 31
0.0
  0
LINE
  5
366
330
327
100
AcDbEntity
  8
0-11MG
  6
Continuous
 62
     7
100
AcDbLine
 10
99.662612217
 20
228.6186797439
 30
0.0
 11
99.662612217
 21
178.0320108164
 31
0.0
  0
LINE
  5
367
330
327
100
AcDbEntity
  8
0-11MG
  6
Continuous
 62
     7
100
AcDbLine
 10
84.062612217
 20
172.7746677538
 30
0.0
 11
92.462612217
 21
172.7746677538
 31
0.0
  0
LINE
  5
368
330
327
100
AcDbEntity
  8
0-11MG
  6
Continuous
 62
     7
100
AcDbLine
 10
92.462612217
 20
172.7746677538
 30
0.0
 11
92.462612217
 21
176.4171848988
 31
0.0
  0
LINE
  5
369
330
327
100
AcDbEntity
  8
0-11MG
  6
Continuous
 62
     7
100
AcDbLine
 10
84.062612217
 20
176.391361087
 30
0.0
 11
84.062612217
 21
172.7746677538
 31
0.0
  0
ARC
  5
36A
330
327
100
AcDbEntity
  8
0-11MG
  6
Continuous
 62
     7
100
AcDbCircle
 10
89.6443062212
 20
172.0053165161
 30
0.0
 40
2.831621982821174
100
AcDbArc
 50
309.9517975419
 51
354.441251632
  0
LINE
  5
36B
330
327
100
AcDbEntity
  8
0-11MG
  6
Continuous
 62
     7
100
AcDbLine
 10
92.462612217
 20
171.7310276756
 30
0.0
 11
92.462612217
 21
172.7746677538
 31
0.0
  0
SPLINE
  5
36C
330
327
100
AcDbEntity
  8
0-11MG
  6
Continuous
 62
     7
100
AcDbSpline
210
0.0
220
0.0
230
1.0
 70
     8
 71
     3
 72
    14
 73
    10
 74
     0
 42
0.0000000068989975
 43
0.0000000001
 40
0.1372246572690435
 40
0.1372246572690435
 40
0.1372246572690435
 40
0.1372246572690435
 40
0.2499999999999918
 40
0.2499999999999918
 40
0.4999999999999946
 40
0.4999999999999946
 40
0.7499999999999973
 40
0.7499999999999973
 40
1.0
 40
1.0
 40
1.0
 40
1.0
 10
92.42710212704019
 20
176.3913682190829
 30
0.0
 10
92.40873713755336
 20
176.3915611207786
 30
0.0
 10
92.38388464407547
 20
176.397593030578
 30
0.0
 10
92.28985315969679
 20
176.4338592375535
 30
0.0
 10
92.20433562467123
 20
176.4838185809996
 30
0.0
 10
92.01265635175882
 20
176.6221012031942
 30
0.0
 10
91.90857838706798
 20
176.7086085442932
 30
0.0
 10
91.69052969053634
 20
176.9124655990482
 30
0.0
 10
91.57525542852657
 20
177.0314585638909
 30
0.0
 10
91.46261221698036
 20
177.160053225607
 30
0.0
  0
LINE
  5
36D
330
327
100
AcDbEntity
  8
0-11MG
  6
Continuous
 62
     7
100
AcDbLine
 10
53.862612217
 20
208.3253520599
 30
0.0
 11
53.862612217
 21
198.3253520599
 31
0.0
  0
ARC
  5
36E
330
327
100
AcDbEntity
  8
0-11MG
  6
Continuous
 62
     7
100
AcDbCircle
 10
74.0358977648
 20
213.2695669499
 30
0.0
 40
5.174587841776617
100
AcDbArc
 50
270.2957978894
 51
287.1586873509
  0
LINE
  5
36F
330
327
100
AcDbEntity
  8
0-11MG
  6
Continuous
 62
     7
100
AcDbLine
 10
74.062612217
 20
208.0950480669
 30
0.0
 11
57.062612217
 21
208.0950480669
 31
0.0
  0
ARC
  5
370
330
327
100
AcDbEntity
  8
0-11MG
  6
Continuous
 62
     7
100
AcDbCircle
 10
57.0893266692
 20
213.2695669499
 30
0.0
 40
5.174587841776591
100
AcDbArc
 50
252.8413126491
 51
269.7042021106
  0
LINE
  5
371
330
327
100
AcDbEntity
  8
0-11MG
  6
Continuous
 62
     7
100
AcDbLine
 10
53.062612217
 20
199.1253520599
 30
0.0
 11
53.062612217
 21
207.5253520599
 31
0.0
  0
LINE
  5
372
330
327
100
AcDbEntity
  8
0-11MG
  6
Continuous
 62
     7
100
AcDbLine
 10
178.562612217
 20
218.3253520599
 30
0.0
 11
178.562612217
 21
188.3253520599
 31
0.0
  0
CIRCLE
  5
373
330
327
100
AcDbEntity
  8
0-11MG
  6
Continuous
 62
     7
100
AcDbCircle
 10
125.6527096403
 20
242.7352546366
 30
0.0
 40
2.299999999999962
  0
CIRCLE
  5
374
330
327
100
AcDbEntity
  8
0-11MG
  6
Continuous
 62
     7
100
AcDbCircle
 10
157.4725147937
 20
242.7352546366
 30
0.0
 40
2.299999999999962
  0
CIRCLE
  5
375
330
327
100
AcDbEntity
  8
0-11MG
  6
Continuous
 62
     7
100
AcDbCircle
 10
157.4725147937
 20
210.9154494832
 30
0.0
 40
2.3
  0
CIRCLE
  5
376
330
327
100
AcDbEntity
  8
0-11MG
  6
Continuous
 62
     7
100
AcDbCircle
 10
125.6527096403
 20
210.9154494832
 30
0.0
 40
2.3
  0
CIRCLE
  5
377
330
327
100
AcDbEntity
  8
0-11MG
  6
Continuous
 62
     7
100
AcDbCircle
 10
141.562612217
 20
226.8253520599
 30
0.0
 40
15.5
  0
CIRCLE
  5
378
330
327
100
AcDbEntity
  8
0-11MG
  6
Continuous
 62
     7
100
AcDbCircle
 10
141.562612217
 20
226.8253520599
 30
0.0
 40
15.0
  0
CIRCLE
  5
379
330
327
100
AcDbEntity
  8
0-11MG
  6
Continuous
 62
     7
100
AcDbCircle
 10
141.562612217
 20
226.8253520599
 30
0.0
 40
3.500000000000003
  0
LINE
  5
37A
330
327
100
AcDbEntity
  8
0-11MG
  6
Continuous
 62
     7
100
AcDbLine
 10
84.062612217
 20
160.8253452801
 30
0.0
 11
91.462612217
 21
160.8253452801
 31
0.0
  0
ARC
  5
37B
330
327
100
AcDbEntity
  8
0-11MG
  6
Continuous
 62
     7
100
AcDbCircle
 10
91.462612217
 20
244.8253452801
 30
0.0
 40
1.000000000000008
100
AcDbArc
 50
0.0
 51
90.0
  0
LINE
  5
37C
330
327
100
AcDbEntity
  8
0-11MG
  6
Continuous
 62
     7
100
AcDbLine
 10
91.462612217
 20
245.8253452801
 30
0.0
 11
84.062612217
 21
245.8253452801
 31
0.0
  0
LINE
  5
37D
330
327
100
AcDbEntity
  8
0-11MG
  6
Continuous
 62
     7
100
AcDbLine
 10
92.4105549937
 20
230.2593294733
 30
0.0
 11
84.062612217
 21
230.2593294733
 31
0.0
  0
LINE
  5
37E
330
327
100
AcDbEntity
  8
0-11MG
  6
Continuous
 62
     7
100
AcDbLine
 10
81.062612217
 20
175.8253452801
 30
0.0
 11
84.062612217
 21
175.8253452801
 31
0.0
  0
LINE
  5
37F
330
327
100
AcDbEntity
  8
0-11MG
  6
Continuous
 62
     7
100
AcDbLine
 10
84.062612217
 20
230.8253452801
 30
0.0
 11
81.062612217
 21
230.8253452801
 31
0.0
  0
LINE
  5
380
330
327
100
AcDbEntity
  8
0-11MG
  6
Continuous
 62
     7
100
AcDbLine
 10
93.9449741268
 20
176.4999743075
 30
0.0
 11
99.662612217
 21
178.0320108164
 31
0.0
  0
LINE
  5
381
330
327
100
AcDbEntity
  8
0-11MG
  6
Continuous
 62
     7
100
AcDbLine
 10
99.662612217
 20
228.6186797439
 30
0.0
 11
93.9449741268
 21
230.1507162528
 31
0.0
  0
LINE
  5
382
330
327
100
AcDbEntity
  8
0-11MG
  6
Continuous
 62
     7
100
AcDbLine
 10
99.662612217
 20
178.0320108164
 30
0.0
 11
104.062612217
 21
178.1856622022
 31
0.0
  0
LINE
  5
383
330
327
100
AcDbEntity
  8
0-11MG
  6
Continuous
 62
     7
100
AcDbLine
 10
104.062612217
 20
228.4650283581
 30
0.0
 11
99.662612217
 21
228.6186797439
 31
0.0
  0
ARC
  5
384
330
327
100
AcDbEntity
  8
0-11MG
  6
Continuous
 62
     7
100
AcDbCircle
 10
94.462612217
 20
232.0825679053
 30
0.0
 40
2.000000000000005
100
AcDbArc
 50
180.0
 51
255.0
  0
ARC
  5
385
330
327
100
AcDbEntity
  8
0-11MG
  6
Continuous
 62
     7
100
AcDbCircle
 10
94.462612217
 20
174.5681226549
 30
0.0
 40
2.000000000000002
100
AcDbArc
 50
105.0
 51
180.0
  0
LINE
  5
386
330
327
100
AcDbEntity
  8
0-11MG
  6
Continuous
 62
     7
100
AcDbLine
 10
84.062612217
 20
176.391361087
 30
0.0
 11
92.4105549937
 21
176.391361087
 31
0.0
  0
ARC
  5
387
330
327
100
AcDbEntity
  8
0-11MG
  6
Continuous
 62
     7
100
AcDbCircle
 10
91.462612217
 20
161.8253452801
 30
0.0
 40
1.000000000000001
100
AcDbArc
 50
270.0
 51
360.0
  0
LINE
  5
388
330
327
100
AcDbEntity
  8
0-11MG
  6
Continuous
 62
     7
100
AcDbLine
 10
53.862612217
 20
198.3253520599
 30
0.0
 11
81.062612217
 21
198.3253520599
 31
0.0
  0
LINE
  5
389
330
327
100
AcDbEntity
  8
0-11MG
  6
Continuous
 62
     7
100
AcDbLine
 10
55.5796534628
 20
208.3253520599
 30
0.0
 11
53.862612217
 21
208.3253520599
 31
0.0
  0
LINE
  5
38A
330
327
100
AcDbEntity
  8
0-11MG
  6
Continuous
 62
     7
100
AcDbLine
 10
81.062612217
 20
208.3253520599
 30
0.0
 11
75.5455709712
 21
208.3253520599
 31
0.0
  0
LINE
  5
38B
330
327
100
AcDbEntity
  8
0-11MG
  6
Continuous
 62
     7
100
AcDbLine
 10
53.862612217
 20
208.3253520599
 30
0.0
 11
53.062612217
 21
207.5253520599
 31
0.0
  0
LINE
  5
38C
330
327
100
AcDbEntity
  8
0-11MG
  6
Continuous
 62
     7
100
AcDbLine
 10
53.062612217
 20
199.1253520599
 30
0.0
 11
53.862612217
 21
198.3253520599
 31
0.0
  0
ENDBLK
  5
38E
330
327
100
AcDbEntity
  8
0
100
AcDbBlockEnd
  0
BLOCK
  5
52C
330
38F
100
AcDbEntity
  8
0
100
AcDbBlockBegin
  2
SE5
 70
     0
 10
0.0
 20
0.0
 30
0.0
  3
SE5
  1

  0
LINE
  5
391
330
38F
100
AcDbEntity
  8
0-11MG
  6
Continuous
 62
     7
100
AcDbLine
 10
454.9721755792
 20
132.2924095752
 30
0.0
 11
454.9721755792
 21
131.4759129943
 31
0.0
  0
LINE
  5
392
330
38F
100
AcDbEntity
  8
0-11MG
  6
Continuous
 62
     7
100
AcDbLine
 10
456.3863891416
 20
133.1089061561
 30
0.0
 11
454.9721755792
 21
132.2924095752
 31
0.0
  0
LINE
  5
393
330
38F
100
AcDbEntity
  8
0-11MG
  6
Continuous
 62
     7
100
AcDbLine
 10
506.5909706058
 20
104.1232775332
 30
0.0
 11
456.3863891416
 21
133.1089061561
 31
0.0
  0
LINE
  5
394
330
38F
100
AcDbEntity
  8
0-11MG
  6
Continuous
 62
     7
100
AcDbLine
 10
506.5909706058
 20
104.1232775332
 30
0.0
 11
508.0051841682
 21
101.6737877904
 31
0.0
  0
LINE
  5
395
330
38F
100
AcDbEntity
  8
0-11MG
  6
Continuous
 62
     7
100
AcDbLine
 10
508.0051841682
 20
101.6737877904
 30
0.0
 11
508.0051841682
 21
70.6469177152
 31
0.0
  0
LINE
  5
396
330
38F
100
AcDbEntity
  8
0-11MG
  6
Continuous
 62
     7
100
AcDbLine
 10
508.0051841682
 20
70.6469177152
 30
0.0
 11
507.6516307776
 21
70.8510418604
 31
0.0
  0
LINE
  5
397
330
38F
100
AcDbEntity
  8
0-11MG
  6
Continuous
 62
     7
100
AcDbLine
 10
506.5909706058
 20
34.7210681543
 30
0.0
 11
507.1817386503
 21
35.0621482439
 31
0.0
  0
LINE
  5
398
330
38F
100
AcDbEntity
  8
0-11MG
  6
Continuous
 62
     7
100
AcDbLine
 10
505.8838638246
 20
35.1293164448
 30
0.0
 11
506.5909706058
 21
34.7210681543
 31
0.0
  0
LINE
  5
399
330
38F
100
AcDbEntity
  8
0-11MG
  6
Continuous
 62
     7
100
AcDbLine
 10
491.7417282009
 20
153.5213206793
 30
0.0
 11
456.3863891416
 21
133.1089061561
 31
0.0
  0
ELLIPSE
  5
39A
330
38F
100
AcDbEntity
  8
0-11MG
  6
Continuous
 62
     7
100
AcDbEllipse
 10
469.4678645935
 20
136.1707683346
 30
0.0
 11
2.600000000000001
 21
-4.922277863084189E-14
 31
0.0
210
0.0
220
0.0
230
1.0
 40
0.5773502692
 41
0.0
 42
6.283185307179586
  0
ELLIPSE
  5
39B
330
38F
100
AcDbEntity
  8
0-11MG
  6
Continuous
 62
     7
100
AcDbEllipse
 10
530.2790477755
 20
122.2903264588
 30
0.0
 11
2.600000000000001
 21
-1.084202172485504E-15
 31
0.0
210
0.0
220
0.0
230
1.0
 40
0.5773502692
 41
0.0
 42
6.283185307179586
  0
ELLIPSE
  5
39C
330
38F
100
AcDbEntity
  8
0-11MG
  6
Continuous
 62
     7
100
AcDbEllipse
 10
487.8526409044
 20
146.7852238867
 30
0.0
 11
2.600000000000003
 21
3.144186300207963E-15
 31
0.0
210
0.0
220
0.0
230
1.0
 40
0.5773502692
 41
0.0
 42
6.283185307179586
  0
ELLIPSE
  5
39D
330
38F
100
AcDbEntity
  8
0-11MG
  6
Continuous
 62
     7
100
AcDbEllipse
 10
511.8942714647
 20
111.6758709068
 30
0.0
 11
2.599999999999999
 21
-5.063224145507306E-14
 31
0.0
210
0.0
220
0.0
230
1.0
 40
0.5773502692
 41
0.0
 42
6.283185307179586
  0
LINE
  5
39E
330
38F
100
AcDbEntity
  8
0-11MG
  6
Continuous
 62
     7
100
AcDbLine
 10
541.9463096651
 20
124.5356920564
 30
0.0
 11
491.7417282009
 21
153.5213206793
 31
0.0
  0
LINE
  5
39F
330
38F
100
AcDbEntity
  8
0-11MG
  6
Continuous
 62
     7
100
AcDbLine
 10
541.9463096651
 20
124.5356920564
 30
0.0
 11
506.5909706058
 21
104.1232775332
 31
0.0
  0
LINE
  5
3A0
330
38F
100
AcDbEntity
  8
0-11MG
  6
Continuous
 62
     7
100
AcDbLine
 10
541.9463096651
 20
124.5356920564
 30
0.0
 11
543.3605232275
 21
123.7191954755
 31
0.0
  0
LINE
  5
3A1
330
38F
100
AcDbEntity
  8
0-11MG
  6
Continuous
 62
     7
100
AcDbLine
 10
543.3605232275
 20
122.0862023136
 30
0.0
 11
543.3605232275
 21
123.7191954755
 31
0.0
  0
LINE
  5
3A2
330
38F
100
AcDbEntity
  8
0-11MG
  6
Continuous
 62
     7
100
AcDbLine
 10
543.3605232275
 20
122.0862023136
 30
0.0
 11
508.0051841682
 21
101.6737877904
 31
0.0
  0
ELLIPSE
  5
3A3
330
38F
100
AcDbEntity
  8
0-11MG
  6
Continuous
 62
     7
100
AcDbEllipse
 10
540.5320961028
 20
117.187222828
 30
0.0
 11
-1.299999999999891
 21
-2.251666049839608
 31
0.0
210
0.0
220
0.0
230
1.0
 40
0.5773502692
 41
0.0
 42
6.283185307179586
  0
ELLIPSE
  5
3A4
330
38F
100
AcDbEntity
  8
0-11MG
  6
Continuous
 62
     7
100
AcDbEllipse
 10
512.2478248553
 20
100.8572912095
 30
0.0
 11
-1.299999999999881
 21
-2.251666049839608
 31
0.0
210
0.0
220
0.0
230
1.0
 40
0.5773502692
 41
0.0
 42
6.283185307179586
  0
ELLIPSE
  5
3A5
330
38F
100
AcDbEntity
  8
0-11MG
  6
Continuous
 62
     7
100
AcDbEllipse
 10
526.389960479
 20
69.0139245533
 30
0.0
 11
-12.99999999999888
 21
-22.51666049839605
 31
0.0
210
0.0
220
0.0
230
1.0
 40
0.5773502692
 41
4.38634833312747
 42
4.882830539927204
  0
LINE
  5
3A6
330
38F
100
AcDbEntity
  8
0-11MG
  6
Continuous
 62
     7
100
AcDbLine
 10
508.0051841682
 20
70.6469177152
 30
0.0
 11
511.3733030613
 21
72.5915020648
 31
0.0
  0
LINE
  5
3A7
330
38F
100
AcDbEntity
  8
0-11MG
  6
Continuous
 62
     7
100
AcDbLine
 10
543.3605232275
 20
102.131923325
 30
0.0
 11
543.3605232275
 21
122.0862023136
 31
0.0
  0
ELLIPSE
  5
3A8
330
38F
100
AcDbEntity
  8
0-11MG
  6
Continuous
 62
     7
100
AcDbEllipse
 10
469.4678645935
 20
135.7625200441
 30
0.0
 11
2.100000000000003
 21
-1.192622389734055E-15
 31
0.0
210
0.0
220
0.0
230
1.0
 40
0.5773502692
 41
0.000000000000001
 42
3.814071949685146
  0
ELLIPSE
  5
3A9
330
38F
100
AcDbEntity
  8
0-11MG
  6
Continuous
 62
     7
100
AcDbEllipse
 10
469.4678645935
 20
135.7625200441
 30
0.0
 11
2.100000000000003
 21
-1.192622389734055E-15
 31
0.0
210
0.0
220
0.0
230
1.0
 40
0.5773502692
 41
5.610706011084451
 42
6.283185307179586
  0
ELLIPSE
  5
3AA
330
38F
100
AcDbEntity
  8
0-11MG
  6
Continuous
 62
     7
100
AcDbEllipse
 10
530.2790477755
 20
121.8820781684
 30
0.0
 11
2.100000000000003
 21
-1.192622389734055E-15
 31
0.0
210
0.0
220
0.0
230
1.0
 40
0.5773502692
 41
0.000000000000001
 42
3.814071948832591
  0
ELLIPSE
  5
3AB
330
38F
100
AcDbEntity
  8
0-11MG
  6
Continuous
 62
     7
100
AcDbEllipse
 10
530.2790477755
 20
121.8820781684
 30
0.0
 11
2.100000000000003
 21
-1.192622389734055E-15
 31
0.0
210
0.0
220
0.0
230
1.0
 40
0.5773502692
 41
5.610706012040904
 42
6.283185307179586
  0
ELLIPSE
  5
3AC
330
38F
100
AcDbEntity
  8
0-11MG
  6
Continuous
 62
     7
100
AcDbEllipse
 10
487.8526409044
 20
146.3769755962
 30
0.0
 11
2.100000000000001
 21
-5.421010862427522E-16
 31
0.0
210
0.0
220
0.0
230
1.0
 40
0.5773502692
 41
0.0000000000000004
 42
3.814071949665504
  0
ELLIPSE
  5
3AD
330
38F
100
AcDbEntity
  8
0-11MG
  6
Continuous
 62
     7
100
AcDbEllipse
 10
487.8526409044
 20
146.3769755962
 30
0.0
 11
2.100000000000001
 21
-5.421010862427522E-16
 31
0.0
210
0.0
220
0.0
230
1.0
 40
0.5773502692
 41
5.610706011100747
 42
6.283185307179586
  0
ELLIPSE
  5
3AE
330
38F
100
AcDbEntity
  8
0-11MG
  6
Continuous
 62
     7
100
AcDbEllipse
 10
511.8942714647
 20
111.2676226163
 30
0.0
 11
2.100000000000003
 21
-1.192622389734055E-15
 31
0.0
210
0.0
220
0.0
230
1.0
 40
0.5773502692
 41
0.0
 42
3.814071949351902
  0
ELLIPSE
  5
3AF
330
38F
100
AcDbEntity
  8
0-11MG
  6
Continuous
 62
     7
100
AcDbEllipse
 10
511.8942714647
 20
111.2676226163
 30
0.0
 11
2.100000000000003
 21
-1.192622389734055E-15
 31
0.0
210
0.0
220
0.0
230
1.0
 40
0.5773502692
 41
5.610706011474837
 42
6.283185307179586
  0
ELLIPSE
  5
3B0
330
38F
100
AcDbEntity
  8
0-11MG
  6
Continuous
 62
     7
100
AcDbEllipse
 10
540.1785427122
 20
117.3913469733
 30
0.0
 11
-1.049999999999911
 21
-1.818653347947344
 31
0.0
210
0.0
220
0.0
230
1.0
 40
0.5773502692
 41
0.0
 42
3.814071921344374
  0
ELLIPSE
  5
3B1
330
38F
100
AcDbEntity
  8
0-11MG
  6
Continuous
 62
     7
100
AcDbEllipse
 10
540.1785427122
 20
117.3913469733
 30
0.0
 11
-1.049999999999911
 21
-1.818653347947344
 31
0.0
210
0.0
220
0.0
230
1.0
 40
0.5773502692
 41
5.610706038707647
 42
6.283185307179457
  0
ELLIPSE
  5
3B2
330
38F
100
AcDbEntity
  8
0-11MG
  6
Continuous
 62
     7
100
AcDbEllipse
 10
511.8942714647
 20
101.0614153547
 30
0.0
 11
-1.049999999999907
 21
-1.818653347947367
 31
0.0
210
0.0
220
0.0
230
1.0
 40
0.5773502692
 41
0.0
 42
3.814071991344479
  0
ELLIPSE
  5
3B3
330
38F
100
AcDbEntity
  8
0-11MG
  6
Continuous
 62
     7
100
AcDbEllipse
 10
511.8942714647
 20
101.0614153547
 30
0.0
 11
-1.049999999999907
 21
-1.818653347947367
 31
0.0
210
0.0
220
0.0
230
1.0
 40
0.5773502692
 41
5.610705970561275
 42
6.283185307179586
  0
SPLINE
  5
3B4
330
38F
100
AcDbEntity
  8
0-11MG
  6
Continuous
 62
     7
100
AcDbSpline
210
0.0
220
0.0
230
1.0
 70
     8
 71
     3
 72
     8
 73
     4
 74
     0
 42
0.0000000735864635
 43
0.0000000001
 40
0.0
 40
0.0
 40
0.0
 40
0.0
 40
0.1200266889816316
 40
0.1200266889816316
 40
0.1200266889816316
 40
0.1200266889816316
 10
511.618004305882
 20
28.83359772346938
 30
0.0
 10
511.6138707039514
 20
28.82495813069685
 30
0.0
 10
511.6123119136573
 20
28.82010736421336
 30
0.0
 10
511.6135686611817
 20
28.8190562591432
 30
0.0
  0
LINE
  5
3B5
330
38F
100
AcDbEntity
  8
0-11MG
  6
Continuous
 62
     7
100
AcDbLine
 10
521.7051169548
 20
31.415089716
 30
0.0
 11
524.4551169548
 21
29.8273764757
 31
0.0
  0
ELLIPSE
  5
3B6
330
38F
100
AcDbEntity
  8
0-11MG
  6
Continuous
 62
     7
100
AcDbEllipse
 10
523.0321008967
 20
30.5380668438
 30
0.0
 11
-1.375838123410765
 21
-2.383021532737944
 31
0.0
210
0.0
220
0.0
230
1.0
 40
0.5773502692
 41
1.6057029118347
 42
4.677482395344709
  0
LINE
  5
3B7
330
38F
100
AcDbEntity
  8
0-11MG
  6
Continuous
 62
     7
100
AcDbLine
 10
521.7051169548
 20
31.415089716
 30
0.0
 11
518.929509648
 21
26.8238856673
 31
0.0
  0
LINE
  5
3B8
330
38F
100
AcDbEntity
  8
0-11MG
  6
Continuous
 62
     7
100
AcDbLine
 10
518.929509648
 20
26.8238856673
 30
0.0
 11
521.8668212681
 21
25.1280280128
 31
0.0
  0
LINE
  5
3B9
330
38F
100
AcDbEntity
  8
0-11MG
  6
Continuous
 62
     7
100
AcDbLine
 10
521.8668212681
 20
25.1280280128
 30
0.0
 11
524.4551169548
 21
29.8273764757
 31
0.0
  0
ELLIPSE
  5
3BA
330
38F
100
AcDbEntity
  8
0-11MG
  6
Continuous
 62
     7
100
AcDbEllipse
 10
535.299510716
 20
63.8699933256
 30
0.0
 11
-21.24999999999826
 21
-36.80607966083974
 31
0.0
210
0.0
220
0.0
230
1.0
 40
0.5773502692
 41
4.834571602262394
 42
6.161002685301685
  0
LINE
  5
3BB
330
38F
100
AcDbEntity
  8
0-11MG
  6
Continuous
 62
     7
100
AcDbLine
 10
511.6180043059
 20
28.8335977235
 30
0.0
 11
516.8505944867
 21
25.812560374
 31
0.0
  0
LINE
  5
3BC
330
38F
100
AcDbEntity
  8
0-11MG
  6
Continuous
 62
     7
100
AcDbLine
 10
516.8505944867
 20
68.540303377
 30
0.0
 11
511.6180043059
 21
71.5613407265
 31
0.0
  0
SPLINE
  5
3BD
330
38F
100
AcDbEntity
  8
0-11MG
  6
Continuous
 62
     7
100
AcDbSpline
210
0.0
220
0.0
230
1.0
 70
     8
 71
     3
 72
    16
 73
    12
 74
     0
 42
0.0000000049651371
 43
0.0000000001
 40
0.0
 40
0.0
 40
0.0
 40
0.0
 40
0.2499999999999993
 40
0.2499999999999993
 40
0.4999999999999987
 40
0.4999999999999987
 40
0.7499999999999979
 40
0.7499999999999979
 40
0.8749999999999989
 40
0.8749999999999989
 40
1.0
 40
1.0
 40
1.0
 40
1.0
 10
516.797855272478
 20
80.53310577624603
 30
0.0
 10
516.6272743364108
 20
80.44456251655683
 30
0.0
 10
516.461622391698
 20
80.34596651168054
 30
0.0
 10
516.1632899739417
 20
80.13699005786191
 30
0.0
 10
516.0285258118231
 20
80.02604882823536
 30
0.0
 10
515.7952075182598
 20
79.78429488879574
 30
0.0
 10
515.6994108987984
 20
79.65633496371952
 30
0.0
 10
515.6041718104319
 20
79.4508903142073
 30
0.0
 10
515.5807833555986
 20
79.37993992962936
 30
0.0
 10
515.5559324058792
 20
79.23716784102419
 30
0.0
 10
515.5539937679569
 20
79.16466265014665
 30
0.0
 10
515.5654612598923
 20
79.08968344172115
 30
0.0
  0
ELLIPSE
  5
3BE
330
38F
100
AcDbEntity
  8
0-11MG
  6
Continuous
 62
     7
100
AcDbEllipse
 10
516.9614146298
 20
80.1572075984
 30
0.0
 11
-0.9999999999998883
 21
-1.732050807568792
 31
0.0
210
0.0
220
0.0
230
0.9999999999999999
 40
0.5773502692
 41
5.658658447642602
 42
6.248278722138883
  0
SPLINE
  5
3BF
330
38F
100
AcDbEntity
  8
0-11MG
  6
Continuous
 62
     7
100
AcDbSpline
210
0.0
220
0.0
230
1.0
 70
     8
 71
     3
 72
    16
 73
    12
 74
     0
 42
0.0000000049651371
 43
0.0000000001
 40
0.0
 40
0.0
 40
0.0
 40
0.0
 40
0.1249999999999978
 40
0.1249999999999978
 40
0.2499999999999957
 40
0.2499999999999957
 40
0.4999999999999971
 40
0.4999999999999971
 40
0.7499999999999986
 40
0.7499999999999986
 40
1.0
 40
1.0
 40
1.0
 40
1.0
 10
512.2518477096778
 20
73.35033641610097
 30
0.0
 10
512.1811800644579
 20
73.32277795122185
 30
0.0
 10
512.1193580462128
 20
73.28484644609381
 30
0.0
 10
512.0081392653892
 20
73.19193884802621
 30
0.0
 10
511.9583886573531
 20
73.1362086596962
 30
0.0
 10
511.8280879159872
 20
72.95100686498138
 30
0.0
 10
511.7651696799355
 20
72.80406459639305
 30
0.0
 10
511.6724637736976
 20
72.4811280572799
 30
0.0
 10
511.6437679315731
 20
72.30894825455225
 30
0.0
 10
511.6119552226515
 20
71.94609657509349
 30
0.0
 10
511.6093945500879
 20
71.75333978035084
 30
0.0
 10
511.6180043058823
 20
71.5613407264676
 30
0.0
  0
ELLIPSE
  5
3C0
330
38F
100
AcDbEntity
  8
0-11MG
  6
Continuous
 62
     7
100
AcDbEllipse
 10
517.0924039348
 20
74.3818713269
 30
0.0
 11
1.375838123410727
 21
2.383021532737956
 31
0.0
210
0.0
220
0.0
230
1.0
 40
0.5773502692
 41
3.176499238628953
 42
6.248278722139812
  0
LINE
  5
3C1
330
38F
100
AcDbEntity
  8
0-11MG
  6
Continuous
 62
     7
100
AcDbLine
 10
515.7654199928
 20
71.9725793825
 30
0.0
 11
521.7051169548
 21
68.5432937426
 31
0.0
  0
ELLIPSE
  5
3C2
330
38F
100
AcDbEntity
  8
0-11MG
  6
Continuous
 62
     7
100
AcDbEllipse
 10
523.0321008967
 20
70.952585687
 30
0.0
 11
-1.375838123410734
 21
-2.383021532737973
 31
0.0
210
0.0
220
0.0
230
1.0
 40
0.5773502692
 41
0.0349065850395707
 42
3.106686068549621
  0
LINE
  5
3C3
330
38F
100
AcDbEntity
  8
0-11MG
  6
Continuous
 62
     7
100
AcDbLine
 10
521.8668212681
 20
75.0170755034
 30
0.0
 11
515.9271243061
 21
78.4463611432
 31
0.0
  0
LINE
  5
3C4
330
38F
100
AcDbEntity
  8
0-11MG
  6
Continuous
 62
     7
100
AcDbLine
 10
515.9271243061
 20
78.4463611432
 30
0.0
 11
518.5154199928
 21
76.7357191033
 31
0.0
  0
LINE
  5
3C5
330
38F
100
AcDbEntity
  8
0-11MG
  6
Continuous
 62
     7
100
AcDbLine
 10
518.5154199928
 20
76.7357191033
 30
0.0
 11
524.4551169548
 21
73.3064334634
 31
0.0
  0
LINE
  5
3C6
330
38F
100
AcDbEntity
  8
0-11MG
  6
Continuous
 62
     7
100
AcDbLine
 10
524.4551169548
 20
73.3064334634
 30
0.0
 11
521.8668212681
 21
75.0170755034
 31
0.0
  0
LINE
  5
3C7
330
38F
100
AcDbEntity
  8
0-11MG
  6
Continuous
 62
     7
100
AcDbLine
 10
515.7654199928
 20
71.9725793825
 30
0.0
 11
512.9898126861
 21
73.3587881797
 31
0.0
  0
LINE
  5
3C8
330
38F
100
AcDbEntity
  8
0-11MG
  6
Continuous
 62
     7
100
AcDbLine
 10
512.9898126861
 20
73.3587881797
 30
0.0
 11
518.929509648
 21
69.9295025398
 31
0.0
  0
LINE
  5
3C9
330
38F
100
AcDbEntity
  8
0-11MG
  6
Continuous
 62
     7
100
AcDbLine
 10
518.929509648
 20
69.9295025398
 30
0.0
 11
521.7051169548
 21
68.5432937426
 31
0.0
  0
ELLIPSE
  5
3CA
330
38F
100
AcDbEntity
  8
0-11MG
  6
Continuous
 62
     7
100
AcDbEllipse
 10
535.299510716
 20
63.8699933256
 30
0.0
 11
21.24999999999819
 21
36.80607966083961
 31
0.0
210
0.0
220
0.0
230
1.0
 40
0.5773502692
 41
0.1221826218776899
 42
1.448613704917
  0
LINE
  5
3CB
330
38F
100
AcDbEntity
  8
0-11MG
  6
Continuous
 62
     7
100
AcDbLine
 10
516.7978552725
 20
80.5331057762
 30
0.0
 11
522.0304454533
 21
77.5120684268
 31
0.0
  0
LINE
  5
3CC
330
38F
100
AcDbEntity
  8
0-11MG
  6
Continuous
 62
     7
100
AcDbLine
 10
559.0337563402
 20
98.8759399283
 30
0.0
 11
553.8011661594
 21
101.8969772777
 31
0.0
  0
SPLINE
  5
3CD
330
38F
100
AcDbEntity
  8
0-11MG
  6
Continuous
 62
     7
100
AcDbSpline
210
0.0
220
0.0
230
1.0
 70
     8
 71
     3
 72
     8
 73
     4
 74
     0
 42
0.0000000736286105
 43
0.0000000001
 40
0.8797445229405925
 40
0.8797445229405925
 40
0.8797445229405925
 40
0.8797445229405925
 40
1.0
 40
1.0
 40
1.0
 40
1.0
 10
553.8115503927982
 20
101.9080861251431
 30
0.0
 10
553.8100159936259
 20
101.9086665913155
 30
0.0
 10
553.8065917876557
 20
101.9048919361761
 30
0.0
 10
553.801166159445
 20
101.8969772777409
 30
0.0
  0
ELLIPSE
  5
3CE
330
38F
100
AcDbEntity
  8
0-11MG
  6
Continuous
 62
     7
100
AcDbEllipse
 10
558.0321008967
 20
91.1598451087
 30
0.0
 11
1.375838123410746
 21
2.383021532737955
 31
0.0
210
0.0
220
0.0
230
0.9999999999999999
 40
0.5773502692
 41
1.605702911834696
 42
4.677482395344709
  0
LINE
  5
3CF
330
38F
100
AcDbEntity
  8
0-11MG
  6
Continuous
 62
     7
100
AcDbLine
 10
562.1346921454
 20
94.8740262851
 30
0.0
 11
559.1973805254
 21
96.5698839396
 31
0.0
  0
LINE
  5
3D0
330
38F
100
AcDbEntity
  8
0-11MG
  6
Continuous
 62
     7
100
AcDbLine
 10
556.6090848387
 20
91.8705354767
 30
0.0
 11
559.3590848387
 21
90.2828222364
 31
0.0
  0
LINE
  5
3D1
330
38F
100
AcDbEntity
  8
0-11MG
  6
Continuous
 62
     7
100
AcDbLine
 10
559.3590848387
 20
90.2828222364
 30
0.0
 11
562.1346921454
 21
94.8740262851
 31
0.0
  0
LINE
  5
3D2
330
38F
100
AcDbEntity
  8
0-11MG
  6
Continuous
 62
     7
100
AcDbLine
 10
559.1973805254
 20
96.5698839396
 30
0.0
 11
556.6090848387
 21
91.8705354767
 31
0.0
  0
ELLIPSE
  5
3D3
330
38F
100
AcDbEntity
  8
0-11MG
  6
Continuous
 62
     7
100
AcDbEllipse
 10
549.7103432723
 20
42.0373140321
 30
0.0
 11
0.7589329297029321
 21
-0.651168801627117
 31
0.0
210
0.0
220
0.0
230
0.9999999999999998
 40
0.2524214115
 41
4.145421224588011
 42
5.316830039489468
  0
ELLIPSE
  5
3D4
330
38F
100
AcDbEntity
  8
0-11MG
  6
Continuous
 62
     7
100
AcDbEllipse
 10
537.537574745
 20
62.577846456
 30
0.0
 11
-19.42605702542582
 21
-33.64691775877134
 31
0.0
210
0.0
220
0.0
230
1.0
 40
0.5773502692
 41
0.3499822591274904
 42
1.25649528450301
  0
LINE
  5
3D5
330
38F
100
AcDbEntity
  8
0-11MG
  6
Continuous
 62
     7
100
AcDbLine
 10
526.2046713787
 20
26.3934447314
 30
0.0
 11
528.0158140076
 21
25.2479776035
 31
0.0
  0
ELLIPSE
  5
3D6
330
38F
100
AcDbEntity
  8
0-11MG
  6
Continuous
 62
     7
100
AcDbEllipse
 10
540.5321008967
 20
60.8489559762
 30
0.0
 11
-19.49999999999826
 21
-33.77499074759458
 31
0.0
210
0.0
220
0.0
230
1.0
 40
0.5773502692
 41
0.3143010422916934
 42
1.25649528450299
  0
ELLIPSE
  5
3D7
330
38F
100
AcDbEntity
  8
0-11MG
  6
Continuous
 62
     7
100
AcDbEllipse
 10
548.256651209
 20
44.4661268033
 30
0.0
 11
-2.72605702542723
 21
-4.721669272370569
 31
0.0
210
0.0
220
0.0
230
1.0
 40
0.5773502692
 41
1.256495284502996
 42
2.050762910084545
  0
LINE
  5
3D8
330
38F
100
AcDbEntity
  8
0-11MG
  6
Continuous
 62
     7
100
AcDbLine
 10
550.0064005324
 20
41.5096249709
 30
0.0
 11
553.0483877859
 21
39.7005408129
 31
0.0
  0
ELLIPSE
  5
3D9
330
38F
100
AcDbEntity
  8
0-11MG
  6
Continuous
 62
     7
100
AcDbEllipse
 10
551.2511773608
 20
42.7372363235
 30
0.0
 11
-2.799999999999757
 21
-4.849742261193028
 31
0.0
210
0.0
220
0.0
230
0.9999999999999998
 40
0.5773502692
 41
1.256495284502983
 42
2.827291611299796
  0
ELLIPSE
  5
3DA
330
38F
100
AcDbEntity
  8
0-11MG
  6
Continuous
 62
     7
100
AcDbEllipse
 10
529.8130244327
 20
30.3599129596
 30
0.0
 11
2.799999999999768
 21
4.849742261193068
 31
0.0
210
0.0
220
0.0
230
1.0
 40
0.5773502692
 41
0.670610361272187
 42
3.455893695881509
  0
ELLIPSE
  5
3DB
330
38F
100
AcDbEntity
  8
0-11MG
  6
Continuous
 62
     7
100
AcDbEllipse
 10
536.8551456346
 20
62.9718470866
 30
0.0
 11
-18.92636161191626
 21
-32.78141991426377
 31
0.0
210
0.0
220
0.0
230
0.9999999999999999
 40
0.5773502692
 41
0.3623180128094041
 42
1.177991320626346
  0
ELLIPSE
  5
3DC
330
38F
100
AcDbEntity
  8
0-11MG
  6
Continuous
 62
     7
100
AcDbEllipse
 10
519.3230867801
 20
62.7604512822
 30
0.0
 11
-0.9433951892124339
 21
0.3316707960777558
 31
0.0
210
0.0
220
0.0
230
0.9999999999999998
 40
0.2524214115
 41
4.10794792127981
 42
5.643837663035068
  0
ELLIPSE
  5
3DD
330
38F
100
AcDbEntity
  8
0-11MG
  6
Continuous
 62
     7
100
AcDbEllipse
 10
519.3230867801
 20
41.305971931
 30
0.0
 11
0.8605788603074115
 21
0.5093172147021727
 31
0.0
210
0.0
220
0.0
230
0.9999999999999998
 40
0.7764986141
 41
0.4470708285197959
 42
1.982960570274731
  0
ELLIPSE
  5
3DE
330
38F
100
AcDbEntity
  8
0-11MG
  6
Continuous
 62
     7
100
AcDbEllipse
 10
540.5321008967
 20
60.8489559762
 30
0.0
 11
-19.49999999999802
 21
-33.77499074759386
 31
0.0
210
0.0
220
0.0
230
1.0
 40
0.5773502692
 41
5.026690022676386
 42
5.968884264887693
  0
ELLIPSE
  5
3DF
330
38F
100
AcDbEntity
  8
0-11MG
  6
Continuous
 62
     7
100
AcDbEllipse
 10
516.4928271875
 20
38.0503324247
 30
0.0
 11
2.726057025427172
 21
4.72166927237066
 31
0.0
210
0.0
220
0.0
230
0.9999999999999998
 40
0.5773502692
 41
3.649351290058789
 42
5.968884264887691
  0
ELLIPSE
  5
3E0
330
38F
100
AcDbEntity
  8
0-11MG
  6
Continuous
 62
     7
100
AcDbEllipse
 10
519.4873533393
 20
36.3214419449
 30
0.0
 11
2.799999999999764
 21
4.849742261192986
 31
0.0
210
0.0
220
0.0
230
1.0
 40
0.5773502692
 41
2.827291611297887
 42
5.968884264887703
  0
ELLIPSE
  5
3E1
330
38F
100
AcDbEntity
  8
0-11MG
  6
Continuous
 62
     7
100
AcDbEllipse
 10
537.537574745
 20
62.577846456
 30
0.0
 11
-13.97394297457121
 21
-24.20357921403042
 31
0.0
210
0.0
220
0.0
230
1.0
 40
0.5773502692
 41
5.026690022676385
 42
5.968884264887684
  0
LINE
  5
3E2
330
38F
100
AcDbEntity
  8
0-11MG
  6
Continuous
 62
     7
100
AcDbLine
 10
519.9281075424
 20
42.0541289482
 30
0.0
 11
523.0158140076
 21
40.433839507
 31
0.0
  0
ELLIPSE
  5
3E3
330
38F
100
AcDbEntity
  8
0-11MG
  6
Continuous
 62
     7
100
AcDbEllipse
 10
540.5321008967
 20
60.8489559762
 30
0.0
 11
-13.89999999999886
 21
-24.07550622520805
 31
0.0
210
0.0
220
0.0
230
1.0
 40
0.5773502692
 41
5.026690022676393
 42
5.968884264887691
  0
ELLIPSE
  5
3E4
330
38F
100
AcDbEntity
  8
0-11MG
  6
Continuous
 62
     7
100
AcDbEllipse
 10
516.4928271875
 20
62.8049791527
 30
0.0
 11
-2.726057025427233
 21
-4.721669272370582
 31
0.0
210
0.0
220
0.0
230
0.9999999999999998
 40
0.5773502692
 41
1.885097369086601
 42
2.589801152840816
  0
LINE
  5
3E5
330
38F
100
AcDbEntity
  8
0-11MG
  6
Continuous
 62
     7
100
AcDbLine
 10
519.9281075424
 20
62.7679027045
 30
0.0
 11
523.0158140076
 21
61.0380065441
 31
0.0
  0
ELLIPSE
  5
3E6
330
38F
100
AcDbEntity
  8
0-11MG
  6
Continuous
 62
     7
100
AcDbEllipse
 10
519.4873533393
 20
61.0760886728
 30
0.0
 11
-2.79999999999976
 21
-4.849742261193007
 31
0.0
210
0.0
220
0.0
230
1.0
 40
0.5773502692
 41
1.885097369086604
 42
5.02669002267641
  0
ELLIPSE
  5
3E7
330
38F
100
AcDbEntity
  8
0-11MG
  6
Continuous
 62
     7
100
AcDbEllipse
 10
515.8103980771
 20
63.1989797833
 30
0.0
 11
-2.226361611917731
 21
-3.856171427862899
 31
0.0
210
0.0
220
0.0
230
1.0
 40
0.5773502692
 41
1.885097369086587
 42
2.434443406155804
  0
ELLIPSE
  5
3E8
330
38F
100
AcDbEntity
  8
0-11MG
  6
Continuous
 62
     7
100
AcDbEllipse
 10
515.8103980771
 20
38.4443330553
 30
0.0
 11
2.226361611917723
 21
3.856171427862922
 31
0.0
210
0.0
220
0.0
230
1.0
 40
0.5773502692
 41
3.616164072212906
 42
5.968884264887697
  0
ELLIPSE
  5
3E9
330
38F
100
AcDbEntity
  8
0-11MG
  6
Continuous
 62
     7
100
AcDbEllipse
 10
536.8551456346
 20
62.9718470866
 30
0.0
 11
-14.47363838808081
 21
-25.06907705853823
 31
0.0
210
0.0
220
0.0
230
1.0
 40
0.5773502692
 41
5.026690022676393
 42
5.968884264887691
  0
ELLIPSE
  5
3EA
330
38F
100
AcDbEntity
  8
0-11MG
  6
Continuous
 62
     7
100
AcDbEllipse
 10
546.8523144873
 20
88.987993013
 30
0.0
 11
0.01079221636334426
 21
0.9999417623371886
 31
0.0
210
0.0
220
0.0
230
1.0
 40
0.7764986141
 41
1.158632083315322
 42
2.69452182507037
  0
ELLIPSE
  5
3EB
330
38F
100
AcDbEntity
  8
0-11MG
  6
Continuous
 62
     7
100
AcDbEllipse
 10
528.2721903442
 20
78.2607533374
 30
0.0
 11
0.758932929702932
 21
-0.6511688016271282
 31
0.0
210
0.0
220
0.0
230
1.0
 40
0.2524214115
 41
3.780940297734492
 42
5.316830039489488
  0
ELLIPSE
  5
3EC
330
38F
100
AcDbEntity
  8
0-11MG
  6
Continuous
 62
     7
100
AcDbEllipse
 10
540.5321008967
 20
60.8489559762
 30
0.0
 11
19.49999999999823
 21
33.77499074759426
 31
0.0
210
0.0
220
0.0
230
1.0
 40
0.5773502692
 41
0.3143010422916927
 42
1.256495284502996
  0
ELLIPSE
  5
3ED
330
38F
100
AcDbEntity
  8
0-11MG
  6
Continuous
 62
     7
100
AcDbEllipse
 10
526.8184982809
 20
80.6895661087
 30
0.0
 11
2.72605702542724
 21
4.721669272370581
 31
0.0
210
0.0
220
0.0
230
1.0
 40
0.5773502692
 41
3.693384154259251
 42
4.398087938092785
  0
ELLIPSE
  5
3EE
330
38F
100
AcDbEntity
  8
0-11MG
  6
Continuous
 62
     7
100
AcDbEllipse
 10
529.8130244327
 20
78.9606756289
 30
0.0
 11
2.799999999999768
 21
4.849742261192983
 31
0.0
210
0.0
220
0.0
230
0.9999999999999999
 40
0.5773502692
 41
1.256495284502988
 42
4.398087938092792
  0
ELLIPSE
  5
3EF
330
38F
100
AcDbEntity
  8
0-11MG
  6
Continuous
 62
     7
100
AcDbEllipse
 10
537.537574745
 20
62.577846456
 30
0.0
 11
13.97394297457136
 21
24.20357921403052
 31
0.0
210
0.0
220
0.0
230
1.0
 40
0.5773502692
 41
0.3143010422917042
 42
1.256495284503001
  0
LINE
  5
3F0
330
38F
100
AcDbEntity
  8
0-11MG
  6
Continuous
 62
     7
100
AcDbLine
 10
528.5682476043
 20
77.7330642763
 30
0.0
 11
531.6102348578
 21
75.9239801183
 31
0.0
  0
ELLIPSE
  5
3F1
330
38F
100
AcDbEntity
  8
0-11MG
  6
Continuous
 62
     7
100
AcDbEllipse
 10
540.5321008967
 20
60.8489559762
 30
0.0
 11
13.89999999999877
 21
24.07550622520818
 31
0.0
210
0.0
220
0.0
230
1.0
 40
0.5773502692
 41
0.3143010422916902
 42
1.256495284502998
  0
ELLIPSE
  5
3F2
330
38F
100
AcDbEntity
  8
0-11MG
  6
Continuous
 62
     7
100
AcDbEllipse
 10
548.256651209
 20
93.0668894727
 30
0.0
 11
-2.72605702542722
 21
-4.721669272370641
 31
0.0
210
0.0
220
0.0
230
0.9999999999999998
 40
0.5773502692
 41
0.3143010422916553
 42
2.63383401712099
  0
LINE
  5
3F3
330
38F
100
AcDbEntity
  8
0-11MG
  6
Continuous
 62
     7
100
AcDbLine
 10
546.5069018856
 20
88.0899511545
 30
0.0
 11
549.4539669357
 21
86.2260636368
 31
0.0
  0
ELLIPSE
  5
3F4
330
38F
100
AcDbEntity
  8
0-11MG
  6
Continuous
 62
     7
100
AcDbEllipse
 10
551.2511773608
 20
91.3379989929
 30
0.0
 11
-2.799999999999768
 21
-4.849742261193011
 31
0.0
210
0.0
220
0.0
230
1.0
 40
0.5773502692
 41
0.3143010422917146
 42
3.455893695881508
  0
ELLIPSE
  5
3F5
330
38F
100
AcDbEntity
  8
0-11MG
  6
Continuous
 62
     7
100
AcDbEllipse
 10
547.5742220986
 20
93.4608901033
 30
0.0
 11
-2.226361611917707
 21
-3.856171427862964
 31
0.0
210
0.0
220
0.0
230
1.0
 40
0.5773502692
 41
0.3143010422916798
 42
2.667021234966889
  0
ELLIPSE
  5
3F6
330
38F
100
AcDbEntity
  8
0-11MG
  6
Continuous
 62
     7
100
AcDbEllipse
 10
526.1360691705
 20
81.0835667393
 30
0.0
 11
2.226361611917733
 21
3.8561714278629
 31
0.0
210
0.0
220
0.0
230
1.0
 40
0.5773502692
 41
3.848741901037501
 42
4.398087938092813
  0
ELLIPSE
  5
3F7
330
38F
100
AcDbEntity
  8
0-11MG
  6
Continuous
 62
     7
100
AcDbEllipse
 10
536.8551456346
 20
62.9718470866
 30
0.0
 11
14.47363838808085
 21
25.06907705853803
 31
0.0
210
0.0
220
0.0
230
1.0
 40
0.5773502692
 41
0.3143010422917064
 42
1.256495284503008
  0
ELLIPSE
  5
3F8
330
38F
100
AcDbEntity
  8
0-11MG
  6
Continuous
 62
     7
100
AcDbEllipse
 10
542.6534212403
 20
59.6242111048
 30
0.0
 11
12.99999999999888
 21
22.51666049839607
 31
0.0
210
0.0
220
0.0
230
1.0
 40
0.5773502692
 41
4.90590217289548
 42
6.28318530717958
  0
ELLIPSE
  5
3F9
330
38F
100
AcDbEntity
  8
0-11MG
  6
Continuous
 62
     7
100
AcDbEllipse
 10
542.6534212403
 20
59.6242111048
 30
0.0
 11
12.99999999999888
 21
22.51666049839607
 31
0.0
210
0.0
220
0.0
230
1.0
 40
0.5773502692
 41
0.0
 42
4.51887578787391
  0
ELLIPSE
  5
3FA
330
38F
100
AcDbEntity
  8
0-11MG
  6
Continuous
 62
     7
100
AcDbEllipse
 10
539.8249941156
 20
61.2572042667
 30
0.0
 11
12.99999999999887
 21
22.51666049839607
 31
0.0
210
0.0
220
0.0
230
0.9999999999999999
 40
0.5773502692
 41
5.98547400551883
 42
6.174183930388744
  0
ELLIPSE
  5
3FB
330
38F
100
AcDbEntity
  8
0-11MG
  6
Continuous
 62
     7
100
AcDbEllipse
 10
539.8249941156
 20
61.2572042667
 30
0.0
 11
12.99999999999887
 21
22.51666049839607
 31
0.0
210
0.0
220
0.0
230
0.9999999999999999
 40
0.5773502692
 41
3.250594030384149
 42
3.43930395525914
  0
ELLIPSE
  5
3FC
330
38F
100
AcDbEntity
  8
0-11MG
  6
Continuous
 62
     7
100
AcDbEllipse
 10
542.6534212403
 20
59.6242111048
 30
0.0
 11
13.74999999999878
 21
23.81569860407278
 31
0.0
210
0.0
220
0.0
230
1.0
 40
0.5773502692
 41
4.895224117377603
 42
6.283185307179581
  0
ELLIPSE
  5
3FD
330
38F
100
AcDbEntity
  8
0-11MG
  6
Continuous
 62
     7
100
AcDbEllipse
 10
542.6534212403
 20
59.6242111048
 30
0.0
 11
13.74999999999878
 21
23.81569860407278
 31
0.0
210
0.0
220
0.0
230
1.0
 40
0.5773502692
 41
0.0
 42
4.529553843391783
  0
ELLIPSE
  5
3FE
330
38F
100
AcDbEntity
  8
0-11MG
  6
Continuous
 62
     7
100
AcDbEllipse
 10
540.5321008967
 20
60.8489559762
 30
0.0
 11
-21.24999999999819
 21
-36.80607966083973
 31
0.0
210
0.0
220
0.0
230
1.0
 40
0.5773502692
 41
4.834571602262392
 42
6.161002685301693
  0
ELLIPSE
  5
3FF
330
38F
100
AcDbEntity
  8
0-11MG
  6
Continuous
 62
     7
100
AcDbEllipse
 10
517.9650183177
 20
27.4613319318
 30
0.0
 11
0.9999999999999082
 21
1.732050807568934
 31
0.0
210
0.0
220
0.0
230
1.0
 40
0.5773502692
 41
3.019410031711726
 42
4.677482395344715
  0
ELLIPSE
  5
400
330
38F
100
AcDbEntity
  8
0-11MG
  6
Continuous
 62
     7
100
AcDbEllipse
 10
522.9011115918
 20
24.6114771513
 30
0.0
 11
0.9999999999999117
 21
1.732050807568913
 31
0.0
210
0.0
220
0.0
230
0.9999999999999998
 40
0.5773502692
 41
1.605702911834714
 42
3.263775275467444
  0
ELLIPSE
  5
401
330
38F
100
AcDbEntity
  8
0-11MG
  6
Continuous
 62
     7
100
AcDbEllipse
 10
540.5321008967
 20
60.8489559762
 30
0.0
 11
-21.24999999999817
 21
-36.80607966083974
 31
0.0
210
0.0
220
0.0
230
1.0
 40
0.5773502692
 41
0.1221826218776999
 42
1.448613704916998
  0
ELLIPSE
  5
402
330
38F
100
AcDbEntity
  8
0-11MG
  6
Continuous
 62
     7
100
AcDbEllipse
 10
558.1630902017
 20
44.9699899939
 30
0.0
 11
-0.9999999999999226
 21
-1.732050807568942
 31
0.0
210
0.0
220
0.0
230
1.0
 40
0.5773502692
 41
1.448613704916987
 42
1.538837523832074
  0
ELLIPSE
  5
403
330
38F
100
AcDbEntity
  8
0-11MG
  6
Continuous
 62
     7
100
AcDbEllipse
 10
563.0991834758
 20
53.5195543354
 30
0.0
 11
-0.9999999999999422
 21
-1.732050807568886
 31
0.0
210
0.0
220
0.0
230
0.9999999999999999
 40
0.5773502692
 41
1.602755129761684
 42
1.69297894867262
  0
ELLIPSE
  5
404
330
38F
100
AcDbEntity
  8
0-11MG
  6
Continuous
 62
     7
100
AcDbEllipse
 10
540.5321008967
 20
60.8489559762
 30
0.0
 11
21.24999999999814
 21
36.80607966083975
 31
0.0
210
0.0
220
0.0
230
1.0
 40
0.5773502692
 41
4.834571602262391
 42
6.161002685301694
  0
ELLIPSE
  5
405
330
38F
100
AcDbEntity
  8
0-11MG
  6
Continuous
 62
     7
100
AcDbEllipse
 10
563.0991834758
 20
94.2365800206
 30
0.0
 11
-0.9999999999998983
 21
-1.732050807568939
 31
0.0
210
0.0
220
0.0
230
1.0
 40
0.5773502692
 41
3.019410031711814
 42
4.677482395344748
  0
ELLIPSE
  5
406
330
38F
100
AcDbEntity
  8
0-11MG
  6
Continuous
 62
     7
100
AcDbEllipse
 10
558.1630902017
 20
97.0864348012
 30
0.0
 11
-0.9999999999999226
 21
-1.732050807568959
 31
0.0
210
0.0
220
0.0
230
1.0
 40
0.5773502692
 41
1.605702911834696
 42
3.263775275467864
  0
ELLIPSE
  5
407
330
38F
100
AcDbEntity
  8
0-11MG
  6
Continuous
 62
     7
100
AcDbEllipse
 10
540.5321008967
 20
60.8489559762
 30
0.0
 11
21.24999999999816
 21
36.80607966083973
 31
0.0
210
0.0
220
0.0
230
1.0
 40
0.5773502692
 41
0.1221826218777081
 42
1.448613704917
  0
ELLIPSE
  5
408
330
38F
100
AcDbEntity
  8
0-11MG
  6
Continuous
 62
     7
100
AcDbEllipse
 10
522.9011115918
 20
76.7279219586
 30
0.0
 11
0.9999999999999472
 21
1.732050807568974
 31
0.0
210
0.0
220
0.0
230
1.0
 40
0.5773502692
 41
1.448613704917014
 42
3.106686068549803
  0
ELLIPSE
  5
409
330
38F
100
AcDbEntity
  8
0-11MG
  6
Continuous
 62
     7
100
AcDbEllipse
 10
517.9650183177
 20
68.178357617
 30
0.0
 11
0.9999999999998881
 21
1.732050807568945
 31
0.0
210
0.0
220
0.0
230
1.0
 40
0.5773502692
 41
0.0349065850402579
 42
1.692978948672673
  0
ELLIPSE
  5
40A
330
38F
100
AcDbEntity
  8
0-11MG
  6
Continuous
 62
     7
100
AcDbEllipse
 10
540.5321008967
 20
60.8489559762
 30
0.0
 11
13.74999999999878
 21
23.81569860407278
 31
0.0
210
0.0
220
0.0
230
1.0
 40
0.5773502692
 41
0.0
 42
3.141592653589789
  0
ELLIPSE
  5
40B
330
38F
100
AcDbEntity
  8
0-11MG
  6
Continuous
 62
     7
100
AcDbEllipse
 10
512.0253213558
 20
71.6076432569
 30
0.0
 11
0.9999999999999497
 21
1.732050807568816
 31
0.0
210
0.0
220
0.0
230
0.9999999999999999
 40
0.5773502692
 41
0.0349065850393862
 42
0.6245268595368492
  0
ELLIPSE
  5
40C
330
38F
100
AcDbEntity
  8
0-11MG
  6
Continuous
 62
     7
100
AcDbEllipse
 10
529.5012351102
 20
67.2176293074
 30
0.0
 11
-12.64666723186424
 21
-21.90467019200786
 31
0.0
210
0.0
220
0.0
230
1.0
 40
0.5773502692
 41
4.602865774876088
 42
4.821912185893019
  0
ELLIPSE
  5
40D
330
38F
100
AcDbEntity
  8
0-11MG
  6
Continuous
 62
     7
100
AcDbEllipse
 10
537.537574745
 20
62.577846456
 30
0.0
 11
19.42605702542531
 21
33.64691775877157
 31
0.0
210
0.0
220
0.0
230
0.9999999999999999
 40
0.5773502692
 41
5.026690022676378
 42
5.933203048051204
  0
LINE
  5
40E
330
38F
100
AcDbEntity
  8
0-11MG
  6
Continuous
 62
     7
100
AcDbLine
 10
562.0176026574
 20
62.3136373113
 30
0.0
 11
565.1053091225
 21
60.5837411508
 31
0.0
  0
ELLIPSE
  5
40F
330
38F
100
AcDbEntity
  8
0-11MG
  6
Continuous
 62
     7
100
AcDbEllipse
 10
540.5321008967
 20
60.8489559762
 30
0.0
 11
19.4999999999979
 21
33.77499074759383
 31
0.0
210
0.0
220
0.0
230
1.0
 40
0.5773502692
 41
5.02669002267638
 42
5.968884264887689
  0
LINE
  5
410
330
38F
100
AcDbEntity
  8
0-11MG
  6
Continuous
 62
     7
100
AcDbLine
 10
563.2077341761
 20
90.4846295321
 30
0.0
 11
565.1053091225
 21
89.4888675696
 31
0.0
  0
ELLIPSE
  5
411
330
38F
100
AcDbEntity
  8
0-11MG
  6
Continuous
 62
     7
100
AcDbEllipse
 10
561.5768484542
 20
85.3764700075
 30
0.0
 11
-2.799999999999763
 21
-4.849742261193009
 31
0.0
210
0.0
220
0.0
230
1.0
 40
0.5773502692
 41
2.827291611297868
 42
5.612574945909358
  0
ELLIPSE
  5
412
330
38F
100
AcDbEntity
  8
0-11MG
  6
Continuous
 62
     7
100
AcDbEllipse
 10
558.5823223025
 20
62.3507137594
 30
0.0
 11
2.726057025427235
 21
4.721669272370606
 31
0.0
210
0.0
220
0.0
230
0.9999999999999998
 40
0.5773502692
 41
4.232422397095085
 42
5.026690022676387
  0
ELLIPSE
  5
413
330
38F
100
AcDbEntity
  8
0-11MG
  6
Continuous
 62
     7
100
AcDbEllipse
 10
561.5768484542
 20
60.6218232796
 30
0.0
 11
2.799999999999753
 21
4.849742261193014
 31
0.0
210
0.0
220
0.0
230
1.0
 40
0.5773502692
 41
3.455893695883405
 42
5.026690022676387
  0
ELLIPSE
  5
414
330
38F
100
AcDbEntity
  8
0-11MG
  6
Continuous
 62
     7
100
AcDbEllipse
 10
536.8551456346
 20
62.9718470866
 30
0.0
 11
18.92636161191634
 21
32.78141991426399
 31
0.0
210
0.0
220
0.0
230
0.9999999999999998
 40
0.5773502692
 41
5.105193986553361
 42
5.920867294370741
  0
ELLIPSE
  5
415
330
38F
100
AcDbEntity
  8
0-11MG
  6
Continuous
 62
     7
100
AcDbEllipse
 10
561.4125818951
 20
62.306185889
 30
0.0
 11
-0.9433951892124289
 21
0.3316707960777302
 31
0.0
210
0.0
220
0.0
230
0.9999999999999999
 40
0.2524214115
 41
4.10794792127969
 42
5.27935673617967
  0
ELLIPSE
  5
416
330
38F
100
AcDbEntity
  8
0-11MG
  6
Continuous
 62
     7
100
AcDbEllipse
 10
561.8867208946
 20
48.519860372
 30
0.0
 11
2.49999999999978
 21
4.330127018922329
 31
0.0
210
0.0
220
0.0
230
1.0
 40
0.5773502692
 41
5.497787143782053
 42
6.283185307179586
  0
ELLIPSE
  5
417
330
38F
100
AcDbEntity
  8
0-11MG
  6
Continuous
 62
     7
100
AcDbEllipse
 10
561.8867208946
 20
48.519860372
 30
0.0
 11
2.49999999999978
 21
4.330127018922329
 31
0.0
210
0.0
220
0.0
230
1.0
 40
0.5773502692
 41
0.0
 42
3.926990816987346
  0
LINE
  5
418
330
38F
100
AcDbEntity
  8
0-11MG
  6
Continuous
 62
     7
100
AcDbLine
 10
558.563319023
 20
53.1083229477
 30
0.0
 11
546.5425037428
 21
60.0485438855
 31
0.0
  0
SPLINE
  5
419
330
38F
100
AcDbEntity
  8
0-11MG
  6
Continuous
 62
     7
100
AcDbSpline
210
0.0
220
0.0
230
1.0
 70
     8
 71
     3
 72
    35
 73
    31
 74
     0
 42
0.0000000025140834
 43
0.0000000001
 40
0.0
 40
0.0
 40
0.0
 40
0.0
 40
0.1041054743351345
 40
0.1041054743351345
 40
0.1041054743351345
 40
0.2080071865814404
 40
0.2080071865814404
 40
0.2080071865814404
 40
0.3149406045341784
 40
0.3149406045341784
 40
0.3149406045341784
 40
0.4241715283050443
 40
0.4241715283050443
 40
0.4241715283050443
 40
0.5302286136964035
 40
0.5302286136964035
 40
0.5302286136964035
 40
0.6328085554604667
 40
0.6328085554604667
 40
0.6328085554604667
 40
0.7365764951519738
 40
0.7365764951519738
 40
0.7365764951519738
 40
0.8444356888092669
 40
0.8444356888092669
 40
0.8444356888092669
 40
0.9533952810325763
 40
0.9533952810325763
 40
0.9533952810325763
 40
1.0
 40
1.0
 40
1.0
 40
1.0
 10
546.54250374284
 20
60.04854388553502
 30
0.0
 10
546.4268008483231
 20
60.11534498283047
 30
0.0
 10
546.3290293467043
 20
60.20159992208743
 30
0.0
 10
546.2571430070631
 20
60.29869065904764
 30
0.0
 10
546.1853370590794
 20
60.39567281786454
 30
0.0
 10
546.1372663124646
 20
60.5058957459097
 30
0.0
 10
546.11608970198
 20
60.61811008927856
 30
0.0
 10
546.0943042361379
 20
60.73355074236309
 30
0.0
 10
546.1003512255778
 20
60.8541214902048
 30
0.0
 10
546.1338771527837
 20
60.9672996210878
 30
0.0
 10
546.1680822488973
 20
61.08277051682279
 30
0.0
 10
546.2320416955481
 20
61.1937036320854
 30
0.0
 10
546.3208306330938
 20
61.28787423955404
 30
0.0
 10
546.4070595293606
 20
61.37932963667064
 30
0.0
 10
546.5192402690712
 20
61.45747021701567
 30
0.0
 10
546.6476140672489
 20
61.51487774407849
 30
0.0
 10
546.7719319033657
 20
61.5704714839427
 30
0.0
 10
546.9147286294896
 20
61.60823022408696
 30
0.0
 10
547.0643641180533
 20
61.626802403455
 30
0.0
 10
547.2157925748528
 20
61.64559711912107
 30
0.0
 10
547.3781927320325
 20
61.64541617521241
 30
0.0
 10
547.5394519589751
 20
61.62925907836381
 30
0.0
 10
547.7069214522727
 20
61.61247975432946
 30
0.0
 10
547.877793472799
 20
61.57812535149277
 30
0.0
 10
548.038710291722
 20
61.53217894050811
 30
0.0
 10
548.2010931443117
 20
61.48581393446409
 30
0.0
 10
548.3580128275755
 20
61.42638471870251
 30
0.0
 10
548.4954122778952
 20
61.36127525583124
 30
0.0
 10
548.5549329199761
 20
61.3330702155154
 30
0.0
 10
548.6114115621949
 20
61.30354914188507
 30
0.0
 10
548.6638240863998
 20
61.27328875692645
 30
0.0
  0
LINE
  5
41A
330
38F
100
AcDbEntity
  8
0-11MG
  6
Continuous
 62
     7
100
AcDbLine
 10
548.6638240864
 20
61.2732887569
 30
0.0
 11
560.6846393666
 21
54.333067819
 31
0.0
  0
SPLINE
  5
41B
330
38F
100
AcDbEntity
  8
0-11MG
  6
Continuous
 62
     7
100
AcDbSpline
210
0.0
220
0.0
230
1.0
 70
     8
 71
     3
 72
    35
 73
    31
 74
     0
 42
0.0000000027418583
 43
0.0000000001
 40
0.0
 40
0.0
 40
0.0
 40
0.0
 40
0.1041054743351342
 40
0.1041054743351342
 40
0.1041054743351342
 40
0.20800718658144
 40
0.20800718658144
 40
0.20800718658144
 40
0.3149406045341783
 40
0.3149406045341783
 40
0.3149406045341783
 40
0.4241715283050435
 40
0.4241715283050435
 40
0.4241715283050435
 40
0.5302286136964036
 40
0.5302286136964036
 40
0.5302286136964036
 40
0.6328085554604647
 40
0.6328085554604647
 40
0.6328085554604647
 40
0.7365764951519718
 40
0.7365764951519718
 40
0.7365764951519718
 40
0.8444356888092663
 40
0.8444356888092663
 40
0.8444356888092663
 40
0.9533952810325762
 40
0.9533952810325762
 40
0.9533952810325762
 40
1.0
 40
1.0
 40
1.0
 40
1.0
 10
560.6846393665711
 20
54.3330678190416
 30
0.0
 10
560.8003422610881
 20
54.26626672174614
 30
0.0
 10
560.898113762707
 20
54.19455523371683
 30
0.0
 10
560.9700001023482
 20
54.12286727603372
 30
0.0
 10
561.0418060503317
 20
54.05125948815445
 30
0.0
 10
561.0898767969467
 20
53.9776253036641
 30
0.0
 10
561.1110534074312
 20
53.90478203684493
 30
0.0
 10
561.1328388732733
 20
53.82984443045735
 30
0.0
 10
561.1267918838334
 20
53.7535464655649
 30
0.0
 10
561.0932659566274
 20
53.67837362828715
 30
0.0
 10
561.0590608605138
 20
53.60167793815973
 30
0.0
 10
560.9951014138632
 20
53.52381382843505
 30
0.0
 10
560.9063124763173
 20
53.44904596800215
 30
0.0
 10
560.8200835800506
 20
53.37643388073554
 30
0.0
 10
560.7079028403399
 20
53.30462427710958
 30
0.0
 10
560.5795290421623
 20
53.23952910234461
 30
0.0
 10
560.4552112060454
 20
53.17649060552271
 30
0.0
 10
560.3124144799216
 20
53.11805678697229
 30
0.0
 10
560.1627789913579
 20
53.07012658766838
 30
0.0
 10
560.0113505345586
 20
53.02162207724545
 30
0.0
 10
559.8489503773787
 20
52.98262370819931
 30
0.0
 10
559.6876911504363
 20
52.95855043014702
 30
0.0
 10
559.5202216571384
 20
52.93355006425249
 30
0.0
 10
559.3493496366123
 20
52.92409500330497
 30
0.0
 10
559.1884328176892
 20
52.93453053678235
 30
0.0
 10
559.0260499650996
 20
52.94506114325151
 30
0.0
 10
558.8691302818356
 20
52.97645340026738
 30
0.0
 10
558.7317308315161
 20
53.02874551205003
 30
0.0
 10
558.6722101894352
 20
53.05139815048365
 30
0.0
 10
558.6157315472163
 20
53.07806256269157
 30
0.0
 10
558.5633190230114
 20
53.10832294765014
 30
0.0
  0
ELLIPSE
  5
41C
330
38F
100
AcDbEntity
  8
0-11MG
  6
Continuous
 62
     7
100
AcDbEllipse
 10
547.6031639146
 20
59.3792648984
 30
0.0
 11
1.5
 21
3.035766082959412E-15
 31
0.0
210
0.0
220
0.0
230
1.0
 40
0.5773502692
 41
0.7853981633973853
 42
2.309713750653723
  0
LINE
  5
41D
330
38F
100
AcDbEntity
  8
0-11MG
  6
Continuous
 62
     7
100
AcDbLine
 10
548.6638240864
 20
59.991637334
 30
0.0
 11
548.6638240864
 21
61.2732887569
 31
0.0
  0
LINE
  5
41E
330
38F
100
AcDbEntity
  8
0-11MG
  6
Continuous
 62
     7
100
AcDbLine
 10
560.6846393666
 20
53.3069204797
 30
0.0
 11
560.6846393666
 21
54.333067819
 31
0.0
  0
LINE
  5
41F
330
38F
100
AcDbEntity
  8
0-11MG
  6
Continuous
 62
     7
100
AcDbLine
 10
548.6638240864
 20
59.991637334
 30
0.0
 11
560.4500080986
 21
53.1868808219
 31
0.0
  0
ELLIPSE
  5
420
330
38F
100
AcDbEntity
  8
0-11MG
  6
Continuous
 62
     7
100
AcDbEllipse
 10
562.4524063195
 20
48.1932617396
 30
0.0
 11
-2.099999999999823
 21
-3.637306695894746
 31
0.0
210
0.0
220
0.0
230
0.9999999999999998
 40
0.5773502692
 41
0.0
 42
6.283185307179586
  0
ELLIPSE
  5
421
330
38F
100
AcDbEntity
  8
0-11MG
  6
Continuous
 62
     7
100
AcDbEllipse
 10
539.8249893216
 20
61.2572070345
 30
0.0
 11
2.49999999999978
 21
4.330127018922335
 31
0.0
210
0.0
220
0.0
230
1.0
 40
0.5773502692
 41
3.004795803879782
 42
3.141592653589793
  0
ELLIPSE
  5
422
330
38F
100
AcDbEntity
  8
0-11MG
  6
Continuous
 62
     7
100
AcDbEllipse
 10
539.8249893216
 20
61.2572070345
 30
0.0
 11
2.49999999999978
 21
4.330127018922335
 31
0.0
210
0.0
220
0.0
230
1.0
 40
0.5773502692
 41
0.0000000000000031
 42
0.1367968497133552
  0
ELLIPSE
  5
423
330
38F
100
AcDbEntity
  8
0-11MG
  6
Continuous
 62
     7
100
AcDbEllipse
 10
562.4524063195
 20
48.1932617396
 30
0.0
 11
-1.67499999999987
 21
-2.901185102677958
 31
0.0
210
0.0
220
0.0
230
1.0
 40
0.5773502692
 41
0.0
 42
6.283185307179586
  0
ELLIPSE
  5
424
330
38F
100
AcDbEntity
  8
0-11MG
  6
Continuous
 62
     7
100
AcDbEllipse
 10
560.967482079
 20
49.0505831496
 30
0.0
 11
-1.074999999999914
 21
-1.861954618136592
 31
0.0
210
0.0
220
0.0
230
0.9999999999999998
 40
0.5773502692
 41
0.1747279176330048
 42
2.966864736002472
  0
ELLIPSE
  5
425
330
38F
100
AcDbEntity
  8
0-11MG
  6
Continuous
 62
     7
100
AcDbEllipse
 10
560.1896646197
 20
49.4996562691
 30
0.0
 11
1.074999999999909
 21
1.86195461813659
 31
0.0
210
0.0
220
0.0
230
1.0
 40
0.5773502692
 41
3.935750222224324
 42
5.489027738557423
  0
ELLIPSE
  5
426
330
38F
100
AcDbEntity
  8
0-11MG
  6
Continuous
 62
     7
100
AcDbEllipse
 10
552.2998630557
 20
77.1488460935
 30
0.0
 11
2.24999999999981
 21
3.897114317030072
 31
0.0
210
0.0
220
0.0
230
1.0
 40
0.5773502692
 41
0.0
 42
6.283185307179586
  0
ELLIPSE
  5
427
330
38F
100
AcDbEntity
  8
0-11MG
  6
Continuous
 62
     7
100
AcDbEllipse
 10
532.2998630557
 20
42.5078299422
 30
0.0
 11
2.249999999999808
 21
3.897114317030094
 31
0.0
210
0.0
220
0.0
230
1.0
 40
0.5773502692
 41
0.0
 42
6.283185307179586
  0
ELLIPSE
  5
428
330
38F
100
AcDbEntity
  8
0-11MG
  6
Continuous
 62
     7
100
AcDbEllipse
 10
532.2998630557
 20
65.6018407098
 30
0.0
 11
2.249999999999802
 21
3.897114317030096
 31
0.0
210
0.0
220
0.0
230
0.9999999999999998
 40
0.5773502692
 41
0.0
 42
6.283185307179586
  0
ELLIPSE
  5
429
330
38F
100
AcDbEntity
  8
0-11MG
  6
Continuous
 62
     7
100
AcDbEllipse
 10
542.2998630557
 20
59.8283380179
 30
0.0
 11
-12.49999999999894
 21
-21.65063509461159
 31
0.0
210
0.0
220
0.0
230
1.0
 40
0.5773502692
 41
0.0
 42
1.369438406004568
  0
ELLIPSE
  5
42A
330
38F
100
AcDbEntity
  8
0-11MG
  6
Continuous
 62
     7
100
AcDbEllipse
 10
542.2998630557
 20
59.8283380179
 30
0.0
 11
-12.49999999999894
 21
-21.65063509461159
 31
0.0
210
0.0
220
0.0
230
1.0
 40
0.5773502692
 41
1.772154247585229
 42
6.283185307179584
  0
ELLIPSE
  5
42B
330
38F
100
AcDbEntity
  8
0-11MG
  6
Continuous
 62
     7
100
AcDbEllipse
 10
542.2998630557
 20
59.8283380179
 30
0.0
 11
3.749999999999682
 21
6.495190528383489
 31
0.0
210
0.0
220
0.0
230
1.0
 40
0.5773502692
 41
5.442116636611669
 42
6.283185307179567
  0
ELLIPSE
  5
42C
330
38F
100
AcDbEntity
  8
0-11MG
  6
Continuous
 62
     7
100
AcDbEllipse
 10
542.2998630557
 20
59.8283380179
 30
0.0
 11
3.749999999999682
 21
6.495190528383489
 31
0.0
210
0.0
220
0.0
230
1.0
 40
0.5773502692
 41
0.0
 42
3.982661324157738
  0
ELLIPSE
  5
42D
330
38F
100
AcDbEntity
  8
0-11MG
  6
Continuous
 62
     7
100
AcDbEllipse
 10
539.8249893216
 20
61.2572070345
 30
0.0
 11
-12.49999999999892
 21
-21.65063509461159
 31
0.0
210
0.0
220
0.0
230
0.9999999999999998
 40
0.5773502692
 41
3.14159265358979
 42
3.208817923471208
  0
ELLIPSE
  5
42E
330
38F
100
AcDbEntity
  8
0-11MG
  6
Continuous
 62
     7
100
AcDbEllipse
 10
539.8249893216
 20
61.2572070345
 30
0.0
 11
-12.49999999999892
 21
-21.65063509461159
 31
0.0
210
0.0
220
0.0
230
0.9999999999999998
 40
0.5773502692
 41
6.215960037297199
 42
6.283185307179583
  0
ELLIPSE
  5
42F
330
38F
100
AcDbEntity
  8
0-11MG
  6
Continuous
 62
     7
100
AcDbEllipse
 10
541.2392028839
 20
60.4407104536
 30
0.0
 11
3.749999999999677
 21
6.495190528383491
 31
0.0
210
0.0
220
0.0
230
1.0
 40
0.5773502692
 41
5.442116636611649
 42
6.141288253259666
  0
ELLIPSE
  5
430
330
38F
100
AcDbEntity
  8
0-11MG
  6
Continuous
 62
     7
100
AcDbEllipse
 10
541.2392028839
 20
60.4407104536
 30
0.0
 11
3.749999999999677
 21
6.495190528383491
 31
0.0
210
0.0
220
0.0
230
1.0
 40
0.5773502692
 41
3.283489707608725
 42
3.982661324157721
  0
ELLIPSE
  5
431
330
38F
100
AcDbEntity
  8
0-11MG
  6
Continuous
 62
     7
100
AcDbEllipse
 10
531.9463096651
 20
65.805964855
 30
0.0
 11
-1.999999999999828
 21
-3.464101615137852
 31
0.0
210
0.0
220
0.0
230
1.0
 40
0.5773502692
 41
3.141592653589793
 42
3.866294994065276
  0
ELLIPSE
  5
432
330
38F
100
AcDbEntity
  8
0-11MG
  6
Continuous
 62
     7
100
AcDbEllipse
 10
531.9463096651
 20
65.805964855
 30
0.0
 11
-1.999999999999828
 21
-3.464101615137852
 31
0.0
210
0.0
220
0.0
230
1.0
 40
0.5773502692
 41
5.55848296732919
 42
6.283185307179586
  0
ARC
  5
433
330
38F
100
AcDbEntity
  8
0-11MG
  6
Continuous
 62
     7
100
AcDbCircle
 10
535.4184700711
 20
65.4198508978
 30
0.0
 40
2.538995808833461
100
AcDbArc
 50
153.7561922793
 51
183.1137053666
  0
LINE
  5
434
330
38F
100
AcDbEntity
  8
0-11MG
  6
Continuous
 62
     7
100
AcDbLine
 10
531.6878673078
 20
66.3952006023
 30
0.0
 11
531.6073373298
 21
66.001670624
 31
0.0
  0
LINE
  5
435
330
38F
100
AcDbEntity
  8
0-11MG
  6
Continuous
 62
     7
100
AcDbLine
 10
531.6073373298
 20
66.001670624
 30
0.0
 11
532.880129536
 21
65.2668237012
 31
0.0
  0
ARC
  5
436
330
38F
100
AcDbEntity
  8
0-11MG
  6
Continuous
 62
     7
100
AcDbCircle
 10
534.0161256355
 20
62.9927742946
 30
0.0
 40
2.538049953000791
100
AcDbArc
 50
116.8807013162
 51
146.2494010379
  0
LINE
  5
437
330
38F
100
AcDbEntity
  8
0-11MG
  6
Continuous
 62
     7
100
AcDbLine
 10
531.6073373298
 20
66.001670624
 30
0.0
 11
531.3207650001
 21
65.7475522249
 31
0.0
  0
LINE
  5
438
330
38F
100
AcDbEntity
  8
0-11MG
  6
Continuous
 62
     7
100
AcDbLine
 10
531.1810480985
 20
64.8044131535
 30
0.0
 11
531.8858353004
 21
64.3975040727
 31
0.0
  0
ARC
  5
439
330
38F
100
AcDbEntity
  8
0-11MG
  6
Continuous
 62
     7
100
AcDbCircle
 10
533.7099804946
 20
64.9625151469
 30
0.0
 40
2.538050059650096
100
AcDbArc
 50
153.750599593
 51
183.1192980528
  0
ARC
  5
43A
330
38F
100
AcDbEntity
  8
0-11MG
  6
Continuous
 62
     7
100
AcDbCircle
 10
533.5592426829
 20
64.6995743874
 30
0.0
 40
2.538995916553528
100
AcDbArc
 50
116.8862952702
 51
146.243807084
  0
LINE
  5
43B
330
38F
100
AcDbEntity
  8
0-11MG
  6
Continuous
 62
     7
100
AcDbLine
 10
533.1358353004
 20
66.5625675822
 30
0.0
 11
532.4310480985
 21
66.969476663
 31
0.0
  0
ELLIPSE
  5
43C
330
38F
100
AcDbEntity
  8
0-11MG
  6
Continuous
 62
     7
100
AcDbEllipse
 10
530.8856494933
 20
66.4183372907
 30
0.0
 11
0.6249999999999658
 21
1.082531754730566
 31
0.0
210
0.0
220
0.0
230
1.0
 40
0.5773502692
 41
4.480141600614843
 42
4.950667851209791
  0
ELLIPSE
  5
43D
330
38F
100
AcDbEntity
  8
0-11MG
  6
Continuous
 62
     7
100
AcDbEllipse
 10
532.1584416995
 20
65.6834903679
 30
0.0
 11
-1.999999999999828
 21
-3.464101615137852
 31
0.0
210
0.0
220
0.0
230
1.0
 40
0.5773502692
 41
0.0
 42
6.283185307179586
  0
LINE
  5
43E
330
38F
100
AcDbEntity
  8
0-11MG
  6
Continuous
 62
     7
100
AcDbLine
 10
533.1442856177
 20
66.5576887892
 30
0.0
 11
533.1411925869
 21
66.5425739168
 31
0.0
  0
ELLIPSE
  5
43F
330
38F
100
AcDbEntity
  8
0-11MG
  6
Continuous
 62
     7
100
AcDbEllipse
 10
532.1584416995
 20
65.6834903679
 30
0.0
 11
0.7174999999999937
 21
1.24274645443069
 31
0.0
210
0.0
220
0.0
230
1.0
 40
0.5773502692
 41
4.722588724394597
 42
5.749386787571311
  0
LINE
  5
440
330
38F
100
AcDbEntity
  8
0-11MG
  6
Continuous
 62
     7
100
AcDbLine
 10
532.8832225668
 20
65.2819385736
 30
0.0
 11
532.880129536
 21
65.2668237012
 31
0.0
  0
LINE
  5
441
330
38F
100
AcDbEntity
  8
0-11MG
  6
Continuous
 62
     7
100
AcDbLine
 10
532.880129536
 20
65.2668237012
 30
0.0
 11
532.8685861879
 21
65.2565876217
 31
0.0
  0
ELLIPSE
  5
442
330
38F
100
AcDbEntity
  8
0-11MG
  6
Continuous
 62
     7
100
AcDbEllipse
 10
532.1584416995
 20
65.6834903679
 30
0.0
 11
-0.7174999999999007
 21
-1.242746454430761
 31
0.0
210
0.0
220
0.0
230
1.0
 40
0.5773502692
 41
0.5337985196081056
 42
1.560596582784761
  0
LINE
  5
443
330
38F
100
AcDbEntity
  8
0-11MG
  6
Continuous
 62
     7
100
AcDbLine
 10
531.9058289658
 20
64.4028613592
 30
0.0
 11
531.8942856177
 21
64.3926252798
 31
0.0
  0
LINE
  5
444
330
38F
100
AcDbEntity
  8
0-11MG
  6
Continuous
 62
     7
100
AcDbLine
 10
531.8942856177
 20
64.3926252798
 30
0.0
 11
531.8858353004
 21
64.3975040727
 31
0.0
  0
ELLIPSE
  5
445
330
38F
100
AcDbEntity
  8
0-11MG
  6
Continuous
 62
     7
100
AcDbEllipse
 10
532.1584416995
 20
65.6834903679
 30
0.0
 11
0.7174999999999693
 21
1.24274645443071
 31
0.0
210
0.0
220
0.0
230
1.0
 40
0.5773502692
 41
2.628193622001433
 42
3.654991685178044
  0
LINE
  5
446
330
38F
100
AcDbEntity
  8
0-11MG
  6
Continuous
 62
     7
100
AcDbLine
 10
531.1810480985
 20
64.8044131535
 30
0.0
 11
531.1725977812
 21
64.8092919465
 31
0.0
  0
LINE
  5
447
330
38F
100
AcDbEntity
  8
0-11MG
  6
Continuous
 62
     7
100
AcDbLine
 10
531.1725977812
 20
64.8092919465
 30
0.0
 11
531.175690812
 21
64.8244068189
 31
0.0
  0
ELLIPSE
  5
448
330
38F
100
AcDbEntity
  8
0-11MG
  6
Continuous
 62
     7
100
AcDbEllipse
 10
532.1584416995
 20
65.6834903679
 30
0.0
 11
-0.7174999999999521
 21
-1.242746454430729
 31
0.0
210
0.0
220
0.0
230
0.9999999999999998
 40
0.5773502692
 41
4.722588724394532
 42
5.749386787571184
  0
LINE
  5
449
330
38F
100
AcDbEntity
  8
0-11MG
  6
Continuous
 62
     7
100
AcDbLine
 10
531.4336608322
 20
66.0850421621
 30
0.0
 11
531.436753863
 21
66.1001570345
 31
0.0
  0
LINE
  5
44A
330
38F
100
AcDbEntity
  8
0-11MG
  6
Continuous
 62
     7
100
AcDbLine
 10
531.436753863
 20
66.1001570345
 30
0.0
 11
531.4482972111
 21
66.110393114
 31
0.0
  0
ELLIPSE
  5
44B
330
38F
100
AcDbEntity
  8
0-11MG
  6
Continuous
 62
     7
100
AcDbEllipse
 10
532.1584416995
 20
65.6834903679
 30
0.0
 11
0.7174999999999546
 21
1.242746454430702
 31
0.0
210
0.0
220
0.0
230
0.9999999999999997
 40
0.5773502692
 41
0.5337985196082088
 42
1.560596582784934
  0
LINE
  5
44C
330
38F
100
AcDbEntity
  8
0-11MG
  6
Continuous
 62
     7
100
AcDbLine
 10
532.4110544332
 20
66.9641193765
 30
0.0
 11
532.4225977812
 21
66.9743554559
 31
0.0
  0
LINE
  5
44D
330
38F
100
AcDbEntity
  8
0-11MG
  6
Continuous
 62
     7
100
AcDbLine
 10
532.4225977812
 20
66.9743554559
 30
0.0
 11
532.4310480985
 21
66.969476663
 31
0.0
  0
ELLIPSE
  5
44E
330
38F
100
AcDbEntity
  8
0-11MG
  6
Continuous
 62
     7
100
AcDbEllipse
 10
532.1584416995
 20
65.6834903679
 30
0.0
 11
-0.7174999999999618
 21
-1.24274645443061
 31
0.0
210
0.0
220
0.0
230
1.0
 40
0.5773502692
 41
2.628193622001493
 42
3.654991685178054
  0
LINE
  5
44F
330
38F
100
AcDbEntity
  8
0-11MG
  6
Continuous
 62
     7
100
AcDbLine
 10
533.1358353004
 20
66.5625675822
 30
0.0
 11
533.1442856177
 21
66.5576887892
 31
0.0
  0
ELLIPSE
  5
450
330
38F
100
AcDbEntity
  8
0-11MG
  6
Continuous
 62
     7
100
AcDbEllipse
 10
524.1443658389
 20
70.3196068282
 30
0.0
 11
-12.75274797667557
 21
-21.53737683731218
 31
0.0
210
0.0
220
0.0
230
1.0
 40
0.5698706469
 41
-1.277651813257564
 42
-1.137652096838094
  0
LINE
  5
451
330
38F
100
AcDbEntity
  8
0-11MG
  6
Continuous
 62
     7
100
AcDbLine
 10
500.5805629657
 20
32.0674542663
 30
0.0
 11
506.9125127815
 21
35.723207197
 31
0.0
  0
LINE
  5
452
330
38F
100
AcDbEntity
  8
0-11MG
  6
Continuous
 62
     7
100
AcDbLine
 10
507.6516307776
 20
62.8227767785
 30
0.0
 11
507.6516307776
 21
70.8510418604
 31
0.0
  0
LINE
  5
453
330
38F
100
AcDbEntity
  8
0-11MG
  6
Continuous
 62
     7
100
AcDbLine
 10
507.6516307776
 20
70.8510418604
 30
0.0
 11
507.6516307776
 21
101.4696636452
 31
0.0
  0
LINE
  5
454
330
38F
100
AcDbEntity
  8
0-11MG
  6
Continuous
 62
     7
100
AcDbLine
 10
506.2374172152
 20
103.919153388
 30
0.0
 11
456.7399425321
 21
132.4965337204
 31
0.0
  0
LINE
  5
455
330
38F
100
AcDbEntity
  8
0-11MG
  6
Continuous
 62
     7
100
AcDbLine
 10
449.6688747203
 20
128.4140508158
 30
0.0
 11
456.7399425321
 21
132.4965337204
 31
0.0
  0
LINE
  5
456
330
38F
100
AcDbEntity
  8
0-11MG
  6
Continuous
 62
     7
100
AcDbLine
 10
448.2546611579
 20
127.5975542349
 30
0.0
 11
449.6688747203
 21
128.4140508158
 31
0.0
  0
LINE
  5
457
330
38F
100
AcDbEntity
  8
0-11MG
  6
Continuous
 62
     7
100
AcDbLine
 10
500.5805629657
 20
97.3871807405
 30
0.0
 11
507.6516307776
 21
101.4696636452
 31
0.0
  0
LINE
  5
458
330
38F
100
AcDbEntity
  8
0-11MG
  6
Continuous
 62
     7
100
AcDbLine
 10
507.6516307776
 20
101.4696636452
 30
0.0
 11
506.2374172152
 21
103.919153388
 31
0.0
  0
LINE
  5
459
330
38F
100
AcDbEntity
  8
0-11MG
  6
Continuous
 62
     7
100
AcDbLine
 10
506.2374172152
 20
103.919153388
 30
0.0
 11
499.1663494033
 21
99.8366704833
 31
0.0
  0
LINE
  5
45A
330
38F
100
AcDbEntity
  8
0-11MG
  6
Continuous
 62
     7
100
AcDbLine
 10
499.1663494033
 20
99.8366704833
 30
0.0
 11
499.1663494033
 21
98.2036773215
 31
0.0
  0
LINE
  5
45B
330
38F
100
AcDbEntity
  8
0-11MG
  6
Continuous
 62
     7
100
AcDbLine
 10
499.1663494033
 20
98.2036773215
 30
0.0
 11
500.5805629657
 21
97.3871807405
 31
0.0
  0
ELLIPSE
  5
45C
330
38F
100
AcDbEntity
  8
0-11MG
  6
Continuous
 62
     7
100
AcDbEllipse
 10
454.9721755792
 20
63.7066967773
 30
0.0
 11
-2.113492500847991
 21
3.660676392884974
 31
0.0
210
0.0
220
0.0
230
1.0
 40
0.5773502692
 41
0.0
 42
6.283185307179586
  0
ELLIPSE
  5
45D
330
38F
100
AcDbEntity
  8
0-11MG
  6
Continuous
 62
     7
100
AcDbEllipse
 10
491.0346214197
 20
94.3253185621
 30
0.0
 11
-2.113492500847983
 21
3.660676392884977
 31
0.0
210
0.0
220
0.0
230
1.0
 40
0.5773502692
 41
0.0
 42
6.283185307179586
  0
ELLIPSE
  5
45E
330
38F
100
AcDbEntity
  8
0-11MG
  6
Continuous
 62
     7
100
AcDbEllipse
 10
454.9721755792
 20
89.4263390765
 30
0.0
 11
-2.113492500847999
 21
3.660676392884949
 31
0.0
210
0.0
220
0.0
230
1.0
 40
0.5773502692
 41
0.0
 42
6.283185307179586
  0
LINE
  5
45F
330
38F
100
AcDbEntity
  8
0-11MG
  6
Continuous
 62
     7
100
AcDbLine
 10
497.752135841
 20
32.0674542663
 30
0.0
 11
497.752135841
 21
97.3871807405
 31
0.0
  0
LINE
  5
460
330
38F
100
AcDbEntity
  8
0-11MG
  6
Continuous
 62
     7
100
AcDbLine
 10
497.752135841
 20
97.3871807405
 30
0.0
 11
448.2546611579
 21
125.964561073
 31
0.0
  0
LINE
  5
461
330
38F
100
AcDbEntity
  8
0-11MG
  6
Continuous
 62
     7
100
AcDbLine
 10
448.2546611579
 20
125.964561073
 30
0.0
 11
448.2546611579
 21
60.6448345988
 31
0.0
  0
LINE
  5
462
330
38F
100
AcDbEntity
  8
0-11MG
  6
Continuous
 62
     7
100
AcDbLine
 10
448.2546611579
 20
60.6448345988
 30
0.0
 11
497.752135841
 21
32.0674542663
 31
0.0
  0
ELLIPSE
  5
463
330
38F
100
AcDbEntity
  8
0-11MG
  6
Continuous
 62
     7
100
AcDbEllipse
 10
491.0346214197
 20
68.6056762628
 30
0.0
 11
-2.11349250084799
 21
3.660676392884973
 31
0.0
210
0.0
220
0.0
230
0.9999999999999999
 40
0.5773502692
 41
0.0
 42
6.283185307179586
  0
ELLIPSE
  5
464
330
38F
100
AcDbEntity
  8
0-11MG
  6
Continuous
 62
     7
100
AcDbEllipse
 10
491.0346214197
 20
42.8860339636
 30
0.0
 11
-2.113492500847987
 21
3.660676392884975
 31
0.0
210
0.0
220
0.0
230
0.9999999999999997
 40
0.5773502692
 41
0.0
 42
6.283185307179586
  0
ELLIPSE
  5
465
330
38F
100
AcDbEntity
  8
0-11MG
  6
Continuous
 62
     7
100
AcDbEllipse
 10
454.9721755792
 20
115.1459813757
 30
0.0
 11
-2.113492500847986
 21
3.660676392884978
 31
0.0
210
0.0
220
0.0
230
1.0
 40
0.5773502692
 41
0.0
 42
6.283185307179586
  0
LINE
  5
466
330
38F
100
AcDbEntity
  8
0-11MG
  6
Continuous
 62
     7
100
AcDbLine
 10
499.1663494033
 20
99.8366704833
 30
0.0
 11
449.6688747203
 21
128.4140508158
 31
0.0
  0
LINE
  5
467
330
38F
100
AcDbEntity
  8
0-11MG
  6
Continuous
 62
     7
100
AcDbLine
 10
499.1663494033
 20
31.2509576854
 30
0.0
 11
500.5805629657
 21
32.0674542663
 31
0.0
  0
LINE
  5
468
330
38F
100
AcDbEntity
  8
0-11MG
  6
Continuous
 62
     7
100
AcDbLine
 10
500.5805629657
 20
32.0674542663
 30
0.0
 11
500.5805629657
 21
97.3871807405
 31
0.0
  0
LINE
  5
469
330
38F
100
AcDbEntity
  8
0-11MG
  6
Continuous
 62
     7
100
AcDbLine
 10
499.1663494033
 20
98.2036773215
 30
0.0
 11
497.752135841
 21
97.3871807405
 31
0.0
  0
LINE
  5
46A
330
38F
100
AcDbEntity
  8
0-11MG
  6
Continuous
 62
     7
100
AcDbLine
 10
499.1663494033
 20
31.2509576854
 30
0.0
 11
497.752135841
 21
32.0674542663
 31
0.0
  0
LINE
  5
46B
330
38F
100
AcDbEntity
  8
0-11MG
  6
Continuous
 62
     7
100
AcDbLine
 10
448.2546611579
 20
125.964561073
 30
0.0
 11
448.2546611579
 21
127.5975542349
 31
0.0
  0
ARC
  5
46C
330
38F
100
AcDbEntity
  8
0-11MG
  6
Continuous
 62
     7
100
AcDbCircle
 10
456.4712340052
 20
114.6042936406
 30
0.0
 40
2.985994504677656
100
AcDbArc
 50
95.6842361948
 51
105.0834847091
  0
ARC
  5
46D
330
38F
100
AcDbEntity
  8
0-11MG
  6
Continuous
 62
     7
100
AcDbCircle
 10
453.0365131757
 20
116.7789745376
 30
0.0
 40
2.730658460873332
100
AcDbArc
 50
345.423821711
 51
14.576178289
  0
LINE
  5
46E
330
38F
100
AcDbEntity
  8
0-11MG
  6
Continuous
 62
     7
100
AcDbLine
 10
455.6792823604
 20
116.0718677564
 30
0.0
 11
456.8496049498
 21
116.7475538184
 31
0.0
  0
ARC
  5
46F
330
38F
100
AcDbEntity
  8
0-11MG
  6
Continuous
 62
     7
100
AcDbCircle
 10
453.6769822307
 20
113.376279485
 30
0.0
 40
3.351963561730357
100
AcDbArc
 50
24.5870062871
 51
53.0009474869
  0
LINE
  5
470
330
38F
100
AcDbEntity
  8
0-11MG
  6
Continuous
 62
     7
100
AcDbLine
 10
456.7399425321
 20
114.7523885395
 30
0.0
 11
457.6073803241
 21
115.2532039822
 31
0.0
  0
ARC
  5
471
330
38F
100
AcDbEntity
  8
0-11MG
  6
Continuous
 62
     7
100
AcDbCircle
 10
457.5323607988
 20
111.8653764921
 30
0.0
 40
2.991160447605214
100
AcDbArc
 50
85.1417454053
 51
105.0660733168
  0
ELLIPSE
  5
472
330
38F
100
AcDbEntity
  8
0-11MG
  6
Continuous
 62
     7
100
AcDbEllipse
 10
456.7399425321
 20
116.1666021019
 30
0.0
 11
-1.54999999999986
 21
2.684678751731823
 31
0.0
210
0.0
220
0.0
230
1.0
 40
0.5773502692
 41
0.1947756482850241
 42
2.946817005303722
  0
LINE
  5
473
330
38F
100
AcDbEntity
  8
0-11MG
  6
Continuous
 62
     7
100
AcDbLine
 10
456.7548601618
 20
114.7537209284
 30
0.0
 11
456.7399425321
 21
114.7523885395
 31
0.0
  0
LINE
  5
474
330
38F
100
AcDbEntity
  8
0-11MG
  6
Continuous
 62
     7
100
AcDbLine
 10
456.7399425321
 20
114.7523885395
 30
0.0
 11
456.7250249025
 21
114.7709463235
 31
0.0
  0
ELLIPSE
  5
475
330
38F
100
AcDbEntity
  8
0-11MG
  6
Continuous
 62
     7
100
AcDbEllipse
 10
456.7399425321
 20
116.1666021019
 30
0.0
 11
0.8599999999999597
 21
-1.489563694509258
 31
0.0
210
0.0
220
0.0
230
1.0
 40
0.5773502692
 41
4.462855431682431
 42
5.485521304685364
  0
LINE
  5
476
330
38F
100
AcDbEntity
  8
0-11MG
  6
Continuous
 62
     7
100
AcDbLine
 10
455.6941999901
 20
116.0533099724
 30
0.0
 11
455.6792823604
 21
116.0718677564
 31
0.0
  0
LINE
  5
477
330
38F
100
AcDbEntity
  8
0-11MG
  6
Continuous
 62
     7
100
AcDbLine
 10
455.6792823604
 20
116.0718677564
 30
0.0
 11
455.6792823604
 21
116.0917579293
 31
0.0
  0
ELLIPSE
  5
478
330
38F
100
AcDbEntity
  8
0-11MG
  6
Continuous
 62
     7
100
AcDbEllipse
 10
456.7399425321
 20
116.1666021019
 30
0.0
 11
-0.8599999999999436
 21
1.489563694509338
 31
0.0
210
0.0
220
0.0
230
1.0
 40
0.5773502692
 41
0.2740652268960487
 42
1.296731099899003
  0
LINE
  5
479
330
38F
100
AcDbEntity
  8
0-11MG
  6
Continuous
 62
     7
100
AcDbLine
 10
455.6792823604
 20
117.4661911458
 30
0.0
 11
455.6792823604
 21
117.4860813188
 31
0.0
  0
LINE
  5
47A
330
38F
100
AcDbEntity
  8
0-11MG
  6
Continuous
 62
     7
100
AcDbLine
 10
455.6792823604
 20
117.4860813188
 30
0.0
 11
455.6941999901
 21
117.4874137077
 31
0.0
  0
ELLIPSE
  5
47B
330
38F
100
AcDbEntity
  8
0-11MG
  6
Continuous
 62
     7
100
AcDbEllipse
 10
456.7399425321
 20
116.1666021019
 30
0.0
 11
0.8599999999999768
 21
-1.489563694509129
 31
0.0
210
0.0
220
0.0
230
1.0
 40
0.5773502692
 41
2.942201787988481
 42
3.391126202292058
  0
ELLIPSE
  5
47C
330
38F
100
AcDbEntity
  8
0-11MG
  6
Continuous
 62
     7
100
AcDbEllipse
 10
456.7399425321
 20
116.1666021019
 30
0.0
 11
-0.8599999999999404
 21
1.489563694509374
 31
0.0
210
0.0
220
0.0
230
0.9999999999999998
 40
0.5773502692
 41
2.368460329289294
 42
3.340983519363702
  0
ELLIPSE
  5
47D
330
38F
100
AcDbEntity
  8
0-11MG
  6
Continuous
 62
     7
100
AcDbEllipse
 10
531.9463096651
 20
42.7119540874
 30
0.0
 11
-1.999999999999826
 21
-3.464101615137851
 31
0.0
210
0.0
220
0.0
230
1.0
 40
0.5773502692
 41
3.141592653589793
 42
3.866295031926069
  0
ELLIPSE
  5
47E
330
38F
100
AcDbEntity
  8
0-11MG
  6
Continuous
 62
     7
100
AcDbEllipse
 10
531.9463096651
 20
42.7119540874
 30
0.0
 11
-1.999999999999826
 21
-3.464101615137851
 31
0.0
210
0.0
220
0.0
230
1.0
 40
0.5773502692
 41
5.558482932130214
 42
6.283185307179586
  0
ELLIPSE
  5
47F
330
38F
100
AcDbEntity
  8
0-11MG
  6
Continuous
 62
     7
100
AcDbEllipse
 10
532.1584416995
 20
42.5894796003
 30
0.0
 11
-0.7174999999999521
 21
-1.242746454430723
 31
0.0
210
0.0
220
0.0
230
0.9999999999999998
 40
0.5773502692
 41
4.19898994879623
 42
5.225788011972945
  0
ARC
  5
480
330
38F
100
AcDbEntity
  8
0-11MG
  6
Continuous
 62
     7
100
AcDbCircle
 10
533.9775362564
 20
41.5392248681
 30
0.0
 40
2.90886964378072
100
AcDbArc
 50
135.9783198097
 51
164.0216801903
  0
ELLIPSE
  5
481
330
38F
100
AcDbEntity
  8
0-11MG
  6
Continuous
 62
     7
100
AcDbEllipse
 10
532.1584416995
 20
42.5894796003
 30
0.0
 11
-0.7174999999999006
 21
-1.242746454430727
 31
0.0
210
0.0
220
0.0
230
1.0
 40
0.5773502692
 41
5.246187499992758
 42
6.272985563168771
  0
ARC
  5
482
330
38F
100
AcDbEntity
  8
0-11MG
  6
Continuous
 62
     7
100
AcDbCircle
 10
533.1891471167
 20
42.3373441209
 30
0.0
 40
2.013594187183529
100
AcDbArc
 50
180.6705153097
 51
209.3294846903
  0
ELLIPSE
  5
483
330
38F
100
AcDbEntity
  8
0-11MG
  6
Continuous
 62
     7
100
AcDbEllipse
 10
532.1584416995
 20
42.5894796003
 30
0.0
 11
-0.7174999999999546
 21
-1.24274645443069
 31
0.0
210
0.0
220
0.0
230
1.0
 40
0.5773502692
 41
0.0101997440047304
 42
1.036997807186547
  0
ARC
  5
484
330
38F
100
AcDbEntity
  8
0-11MG
  6
Continuous
 62
     7
100
AcDbCircle
 10
532.4346184502
 20
39.5870860983
 30
0.0
 40
2.013594436163606
100
AcDbArc
 50
90.6705171194
 51
119.3294828806
  0
ELLIPSE
  5
485
330
38F
100
AcDbEntity
  8
0-11MG
  6
Continuous
 62
     7
100
AcDbEllipse
 10
532.1584416995
 20
42.5894796003
 30
0.0
 11
0.7174999999999473
 21
1.242746454430675
 31
0.0
210
0.0
220
0.0
230
1.0
 40
0.5773502692
 41
4.198989948796226
 42
5.22578801197298
  0
ARC
  5
486
330
38F
100
AcDbEntity
  8
0-11MG
  6
Continuous
 62
     7
100
AcDbCircle
 10
535.2275362564
 20
40.8175370316
 30
0.0
 40
2.908869643781214
100
AcDbArc
 50
135.9783198097
 51
164.0216801903
  0
ELLIPSE
  5
487
330
38F
100
AcDbEntity
  8
0-11MG
  6
Continuous
 62
     7
100
AcDbEllipse
 10
532.1584416995
 20
42.5894796003
 30
0.0
 11
0.7174999999999423
 21
1.242746454430785
 31
0.0
210
0.0
220
0.0
230
1.0
 40
0.5773502692
 41
5.246187499992862
 42
6.272985563167737
  0
ARC
  5
488
330
38F
100
AcDbEntity
  8
0-11MG
  6
Continuous
 62
     7
100
AcDbCircle
 10
534.8988738571
 20
43.8520883473
 30
0.0
 40
2.01579598375174
100
AcDbArc
 50
180.6865011342
 51
209.3134988658
  0
ELLIPSE
  5
489
330
38F
100
AcDbEntity
  8
0-11MG
  6
Continuous
 62
     7
100
AcDbEllipse
 10
532.1584416995
 20
42.5894796003
 30
0.0
 11
0.7174999999999275
 21
1.242746454430698
 31
0.0
210
0.0
220
0.0
230
1.0
 40
0.5773502692
 41
0.0101997440126547
 42
1.036997807186558
  0
ARC
  5
48A
330
38F
100
AcDbEntity
  8
0-11MG
  6
Continuous
 62
     7
100
AcDbCircle
 10
532.8927382163
 20
41.8207355283
 30
0.0
 40
2.01579573377138
100
AcDbArc
 50
90.6864993213
 51
119.3135006787
  0
ELLIPSE
  5
48B
330
38F
100
AcDbEntity
  8
0-11MG
  6
Continuous
 62
     7
100
AcDbEllipse
 10
532.1584416995
 20
42.5894796003
 30
0.0
 11
-1.999999999999831
 21
-3.464101615137854
 31
0.0
210
0.0
220
0.0
230
1.0
 40
0.5773502692
 41
0.0
 42
6.283185307179586
  0
LINE
  5
48C
330
38F
100
AcDbEntity
  8
0-11MG
  6
Continuous
 62
     7
100
AcDbLine
 10
531.8942856177
 20
43.5753235185
 30
0.0
 11
531.9058289658
 21
43.5784165493
 31
0.0
  0
LINE
  5
48D
330
38F
100
AcDbEntity
  8
0-11MG
  6
Continuous
 62
     7
100
AcDbLine
 10
532.8685861879
 20
43.8363865695
 30
0.0
 11
532.880129536
 21
43.8394796003
 31
0.0
  0
LINE
  5
48E
330
38F
100
AcDbEntity
  8
0-11MG
  6
Continuous
 62
     7
100
AcDbLine
 10
532.880129536
 20
43.8394796003
 30
0.0
 11
532.8832225668
 21
43.8279362522
 31
0.0
  0
LINE
  5
48F
330
38F
100
AcDbEntity
  8
0-11MG
  6
Continuous
 62
     7
100
AcDbLine
 10
533.1411925869
 20
42.8651790301
 30
0.0
 11
533.1442856177
 21
42.853635682
 31
0.0
  0
LINE
  5
490
330
38F
100
AcDbEntity
  8
0-11MG
  6
Continuous
 62
     7
100
AcDbLine
 10
533.1442856177
 20
42.853635682
 30
0.0
 11
533.1358353004
 21
42.8389993032
 31
0.0
  0
LINE
  5
491
330
38F
100
AcDbEntity
  8
0-11MG
  6
Continuous
 62
     7
100
AcDbLine
 10
532.4310480985
 20
41.6182720609
 30
0.0
 11
532.4225977812
 21
41.603635682
 31
0.0
  0
LINE
  5
492
330
38F
100
AcDbEntity
  8
0-11MG
  6
Continuous
 62
     7
100
AcDbLine
 10
532.4225977812
 20
41.603635682
 30
0.0
 11
532.4110544332
 21
41.6005426512
 31
0.0
  0
LINE
  5
493
330
38F
100
AcDbEntity
  8
0-11MG
  6
Continuous
 62
     7
100
AcDbLine
 10
531.4482972111
 20
41.3425726311
 30
0.0
 11
531.436753863
 21
41.3394796003
 31
0.0
  0
LINE
  5
494
330
38F
100
AcDbEntity
  8
0-11MG
  6
Continuous
 62
     7
100
AcDbLine
 10
531.436753863
 20
41.3394796003
 30
0.0
 11
531.4336608322
 21
41.3510229483
 31
0.0
  0
LINE
  5
495
330
38F
100
AcDbEntity
  8
0-11MG
  6
Continuous
 62
     7
100
AcDbLine
 10
531.175690812
 20
42.3137801704
 30
0.0
 11
531.1725977812
 21
42.3253235185
 31
0.0
  0
LINE
  5
496
330
38F
100
AcDbEntity
  8
0-11MG
  6
Continuous
 62
     7
100
AcDbLine
 10
531.1725977812
 20
42.3253235185
 30
0.0
 11
531.1810480985
 21
42.3399598974
 31
0.0
  0
LINE
  5
497
330
38F
100
AcDbEntity
  8
0-11MG
  6
Continuous
 62
     7
100
AcDbLine
 10
531.8858353004
 20
43.5606871396
 30
0.0
 11
531.8942856177
 21
43.5753235185
 31
0.0
  0
ELLIPSE
  5
498
330
38F
100
AcDbEntity
  8
0-11MG
  6
Continuous
 62
     7
100
AcDbEllipse
 10
530.8856494933
 20
43.3243265231
 30
0.0
 11
-0.6249999999999682
 21
-1.082531754730567
 31
0.0
210
0.0
220
0.0
230
1.0
 40
0.5773502692
 41
1.374236706530667
 42
1.570796326794829
  0
ELLIPSE
  5
499
330
38F
100
AcDbEntity
  8
0-11MG
  6
Continuous
 62
     7
100
AcDbEllipse
 10
530.8856494933
 20
43.3243265231
 30
0.0
 11
0.624999999999956
 21
1.082531754730594
 31
0.0
210
0.0
220
0.0
230
1.0
 40
0.5773502692
 41
4.712388980384642
 42
4.992545693392811
  0
LINE
  5
49A
330
38F
100
AcDbEntity
  8
0-11MG
  6
Continuous
 62
     7
100
AcDbLine
 10
531.1725977812
 20
42.3253235185
 30
0.0
 11
532.4225977812
 21
41.603635682
 31
0.0
  0
LINE
  5
49B
330
38F
100
AcDbEntity
  8
0-11MG
  6
Continuous
 62
     7
100
AcDbLine
 10
531.8942856177
 20
43.5753235185
 30
0.0
 11
533.1442856177
 21
42.853635682
 31
0.0
  0
ELLIPSE
  5
49C
330
38F
100
AcDbEntity
  8
0-11MG
  6
Continuous
 62
     7
100
AcDbEllipse
 10
551.9463096651
 20
77.3529702388
 30
0.0
 11
-1.999999999999821
 21
-3.464101615137854
 31
0.0
210
0.0
220
0.0
230
1.0
 40
0.5773502692
 41
3.141592653589793
 42
3.866294865985417
  0
ELLIPSE
  5
49D
330
38F
100
AcDbEntity
  8
0-11MG
  6
Continuous
 62
     7
100
AcDbEllipse
 10
551.9463096651
 20
77.3529702388
 30
0.0
 11
-1.999999999999821
 21
-3.464101615137854
 31
0.0
210
0.0
220
0.0
230
1.0
 40
0.5773502692
 41
5.558483088288706
 42
6.283185307179586
  0
ELLIPSE
  5
49E
330
38F
100
AcDbEntity
  8
0-11MG
  6
Continuous
 62
     7
100
AcDbEllipse
 10
552.1584416995
 20
77.2304957516
 30
0.0
 11
0.7174999999999569
 21
1.242746454430703
 31
0.0
210
0.0
220
0.0
230
1.0
 40
0.5773502692
 41
4.198989948796269
 42
5.225788011973025
  0
ARC
  5
49F
330
38F
100
AcDbEntity
  8
0-11MG
  6
Continuous
 62
     7
100
AcDbCircle
 10
555.2275362564
 20
75.458553183
 30
0.0
 40
2.908869643780887
100
AcDbArc
 50
135.9783198097
 51
164.0216801903
  0
ELLIPSE
  5
4A0
330
38F
100
AcDbEntity
  8
0-11MG
  6
Continuous
 62
     7
100
AcDbEllipse
 10
552.1584416995
 20
77.2304957516
 30
0.0
 11
0.7174999999999864
 21
1.242746454430777
 31
0.0
210
0.0
220
0.0
230
1.0
 40
0.5773502692
 41
5.24618749999292
 42
6.27298556317171
  0
ARC
  5
4A1
330
38F
100
AcDbEntity
  8
0-11MG
  6
Continuous
 62
     7
100
AcDbCircle
 10
554.8988738571
 20
78.4931044987
 30
0.0
 40
2.015795983751745
100
AcDbArc
 50
180.6865011342
 51
209.3134988658
  0
ELLIPSE
  5
4A2
330
38F
100
AcDbEntity
  8
0-11MG
  6
Continuous
 62
     7
100
AcDbEllipse
 10
552.1584416995
 20
77.2304957516
 30
0.0
 11
0.7174999999999472
 21
1.242746454430686
 31
0.0
210
0.0
220
0.0
230
1.0
 40
0.5773502692
 41
0.0101997440062543
 42
1.036997807186501
  0
ARC
  5
4A3
330
38F
100
AcDbEntity
  8
0-11MG
  6
Continuous
 62
     7
100
AcDbCircle
 10
552.8927382163
 20
76.4617516797
 30
0.0
 40
2.015795733771548
100
AcDbArc
 50
90.6864993213
 51
119.3135006787
  0
ELLIPSE
  5
4A4
330
38F
100
AcDbEntity
  8
0-11MG
  6
Continuous
 62
     7
100
AcDbEllipse
 10
552.1584416995
 20
77.2304957516
 30
0.0
 11
-0.7174999999999914
 21
-1.2427464544307
 31
0.0
210
0.0
220
0.0
230
1.0
 40
0.5773502692
 41
4.198989948796267
 42
5.225788011973016
  0
ARC
  5
4A5
330
38F
100
AcDbEntity
  8
0-11MG
  6
Continuous
 62
     7
100
AcDbCircle
 10
553.9775362564
 20
76.1802410195
 30
0.0
 40
2.908869643781214
100
AcDbArc
 50
135.9783198097
 51
164.0216801903
  0
ELLIPSE
  5
4A6
330
38F
100
AcDbEntity
  8
0-11MG
  6
Continuous
 62
     7
100
AcDbEllipse
 10
552.1584416995
 20
77.2304957516
 30
0.0
 11
-0.7174999999999618
 21
-1.242746454430751
 31
0.0
210
0.0
220
0.0
230
0.9999999999999998
 40
0.5773502692
 41
5.246187499992905
 42
6.272985563168434
  0
ARC
  5
4A7
330
38F
100
AcDbEntity
  8
0-11MG
  6
Continuous
 62
     7
100
AcDbCircle
 10
553.1891471167
 20
76.9783602723
 30
0.0
 40
2.013594187183516
100
AcDbArc
 50
180.6705153097
 51
209.3294846903
  0
ELLIPSE
  5
4A8
330
38F
100
AcDbEntity
  8
0-11MG
  6
Continuous
 62
     7
100
AcDbEllipse
 10
552.1584416995
 20
77.2304957516
 30
0.0
 11
-0.7174999999999716
 21
-1.242746454430655
 31
0.0
210
0.0
220
0.0
230
1.0
 40
0.5773502692
 41
0.0101997440074952
 42
1.036997807186576
  0
ARC
  5
4A9
330
38F
100
AcDbEntity
  8
0-11MG
  6
Continuous
 62
     7
100
AcDbCircle
 10
552.4346184502
 20
74.2281022497
 30
0.0
 40
2.013594436163952
100
AcDbArc
 50
90.6705171194
 51
119.3294828806
  0
ELLIPSE
  5
4AA
330
38F
100
AcDbEntity
  8
0-11MG
  6
Continuous
 62
     7
100
AcDbEllipse
 10
552.1584416995
 20
77.2304957516
 30
0.0
 11
-1.999999999999831
 21
-3.464101615137854
 31
0.0
210
0.0
220
0.0
230
1.0
 40
0.5773502692
 41
0.0
 42
6.283185307179586
  0
LINE
  5
4AB
330
38F
100
AcDbEntity
  8
0-11MG
  6
Continuous
 62
     7
100
AcDbLine
 10
552.4225977812
 20
76.2446518334
 30
0.0
 11
552.4110544332
 21
76.2415588026
 31
0.0
  0
LINE
  5
4AC
330
38F
100
AcDbEntity
  8
0-11MG
  6
Continuous
 62
     7
100
AcDbLine
 10
551.4482972111
 20
75.9835887824
 30
0.0
 11
551.436753863
 21
75.9804957516
 31
0.0
  0
LINE
  5
4AD
330
38F
100
AcDbEntity
  8
0-11MG
  6
Continuous
 62
     7
100
AcDbLine
 10
551.436753863
 20
75.9804957516
 30
0.0
 11
551.4336608322
 21
75.9920390997
 31
0.0
  0
LINE
  5
4AE
330
38F
100
AcDbEntity
  8
0-11MG
  6
Continuous
 62
     7
100
AcDbLine
 10
551.175690812
 20
76.9547963218
 30
0.0
 11
551.1725977812
 21
76.9663396699
 31
0.0
  0
LINE
  5
4AF
330
38F
100
AcDbEntity
  8
0-11MG
  6
Continuous
 62
     7
100
AcDbLine
 10
551.1725977812
 20
76.9663396699
 30
0.0
 11
551.1810480985
 21
76.9809760488
 31
0.0
  0
LINE
  5
4B0
330
38F
100
AcDbEntity
  8
0-11MG
  6
Continuous
 62
     7
100
AcDbLine
 10
551.8858353004
 20
78.201703291
 30
0.0
 11
551.8942856177
 21
78.2163396699
 31
0.0
  0
LINE
  5
4B1
330
38F
100
AcDbEntity
  8
0-11MG
  6
Continuous
 62
     7
100
AcDbLine
 10
551.8942856177
 20
78.2163396699
 30
0.0
 11
551.9058289658
 21
78.2194327007
 31
0.0
  0
LINE
  5
4B2
330
38F
100
AcDbEntity
  8
0-11MG
  6
Continuous
 62
     7
100
AcDbLine
 10
552.8685861879
 20
78.4774027208
 30
0.0
 11
552.880129536
 21
78.4804957516
 31
0.0
  0
LINE
  5
4B3
330
38F
100
AcDbEntity
  8
0-11MG
  6
Continuous
 62
     7
100
AcDbLine
 10
552.880129536
 20
78.4804957516
 30
0.0
 11
552.8832225668
 21
78.4689524036
 31
0.0
  0
LINE
  5
4B4
330
38F
100
AcDbEntity
  8
0-11MG
  6
Continuous
 62
     7
100
AcDbLine
 10
553.1411925869
 20
77.5061951815
 30
0.0
 11
553.1442856177
 21
77.4946518334
 31
0.0
  0
LINE
  5
4B5
330
38F
100
AcDbEntity
  8
0-11MG
  6
Continuous
 62
     7
100
AcDbLine
 10
553.1442856177
 20
77.4946518334
 30
0.0
 11
553.1358353004
 21
77.4800154545
 31
0.0
  0
LINE
  5
4B6
330
38F
100
AcDbEntity
  8
0-11MG
  6
Continuous
 62
     7
100
AcDbLine
 10
552.4310480985
 20
76.2592882123
 30
0.0
 11
552.4225977812
 21
76.2446518334
 31
0.0
  0
ELLIPSE
  5
4B7
330
38F
100
AcDbEntity
  8
0-11MG
  6
Continuous
 62
     7
100
AcDbEllipse
 10
550.8856494933
 20
77.9653426745
 30
0.0
 11
0.6249999999999486
 21
1.08253175473059
 31
0.0
210
0.0
220
0.0
230
1.0
 40
0.5773502692
 41
4.712388980384635
 42
4.966570650587202
  0
ELLIPSE
  5
4B8
330
38F
100
AcDbEntity
  8
0-11MG
  6
Continuous
 62
     7
100
AcDbEllipse
 10
550.8856494933
 20
77.9653426745
 30
0.0
 11
-0.6249999999999338
 21
-1.082531754730587
 31
0.0
210
0.0
220
0.0
230
1.0
 40
0.5773502692
 41
1.312336739495522
 42
1.570796326794811
  0
LINE
  5
4B9
330
38F
100
AcDbEntity
  8
0-11MG
  6
Continuous
 62
     7
100
AcDbLine
 10
551.8942856177
 20
78.2163396699
 30
0.0
 11
553.1442856177
 21
77.4946518334
 31
0.0
  0
LINE
  5
4BA
330
38F
100
AcDbEntity
  8
0-11MG
  6
Continuous
 62
     7
100
AcDbLine
 10
551.1725977812
 20
76.9663396699
 30
0.0
 11
552.4225977812
 21
76.2446518334
 31
0.0
  0
ELLIPSE
  5
4BB
330
38F
100
AcDbEntity
  8
0-11MG
  6
Continuous
 62
     7
100
AcDbEllipse
 10
492.8023883727
 20
95.3459392882
 30
0.0
 11
-1.54999999999986
 21
2.684678751731826
 31
0.0
210
0.0
220
0.0
230
0.9999999999999998
 40
0.5773502692
 41
0.1947756481866756
 42
2.946817005396573
  0
ELLIPSE
  5
4BC
330
38F
100
AcDbEntity
  8
0-11MG
  6
Continuous
 62
     7
100
AcDbEllipse
 10
492.8023883727
 20
95.3459392882
 30
0.0
 11
-0.8599999999998971
 21
1.48956369450939
 31
0.0
210
0.0
220
0.0
230
1.0
 40
0.5773502692
 41
2.36846032928928
 42
3.340983519127264
  0
ARC
  5
4BD
330
38F
100
AcDbEntity
  8
0-11MG
  6
Continuous
 62
     7
100
AcDbCircle
 10
493.5948066393
 20
91.0447136785
 30
0.0
 40
2.99116044760544
100
AcDbArc
 50
85.1417454053
 51
105.0660733168
  0
ELLIPSE
  5
4BE
330
38F
100
AcDbEntity
  8
0-11MG
  6
Continuous
 62
     7
100
AcDbEllipse
 10
492.8023883727
 20
95.3459392882
 30
0.0
 11
0.8599999999999314
 21
-1.489563694509332
 31
0.0
210
0.0
220
0.0
230
1.0
 40
0.5773502692
 41
4.462855431682489
 42
5.485521304685416
  0
ARC
  5
4BF
330
38F
100
AcDbEntity
  8
0-11MG
  6
Continuous
 62
     7
100
AcDbCircle
 10
489.7394280712
 20
92.5556166713
 30
0.0
 40
3.351963561730211
100
AcDbArc
 50
24.5870062871
 51
53.0009474869
  0
ELLIPSE
  5
4C0
330
38F
100
AcDbEntity
  8
0-11MG
  6
Continuous
 62
     7
100
AcDbEllipse
 10
492.8023883727
 20
95.3459392882
 30
0.0
 11
-0.85999999999994
 21
1.489563694509258
 31
0.0
210
0.0
220
0.0
230
1.0
 40
0.5773502692
 41
0.2740652268959429
 42
1.296731099899001
  0
ARC
  5
4C1
330
38F
100
AcDbEntity
  8
0-11MG
  6
Continuous
 62
     7
100
AcDbCircle
 10
489.0989590162
 20
95.9583117239
 30
0.0
 40
2.730658460873155
100
AcDbArc
 50
345.423821711
 51
14.576178289
  0
ELLIPSE
  5
4C2
330
38F
100
AcDbEntity
  8
0-11MG
  6
Continuous
 62
     7
100
AcDbEllipse
 10
492.8023883727
 20
95.3459392882
 30
0.0
 11
0.8599999999999032
 21
-1.489563694509293
 31
0.0
210
0.0
220
0.0
230
1.0
 40
0.5773502692
 41
2.942201787573925
 42
3.391126202292145
  0
ARC
  5
4C3
330
38F
100
AcDbEntity
  8
0-11MG
  6
Continuous
 62
     7
100
AcDbCircle
 10
492.5336798457
 20
93.7836308269
 30
0.0
 40
2.985994504678499
100
AcDbArc
 50
95.6842361948
 51
105.0834847091
  0
LINE
  5
4C4
330
38F
100
AcDbEntity
  8
0-11MG
  6
Continuous
 62
     7
100
AcDbLine
 10
492.8173060024
 20
93.9330581148
 30
0.0
 11
492.8023883727
 21
93.9317257258
 31
0.0
  0
LINE
  5
4C5
330
38F
100
AcDbEntity
  8
0-11MG
  6
Continuous
 62
     7
100
AcDbLine
 10
492.8023883727
 20
93.9317257258
 30
0.0
 11
492.787470743
 21
93.9502835098
 31
0.0
  0
LINE
  5
4C6
330
38F
100
AcDbEntity
  8
0-11MG
  6
Continuous
 62
     7
100
AcDbLine
 10
491.7566458306
 20
95.2326471587
 30
0.0
 11
491.7417282009
 21
95.2512049427
 31
0.0
  0
LINE
  5
4C7
330
38F
100
AcDbEntity
  8
0-11MG
  6
Continuous
 62
     7
100
AcDbLine
 10
491.7417282009
 20
95.2512049427
 30
0.0
 11
491.7417282009
 21
95.2710951157
 31
0.0
  0
LINE
  5
4C8
330
38F
100
AcDbEntity
  8
0-11MG
  6
Continuous
 62
     7
100
AcDbLine
 10
491.7417282009
 20
96.6455283322
 30
0.0
 11
491.7417282009
 21
96.6654185051
 31
0.0
  0
LINE
  5
4C9
330
38F
100
AcDbEntity
  8
0-11MG
  6
Continuous
 62
     7
100
AcDbLine
 10
491.7417282009
 20
96.6654185051
 30
0.0
 11
491.7566458306
 21
96.666750894
 31
0.0
  0
LINE
  5
4CA
330
38F
100
AcDbEntity
  8
0-11MG
  6
Continuous
 62
     7
100
AcDbLine
 10
492.8023883727
 20
93.9317257258
 30
0.0
 11
493.6698261646
 21
94.4325411685
 31
0.0
  0
LINE
  5
4CB
330
38F
100
AcDbEntity
  8
0-11MG
  6
Continuous
 62
     7
100
AcDbLine
 10
491.7417282009
 20
95.2512049427
 30
0.0
 11
492.9120507903
 21
95.9268910048
 31
0.0
  0
ELLIPSE
  5
4CC
330
38F
100
AcDbEntity
  8
0-11MG
  6
Continuous
 62
     7
100
AcDbEllipse
 10
456.7399425321
 20
90.4469598026
 30
0.0
 11
-1.549999999999861
 21
2.684678751731851
 31
0.0
210
0.0
220
0.0
230
1.0
 40
0.5773502692
 41
0.194775648370801
 42
2.94681700522224
  0
ELLIPSE
  5
4CD
330
38F
100
AcDbEntity
  8
0-11MG
  6
Continuous
 62
     7
100
AcDbEllipse
 10
456.7399425321
 20
90.4469598026
 30
0.0
 11
-0.8599999999999461
 21
1.489563694509264
 31
0.0
210
0.0
220
0.0
230
1.0
 40
0.5773502692
 41
2.368460329289267
 42
3.340983519247901
  0
ARC
  5
4CE
330
38F
100
AcDbEntity
  8
0-11MG
  6
Continuous
 62
     7
100
AcDbCircle
 10
457.5323607988
 20
86.1457341929
 30
0.0
 40
2.991160447605865
100
AcDbArc
 50
85.1417454053
 51
105.0660733168
  0
ELLIPSE
  5
4CF
330
38F
100
AcDbEntity
  8
0-11MG
  6
Continuous
 62
     7
100
AcDbEllipse
 10
456.7399425321
 20
90.4469598026
 30
0.0
 11
0.8599999999999252
 21
-1.489563694509309
 31
0.0
210
0.0
220
0.0
230
1.0
 40
0.5773502692
 41
4.462855431682454
 42
5.485521304685427
  0
ARC
  5
4D0
330
38F
100
AcDbEntity
  8
0-11MG
  6
Continuous
 62
     7
100
AcDbCircle
 10
453.6769822307
 20
87.6566371858
 30
0.0
 40
3.35196356172988
100
AcDbArc
 50
24.5870062871
 51
53.0009474869
  0
ELLIPSE
  5
4D1
330
38F
100
AcDbEntity
  8
0-11MG
  6
Continuous
 62
     7
100
AcDbEllipse
 10
456.7399425321
 20
90.4469598026
 30
0.0
 11
-0.8599999999999204
 21
1.489563694509257
 31
0.0
210
0.0
220
0.0
230
1.0
 40
0.5773502692
 41
0.2740652268960233
 42
1.296731099899042
  0
ARC
  5
4D2
330
38F
100
AcDbEntity
  8
0-11MG
  6
Continuous
 62
     7
100
AcDbCircle
 10
453.0365131757
 20
91.0593322383
 30
0.0
 40
2.730658460873258
100
AcDbArc
 50
345.423821711
 51
14.576178289
  0
ELLIPSE
  5
4D3
330
38F
100
AcDbEntity
  8
0-11MG
  6
Continuous
 62
     7
100
AcDbEllipse
 10
456.7399425321
 20
90.4469598026
 30
0.0
 11
0.8599999999999364
 21
-1.489563694509291
 31
0.0
210
0.0
220
0.0
230
1.0
 40
0.5773502692
 41
2.942201787847013
 42
3.39112620229221
  0
ARC
  5
4D4
330
38F
100
AcDbEntity
  8
0-11MG
  6
Continuous
 62
     7
100
AcDbCircle
 10
456.4712340052
 20
88.8846513414
 30
0.0
 40
2.985994504677758
100
AcDbArc
 50
95.3746076978
 51
105.0834847091
  0
LINE
  5
4D5
330
38F
100
AcDbEntity
  8
0-11MG
  6
Continuous
 62
     7
100
AcDbLine
 10
456.7548601618
 20
89.0340786292
 30
0.0
 11
456.7399425321
 21
89.0327462403
 31
0.0
  0
LINE
  5
4D6
330
38F
100
AcDbEntity
  8
0-11MG
  6
Continuous
 62
     7
100
AcDbLine
 10
456.7399425321
 20
89.0327462403
 30
0.0
 11
456.7250249025
 21
89.0513040243
 31
0.0
  0
LINE
  5
4D7
330
38F
100
AcDbEntity
  8
0-11MG
  6
Continuous
 62
     7
100
AcDbLine
 10
455.6941999901
 20
90.3336676732
 30
0.0
 11
455.6792823604
 21
90.3522254572
 31
0.0
  0
LINE
  5
4D8
330
38F
100
AcDbEntity
  8
0-11MG
  6
Continuous
 62
     7
100
AcDbLine
 10
455.6792823604
 20
90.3522254572
 30
0.0
 11
455.6792823604
 21
90.3721156301
 31
0.0
  0
LINE
  5
4D9
330
38F
100
AcDbEntity
  8
0-11MG
  6
Continuous
 62
     7
100
AcDbLine
 10
455.6792823604
 20
91.7465488466
 30
0.0
 11
455.6792823604
 21
91.7664390195
 31
0.0
  0
LINE
  5
4DA
330
38F
100
AcDbEntity
  8
0-11MG
  6
Continuous
 62
     7
100
AcDbLine
 10
455.6792823604
 20
91.7664390195
 30
0.0
 11
455.6941999901
 21
91.7677714085
 31
0.0
  0
LINE
  5
4DB
330
38F
100
AcDbEntity
  8
0-11MG
  6
Continuous
 62
     7
100
AcDbLine
 10
456.7399425321
 20
89.0327462403
 30
0.0
 11
457.6073803241
 21
89.533561683
 31
0.0
  0
LINE
  5
4DC
330
38F
100
AcDbEntity
  8
0-11MG
  6
Continuous
 62
     7
100
AcDbLine
 10
455.6792823604
 20
90.3522254572
 30
0.0
 11
456.8496049498
 21
91.0279115192
 31
0.0
  0
ELLIPSE
  5
4DD
330
38F
100
AcDbEntity
  8
0-11MG
  6
Continuous
 62
     7
100
AcDbEllipse
 10
492.8023883727
 20
69.626296989
 30
0.0
 11
-1.549999999999871
 21
2.684678751731826
 31
0.0
210
0.0
220
0.0
230
1.0
 40
0.5773502692
 41
0.1947756483112919
 42
2.94681700527852
  0
ELLIPSE
  5
4DE
330
38F
100
AcDbEntity
  8
0-11MG
  6
Continuous
 62
     7
100
AcDbEllipse
 10
492.8023883727
 20
69.626296989
 30
0.0
 11
-0.8599999999999651
 21
1.489563694509232
 31
0.0
210
0.0
220
0.0
230
1.0
 40
0.5773502692
 41
2.368460329289281
 42
3.340983519290294
  0
ARC
  5
4DF
330
38F
100
AcDbEntity
  8
0-11MG
  6
Continuous
 62
     7
100
AcDbCircle
 10
493.5948066393
 20
65.3250713792
 30
0.0
 40
2.991160447606783
100
AcDbArc
 50
85.1417454053
 51
105.0660733168
  0
ELLIPSE
  5
4E0
330
38F
100
AcDbEntity
  8
0-11MG
  6
Continuous
 62
     7
100
AcDbEllipse
 10
492.8023883727
 20
69.626296989
 30
0.0
 11
0.8599999999999124
 21
-1.489563694509314
 31
0.0
210
0.0
220
0.0
230
0.9999999999999998
 40
0.5773502692
 41
4.462855431682465
 42
5.485521304685434
  0
ARC
  5
4E1
330
38F
100
AcDbEntity
  8
0-11MG
  6
Continuous
 62
     7
100
AcDbCircle
 10
489.7394280712
 20
66.8359743721
 30
0.0
 40
3.351963561729821
100
AcDbArc
 50
24.5870062871
 51
53.0009474869
  0
ELLIPSE
  5
4E2
330
38F
100
AcDbEntity
  8
0-11MG
  6
Continuous
 62
     7
100
AcDbEllipse
 10
492.8023883727
 20
69.626296989
 30
0.0
 11
-0.859999999999899
 21
1.489563694509228
 31
0.0
210
0.0
220
0.0
230
1.0
 40
0.5773502692
 41
0.2740652268960122
 42
1.296731099899038
  0
ARC
  5
4E3
330
38F
100
AcDbEntity
  8
0-11MG
  6
Continuous
 62
     7
100
AcDbCircle
 10
489.0989590162
 20
70.2386694247
 30
0.0
 40
2.730658460873306
100
AcDbArc
 50
345.423821711
 51
14.576178289
  0
ELLIPSE
  5
4E4
330
38F
100
AcDbEntity
  8
0-11MG
  6
Continuous
 62
     7
100
AcDbEllipse
 10
492.8023883727
 20
69.626296989
 30
0.0
 11
0.859999999999905
 21
-1.489563694509374
 31
0.0
210
0.0
220
0.0
230
0.9999999999999998
 40
0.5773502692
 41
2.942201788015104
 42
3.391126202292196
  0
ARC
  5
4E5
330
38F
100
AcDbEntity
  8
0-11MG
  6
Continuous
 62
     7
100
AcDbCircle
 10
492.5336798457
 20
68.0639885277
 30
0.0
 40
2.985994504678017
100
AcDbArc
 50
95.6842361948
 51
105.0834847091
  0
LINE
  5
4E6
330
38F
100
AcDbEntity
  8
0-11MG
  6
Continuous
 62
     7
100
AcDbLine
 10
492.8173060024
 20
68.2134158156
 30
0.0
 11
492.8023883727
 21
68.2120834266
 31
0.0
  0
LINE
  5
4E7
330
38F
100
AcDbEntity
  8
0-11MG
  6
Continuous
 62
     7
100
AcDbLine
 10
492.8023883727
 20
68.2120834266
 30
0.0
 11
492.787470743
 21
68.2306412106
 31
0.0
  0
LINE
  5
4E8
330
38F
100
AcDbEntity
  8
0-11MG
  6
Continuous
 62
     7
100
AcDbLine
 10
491.7566458306
 20
69.5130048595
 30
0.0
 11
491.7417282009
 21
69.5315626435
 31
0.0
  0
LINE
  5
4E9
330
38F
100
AcDbEntity
  8
0-11MG
  6
Continuous
 62
     7
100
AcDbLine
 10
491.7417282009
 20
69.5315626435
 30
0.0
 11
491.7417282009
 21
69.5514528164
 31
0.0
  0
LINE
  5
4EA
330
38F
100
AcDbEntity
  8
0-11MG
  6
Continuous
 62
     7
100
AcDbLine
 10
491.7417282009
 20
70.9258860329
 30
0.0
 11
491.7417282009
 21
70.9457762059
 31
0.0
  0
LINE
  5
4EB
330
38F
100
AcDbEntity
  8
0-11MG
  6
Continuous
 62
     7
100
AcDbLine
 10
491.7417282009
 20
70.9457762059
 30
0.0
 11
491.7566458306
 21
70.9471085948
 31
0.0
  0
LINE
  5
4EC
330
38F
100
AcDbEntity
  8
0-11MG
  6
Continuous
 62
     7
100
AcDbLine
 10
492.8023883727
 20
68.2120834266
 30
0.0
 11
493.6698261646
 21
68.7128988693
 31
0.0
  0
LINE
  5
4ED
330
38F
100
AcDbEntity
  8
0-11MG
  6
Continuous
 62
     7
100
AcDbLine
 10
491.7417282009
 20
69.5315626435
 30
0.0
 11
492.9120507903
 21
70.2072487056
 31
0.0
  0
ELLIPSE
  5
4EE
330
38F
100
AcDbEntity
  8
0-11MG
  6
Continuous
 62
     7
100
AcDbEllipse
 10
456.7399425321
 20
64.7273175034
 30
0.0
 11
-1.549999999999864
 21
2.68467875173185
 31
0.0
210
0.0
220
0.0
230
0.9999999999999998
 40
0.5773502692
 41
0.1947756483390763
 42
2.946817005252576
  0
ELLIPSE
  5
4EF
330
38F
100
AcDbEntity
  8
0-11MG
  6
Continuous
 62
     7
100
AcDbEllipse
 10
456.7399425321
 20
64.7273175034
 30
0.0
 11
-0.8599999999999112
 21
1.489563694509357
 31
0.0
210
0.0
220
0.0
230
0.9999999999999999
 40
0.5773502692
 41
2.368460329289301
 42
3.340983519259526
  0
ARC
  5
4F0
330
38F
100
AcDbEntity
  8
0-11MG
  6
Continuous
 62
     7
100
AcDbCircle
 10
457.5323607988
 20
60.4260918937
 30
0.0
 40
2.991160447608022
100
AcDbArc
 50
85.1417454053
 51
105.0660733168
  0
ELLIPSE
  5
4F1
330
38F
100
AcDbEntity
  8
0-11MG
  6
Continuous
 62
     7
100
AcDbEllipse
 10
456.7399425321
 20
64.7273175034
 30
0.0
 11
0.8599999999999013
 21
-1.489563694509343
 31
0.0
210
0.0
220
0.0
230
1.0
 40
0.5773502692
 41
4.462855431682469
 42
5.485521304685444
  0
ARC
  5
4F2
330
38F
100
AcDbEntity
  8
0-11MG
  6
Continuous
 62
     7
100
AcDbCircle
 10
453.6769822307
 20
61.9369948865
 30
0.0
 40
3.351963561730182
100
AcDbArc
 50
24.5870062871
 51
53.0009474869
  0
ELLIPSE
  5
4F3
330
38F
100
AcDbEntity
  8
0-11MG
  6
Continuous
 62
     7
100
AcDbEllipse
 10
456.7399425321
 20
64.7273175034
 30
0.0
 11
-0.8599999999999594
 21
1.489563694509292
 31
0.0
210
0.0
220
0.0
230
1.0
 40
0.5773502692
 41
0.2740652268959712
 42
1.296731099898986
  0
ARC
  5
4F4
330
38F
100
AcDbEntity
  8
0-11MG
  6
Continuous
 62
     7
100
AcDbCircle
 10
453.0365131757
 20
65.3396899391
 30
0.0
 40
2.730658460873199
100
AcDbArc
 50
345.423821711
 51
14.576178289
  0
ELLIPSE
  5
4F5
330
38F
100
AcDbEntity
  8
0-11MG
  6
Continuous
 62
     7
100
AcDbEllipse
 10
456.7399425321
 20
64.7273175034
 30
0.0
 11
0.8599999999999527
 21
-1.48956369450924
 31
0.0
210
0.0
220
0.0
230
1.0
 40
0.5773502692
 41
2.942201788179336
 42
3.391126202292121
  0
ARC
  5
4F6
330
38F
100
AcDbEntity
  8
0-11MG
  6
Continuous
 62
     7
100
AcDbCircle
 10
456.4712340052
 20
63.1650090422
 30
0.0
 40
2.985994504676271
100
AcDbArc
 50
95.6842361948
 51
105.0834847091
  0
LINE
  5
4F7
330
38F
100
AcDbEntity
  8
0-11MG
  6
Continuous
 62
     7
100
AcDbLine
 10
456.7548601618
 20
63.31443633
 30
0.0
 11
456.7399425321
 21
63.313103941
 31
0.0
  0
LINE
  5
4F8
330
38F
100
AcDbEntity
  8
0-11MG
  6
Continuous
 62
     7
100
AcDbLine
 10
456.7399425321
 20
63.313103941
 30
0.0
 11
456.7250249025
 21
63.331661725
 31
0.0
  0
LINE
  5
4F9
330
38F
100
AcDbEntity
  8
0-11MG
  6
Continuous
 62
     7
100
AcDbLine
 10
455.6941999901
 20
64.6140253739
 30
0.0
 11
455.6792823604
 21
64.6325831579
 31
0.0
  0
LINE
  5
4FA
330
38F
100
AcDbEntity
  8
0-11MG
  6
Continuous
 62
     7
100
AcDbLine
 10
455.6792823604
 20
64.6325831579
 30
0.0
 11
455.6792823604
 21
64.6524733309
 31
0.0
  0
LINE
  5
4FB
330
38F
100
AcDbEntity
  8
0-11MG
  6
Continuous
 62
     7
100
AcDbLine
 10
455.6792823604
 20
66.0269065474
 30
0.0
 11
455.6792823604
 21
66.0467967203
 31
0.0
  0
LINE
  5
4FC
330
38F
100
AcDbEntity
  8
0-11MG
  6
Continuous
 62
     7
100
AcDbLine
 10
455.6792823604
 20
66.0467967203
 30
0.0
 11
455.6941999901
 21
66.0481291092
 31
0.0
  0
LINE
  5
4FD
330
38F
100
AcDbEntity
  8
0-11MG
  6
Continuous
 62
     7
100
AcDbLine
 10
456.7399425321
 20
63.313103941
 30
0.0
 11
457.6073803241
 21
63.8139193837
 31
0.0
  0
LINE
  5
4FE
330
38F
100
AcDbEntity
  8
0-11MG
  6
Continuous
 62
     7
100
AcDbLine
 10
455.6792823604
 20
64.6325831579
 30
0.0
 11
456.8496049498
 21
65.30826922
 31
0.0
  0
ELLIPSE
  5
4FF
330
38F
100
AcDbEntity
  8
0-11MG
  6
Continuous
 62
     7
100
AcDbEllipse
 10
492.8023883727
 20
43.9066546898
 30
0.0
 11
-1.54999999999987
 21
2.684678751731826
 31
0.0
210
0.0
220
0.0
230
1.0
 40
0.5773502692
 41
0.1947756482795959
 42
2.946817005307929
  0
ELLIPSE
  5
500
330
38F
100
AcDbEntity
  8
0-11MG
  6
Continuous
 62
     7
100
AcDbEllipse
 10
492.8023883727
 20
43.9066546898
 30
0.0
 11
-0.8599999999999688
 21
1.489563694509233
 31
0.0
210
0.0
220
0.0
230
1.0
 40
0.5773502692
 41
2.368460329289278
 42
3.340983518988093
  0
ARC
  5
501
330
38F
100
AcDbEntity
  8
0-11MG
  6
Continuous
 62
     7
100
AcDbCircle
 10
493.5948066393
 20
39.60542908
 30
0.0
 40
2.991160447608877
100
AcDbArc
 50
85.1417454053
 51
105.0660733168
  0
ELLIPSE
  5
502
330
38F
100
AcDbEntity
  8
0-11MG
  6
Continuous
 62
     7
100
AcDbEllipse
 10
492.8023883727
 20
43.9066546898
 30
0.0
 11
0.8599999999998849
 21
-1.489563694509344
 31
0.0
210
0.0
220
0.0
230
1.0
 40
0.5773502692
 41
4.462855431682495
 42
5.485521304685421
  0
ARC
  5
503
330
38F
100
AcDbEntity
  8
0-11MG
  6
Continuous
 62
     7
100
AcDbCircle
 10
489.7394280712
 20
41.1163320729
 30
0.0
 40
3.35196356173032
100
AcDbArc
 50
24.5870062871
 51
53.0009474869
  0
ELLIPSE
  5
504
330
38F
100
AcDbEntity
  8
0-11MG
  6
Continuous
 62
     7
100
AcDbEllipse
 10
492.8023883727
 20
43.9066546898
 30
0.0
 11
-0.8599999999999098
 21
1.489563694509295
 31
0.0
210
0.0
220
0.0
230
1.0
 40
0.5773502692
 41
0.2740652268960586
 42
1.296731099899038
  0
ARC
  5
505
330
38F
100
AcDbEntity
  8
0-11MG
  6
Continuous
 62
     7
100
AcDbCircle
 10
489.0989590162
 20
44.5190271255
 30
0.0
 40
2.730658460873457
100
AcDbArc
 50
345.423821711
 51
14.576178289
  0
ELLIPSE
  5
506
330
38F
100
AcDbEntity
  8
0-11MG
  6
Continuous
 62
     7
100
AcDbEllipse
 10
492.8023883727
 20
43.9066546898
 30
0.0
 11
0.8599999999998896
 21
-1.489563694509307
 31
0.0
210
0.0
220
0.0
230
1.0
 40
0.5773502692
 41
2.94220178798781
 42
3.391126202292133
  0
ARC
  5
507
330
38F
100
AcDbEntity
  8
0-11MG
  6
Continuous
 62
     7
100
AcDbCircle
 10
492.5336798457
 20
42.3443462285
 30
0.0
 40
2.985994504676538
100
AcDbArc
 50
95.6842361948
 51
105.0834847091
  0
LINE
  5
508
330
38F
100
AcDbEntity
  8
0-11MG
  6
Continuous
 62
     7
100
AcDbLine
 10
492.8173060024
 20
42.4937735163
 30
0.0
 11
492.8023883727
 21
42.4924411274
 31
0.0
  0
LINE
  5
509
330
38F
100
AcDbEntity
  8
0-11MG
  6
Continuous
 62
     7
100
AcDbLine
 10
492.8023883727
 20
42.4924411274
 30
0.0
 11
492.787470743
 21
42.5109989114
 31
0.0
  0
LINE
  5
50A
330
38F
100
AcDbEntity
  8
0-11MG
  6
Continuous
 62
     7
100
AcDbLine
 10
491.7566458306
 20
43.7933625603
 30
0.0
 11
491.7417282009
 21
43.8119203443
 31
0.0
  0
LINE
  5
50B
330
38F
100
AcDbEntity
  8
0-11MG
  6
Continuous
 62
     7
100
AcDbLine
 10
491.7417282009
 20
43.8119203443
 30
0.0
 11
491.7417282009
 21
43.8318105172
 31
0.0
  0
LINE
  5
50C
330
38F
100
AcDbEntity
  8
0-11MG
  6
Continuous
 62
     7
100
AcDbLine
 10
491.7417282009
 20
45.2062437337
 30
0.0
 11
491.7417282009
 21
45.2261339067
 31
0.0
  0
LINE
  5
50D
330
38F
100
AcDbEntity
  8
0-11MG
  6
Continuous
 62
     7
100
AcDbLine
 10
491.7417282009
 20
45.2261339067
 30
0.0
 11
491.7566458306
 21
45.2274662956
 31
0.0
  0
LINE
  5
50E
330
38F
100
AcDbEntity
  8
0-11MG
  6
Continuous
 62
     7
100
AcDbLine
 10
492.8023883727
 20
42.4924411274
 30
0.0
 11
493.6698261646
 21
42.9932565701
 31
0.0
  0
LINE
  5
50F
330
38F
100
AcDbEntity
  8
0-11MG
  6
Continuous
 62
     7
100
AcDbLine
 10
491.7417282009
 20
43.8119203443
 30
0.0
 11
492.9120507903
 21
44.4876064063
 31
0.0
  0
SPLINE
  5
510
330
38F
100
AcDbEntity
  8
0-11MG
  6
Continuous
 62
     7
100
AcDbSpline
210
0.0
220
0.0
230
1.0
 70
     8
 71
     3
 72
    35
 73
    31
 74
     0
 42
0.0000000002126945
 43
0.0000000001
 40
0.0
 40
0.0
 40
0.0
 40
0.0
 40
0.0040227288508669
 40
0.0412181510308096
 40
0.0784193715859512
 40
0.1156251330773499
 40
0.1528367457518815
 40
0.1900555029889589
 40
0.2272826652742659
 40
0.2645194367352529
 40
0.3017669308278794
 40
0.3390261214631503
 40
0.3762977749277039
 40
0.4135823569232763
 40
0.4508799080650491
 40
0.4881898805274535
 40
0.5255109287419076
 40
0.5628406490382015
 40
0.6001752682913172
 40
0.6375071342614594
 40
0.6748278190000241
 40
0.7121265074403538
 40
0.7493897934679928
 40
0.7866018936133535
 40
0.8237453527238041
 40
0.8608023877133703
 40
0.8977569165200072
 40
0.9345971317000547
 40
0.9713182341644253
 40
1.0
 40
1.0
 40
1.0
 40
1.0
 10
511.826188965314
 20
72.92129087267546
 30
0.0
 10
511.7874395984828
 20
72.84605764979013
 30
0.0
 10
511.4463027219857
 20
72.18321216167006
 30
0.0
 10
510.7758748384372
 20
70.79010470735064
 30
0.0
 10
509.9141424680099
 20
68.87508429592899
 30
0.0
 10
509.1080533728957
 20
66.92457961781292
 30
0.0
 10
508.3700919661362
 20
64.97232992579102
 30
0.0
 10
507.6993689719768
 20
63.01545767023678
 30
0.0
 10
507.0983767222265
 20
61.06089249107502
 30
0.0
 10
506.5685001643765
 20
59.11292649444416
 30
0.0
 10
506.1112170495877
 20
57.17653579512885
 30
0.0
 10
505.7277740090333
 20
55.25647715013701
 30
0.0
 10
505.4192717664305
 20
53.35751817358236
 30
0.0
 10
505.1866410860038
 20
51.48436515289814
 30
0.0
 10
505.0306480821115
 20
49.64167372499645
 30
0.0
 10
504.9518912257946
 20
47.83403946935147
 30
0.0
 10
504.9507994386037
 20
46.06599625303453
 30
0.0
 10
505.0276277562902
 20
44.34201499968754
 30
0.0
 10
505.1824474165636
 20
42.66653664199385
 30
0.0
 10
505.4151289742446
 20
41.04394970442193
 30
0.0
 10
505.7253241498858
 20
39.47858577144592
 30
0.0
 10
506.1124464689894
 20
37.97469359516178
 30
0.0
 10
506.5756580677996
 20
36.53642222338729
 30
0.0
 10
507.1137837135184
 20
35.16789387172103
 30
0.0
 10
507.7254982568046
 20
33.87280862037431
 30
0.0
 10
508.408521045145
 20
32.65571649399387
 30
0.0
 10
509.1625642677022
 20
31.517020328891
 30
0.0
 10
509.9784288587063
 20
30.47123633667237
 30
0.0
 10
510.8139361647455
 20
29.55023682122451
 30
0.0
 10
511.3434247894471
 20
29.07249395215342
 30
0.0
 10
511.6190939767149
 20
28.82620566573285
 30
0.0
  0
LINE
  5
511
330
38F
100
AcDbEntity
  8
0-11MG
  6
Continuous
 62
     7
100
AcDbLine
 10
511.6140813659
 20
28.8186460138
 30
0.0
 11
516.9650183177
 21
25.7292811242
 31
0.0
  0
LINE
  5
512
330
38F
100
AcDbEntity
  8
0-11MG
  6
Continuous
 62
     7
100
AcDbLine
 10
516.9650183177
 20
25.7292811242
 30
0.0
 11
521.9011115918
 21
22.8794263437
 31
0.0
  0
SPLINE
  5
513
330
38F
100
AcDbEntity
  8
0-11MG
  6
Continuous
 62
     7
100
AcDbSpline
210
0.0
220
0.0
230
1.0
 70
     8
 71
     3
 72
    35
 73
    31
 74
     0
 42
0.0000000002126749
 43
0.0000000001
 40
0.0
 40
0.0
 40
0.0
 40
0.0
 40
0.0228641552548008
 40
0.0593329942910341
 40
0.0958903474528822
 40
0.1325538308925192
 40
0.1693308792074255
 40
0.2062195987633421
 40
0.2432107553657078
 40
0.2802902946973081
 40
0.3174418362120845
 40
0.3546487419523811
 40
0.3918955742021418
 40
0.4291689395296568
 40
0.4664578297926196
 40
0.503753611943574
 40
0.5410484063700471
 40
0.5783377960861833
 40
0.6156190866423886
 40
0.6528906739656084
 40
0.6901517854415047
 40
0.7274022689080646
 40
0.7646424262398375
 40
0.8018728854339664
 40
0.8390945043987426
 40
0.8763083000111324
 40
0.9135153968384951
 40
0.9507169908715345
 40
0.9879143245174592
 40
1.0
 40
1.0
 40
1.0
 40
1.0
 10
553.8069343577366
 20
101.8966245316023
 30
0.0
 10
553.5283485313747
 20
101.9916726946967
 30
0.0
 10
552.9142950239359
 20
102.1984228348758
 30
0.0
 10
551.7769754992958
 20
102.4574219590223
 30
0.0
 10
550.480282759045
 20
102.6570704546247
 30
0.0
 10
549.1331186690146
 20
102.757536211119
 30
0.0
 10
547.753353606911
 20
102.7589766635902
 30
0.0
 10
546.3404583904309
 20
102.6609082653044
 30
0.0
 10
544.8991649929825
 20
102.4633809616423
 30
0.0
 10
543.4330453446687
 20
102.1667226332742
 30
0.0
 10
541.9461645398173
 20
101.771636025322
 30
0.0
 10
540.4425577995879
 20
101.2791703910941
 30
0.0
 10
538.9263034859031
 20
100.6907048253123
 30
0.0
 10
537.4014532690908
 20
100.0079168339096
 30
0.0
 10
535.8720188711134
 20
99.2327522227022
 30
0.0
 10
534.341977846814
 20
98.36740876299216
 30
0.0
 10
532.8152482601085
 20
97.41430656678752
 30
0.0
 10
531.2956852245793
 20
96.37606803455526
 30
0.0
 10
529.7870647004764
 20
95.25548851397103
 30
0.0
 10
528.2931089682423
 20
94.05554098352495
 30
0.0
 10
526.8174878293623
 20
92.77936914183633
 30
0.0
 10
525.3638265850581
 20
91.43029339541728
 30
0.0
 10
523.9356642121949
 20
90.011761201503
 30
0.0
 10
522.5365902508296
 20
88.52750518011962
 30
0.0
 10
521.1697091069723
 20
86.98092452744424
 30
0.0
 10
519.8396090686255
 20
85.37736145490751
 30
0.0
 10
518.5449832815946
 20
83.715573440765
 30
0.0
 10
517.306126720248
 20
82.01951318045988
 30
0.0
 10
516.3421642584143
 20
80.62466694786511
 30
0.0
 10
515.8619351526705
 20
79.88125492440645
 30
0.0
 10
515.7241631696055
 20
79.66758086818915
 30
0.0
  0
LINE
  5
514
330
38F
100
AcDbEntity
  8
0-11MG
  6
Continuous
 62
     7
100
AcDbLine
 10
564.0991834758
 20
95.9686308282
 30
0.0
 11
559.1630902017
 21
98.8184856087
 31
0.0
  0
LINE
  5
515
330
38F
100
AcDbEntity
  8
0-11MG
  6
Continuous
 62
     7
100
AcDbLine
 10
559.1630902017
 20
98.8184856087
 30
0.0
 11
553.8121532498
 21
101.9078504983
 31
0.0
  0
LINE
  5
516
330
38F
100
AcDbEntity
  8
0-11MG
  6
Continuous
 62
     7
100
AcDbLine
 10
556.4034212403
 20
83.4399097089
 30
0.0
 11
554.2821008967
 21
84.6646545803
 31
0.0
  0
LINE
  5
517
330
38F
100
AcDbEntity
  8
0-11MG
  6
Continuous
 62
     7
100
AcDbLine
 10
526.7821008967
 20
37.0332573721
 30
0.0
 11
528.9034212403
 21
35.8085125007
 31
0.0
  0
LINE
  5
518
330
38F
100
AcDbEntity
  8
0-11MG
  6
Continuous
 62
     7
100
AcDbLine
 10
564.3867208946
 20
52.8499873909
 30
0.0
 11
542.3249893216
 21
65.5873340534
 31
0.0
  0
LINE
  5
519
330
38F
100
AcDbEntity
  8
0-11MG
  6
Continuous
 62
     7
100
AcDbLine
 10
537.3249893216
 20
56.9270800156
 30
0.0
 11
559.3867208946
 21
44.1897333531
 31
0.0
  0
LINE
  5
51A
330
38F
100
AcDbEntity
  8
0-11MG
  6
Continuous
 62
     7
100
AcDbLine
 10
561.8867208946
 20
44.4373774674
 30
0.0
 11
562.4524063195
 21
44.7639760997
 31
0.0
  0
LINE
  5
51B
330
38F
100
AcDbEntity
  8
0-11MG
  6
Continuous
 62
     7
100
AcDbLine
 10
565.4222548005
 20
49.9079045596
 30
0.0
 11
565.4222548005
 21
50.5611018243
 31
0.0
  0
SPLINE
  5
51C
330
38F
100
AcDbEntity
  8
0-11MG
  6
Continuous
 62
     7
100
AcDbSpline
210
0.0
220
0.0
230
1.0
 70
     8
 71
     3
 72
     9
 73
     5
 74
     0
 42
0.0000000250954503
 43
0.0000000001
 40
0.8121631457729971
 40
0.8121631457729971
 40
0.8121631457729971
 40
0.8121631457729971
 40
0.8964328910139782
 40
1.0
 40
1.0
 40
1.0
 40
1.0
 10
560.0906570534908
 20
46.64181299976312
 30
0.0
 10
560.0906688451851
 20
46.64121348332544
 30
0.0
 10
560.0894508637989
 20
46.65023126167241
 30
0.0
 10
560.0879234802569
 20
46.68920186523248
 30
0.0
 10
560.0866023271412
 20
46.71531762085571
 30
0.0
  0
SPLINE
  5
51D
330
38F
100
AcDbEntity
  8
0-11MG
  6
Continuous
 62
     7
100
AcDbSpline
210
0.0
220
0.0
230
1.0
 70
     8
 71
     3
 72
     9
 73
     5
 74
     0
 42
0.0000000263998445
 43
0.0000000001
 40
0.0
 40
0.0
 40
0.0
 40
0.0
 40
0.0315356487557379
 40
0.1928884471986051
 40
0.1928884471986051
 40
0.1928884471986051
 40
0.1928884471986051
 10
562.5510013047523
 20
50.98254138897795
 30
0.0
 10
562.5590033480036
 20
50.98689645839671
 30
0.0
 10
562.6004242586092
 20
51.00959386014885
 30
0.0
 10
562.614902631101
 20
51.014133678229
 30
0.0
 10
562.6136634096366
 20
51.01320534105177
 30
0.0
  0
LINE
  5
51E
330
38F
100
AcDbEntity
  8
0-11MG
  6
Continuous
 62
     7
100
AcDbLine
 10
554.7998630557
 20
81.4789731125
 30
0.0
 11
552.3249893216
 21
82.9078421291
 31
0.0
  0
LINE
  5
51F
330
38F
100
AcDbEntity
  8
0-11MG
  6
Continuous
 62
     7
100
AcDbLine
 10
527.3249893216
 20
39.6065719399
 30
0.0
 11
529.7998630557
 21
38.1777029232
 31
0.0
  0
LINE
  5
520
330
38F
100
AcDbEntity
  8
0-11MG
  6
Continuous
 62
     7
100
AcDbLine
 10
534.1584416995
 20
69.147591983
 30
0.0
 11
533.9463096651
 21
69.2700664701
 31
0.0
  0
LINE
  5
521
330
38F
100
AcDbEntity
  8
0-11MG
  6
Continuous
 62
     7
100
AcDbLine
 10
529.9463096651
 20
62.3418632399
 30
0.0
 11
530.1584416995
 21
62.2193887527
 31
0.0
  0
SPLINE
  5
522
330
38F
100
AcDbEntity
  8
0-11MG
  6
Continuous
 62
     7
100
AcDbSpline
210
0.0
220
0.0
230
1.0
 70
     8
 71
     3
 72
    21
 73
    17
 74
     0
 42
0.0000000010393534
 43
0.0000000001
 40
0.1246326635935493
 40
0.1246326635935493
 40
0.1246326635935493
 40
0.1246326635935493
 40
0.1634237050245433
 40
0.2181215358445844
 40
0.2744712245304533
 40
0.3315911893269063
 40
0.3887265005654291
 40
0.4456994476947918
 40
0.5025526252171354
 40
0.5593932387423416
 40
0.6163292522798601
 40
0.6734751077437753
 40
0.7309657108148628
 40
0.7888897254104805
 40
0.8471176535359869
 40
0.8839692814902875
 40
0.8839692814902875
 40
0.8839692814902875
 40
0.8839692814902875
 10
454.6723724238149
 20
118.7146327727782
 30
0.0
 10
454.6257351706186
 20
118.6237255851412
 30
0.0
 10
454.5300672173425
 20
118.3901394618693
 30
0.0
 10
454.4398792218674
 20
117.9773393960971
 30
0.0
 10
454.4197972674483
 20
117.4704900206392
 30
0.0
 10
454.4803713177055
 20
116.9248675147278
 30
0.0
 10
454.6193715007908
 20
116.3596309028129
 30
0.0
 10
454.8311103970022
 20
115.7938672684203
 30
0.0
 10
455.108287231085
 20
115.2445496930809
 30
0.0
 10
455.4424395459062
 20
114.7276667900328
 30
0.0
 10
455.8241319487204
 20
114.2583354898756
 30
0.0
 10
456.2432637988537
 20
113.8505690865597
 30
0.0
 10
456.6897127575812
 20
113.5171198456357
 30
0.0
 10
457.1526525632572
 20
113.2702032011649
 30
0.0
 10
457.5653931772396
 20
113.1391206456788
 30
0.0
 10
457.8170277164626
 20
113.1073054468389
 30
0.0
 10
457.9141746771959
 20
113.1025168144075
 30
0.0
  0
LINE
  5
523
330
38F
100
AcDbEntity
  8
0-11MG
  6
Continuous
 62
     7
100
AcDbLine
 10
534.1584416995
 20
46.0535812154
 30
0.0
 11
533.9463096651
 21
46.1760557025
 31
0.0
  0
LINE
  5
524
330
38F
100
AcDbEntity
  8
0-11MG
  6
Continuous
 62
     7
100
AcDbLine
 10
529.9463096651
 20
39.2478524723
 30
0.0
 11
530.1584416995
 21
39.1253779851
 31
0.0
  0
LINE
  5
525
330
38F
100
AcDbEntity
  8
0-11MG
  6
Continuous
 62
     7
100
AcDbLine
 10
554.1584416995
 20
80.6945973668
 30
0.0
 11
553.9463096651
 21
80.8170718539
 31
0.0
  0
LINE
  5
526
330
38F
100
AcDbEntity
  8
0-11MG
  6
Continuous
 62
     7
100
AcDbLine
 10
549.9463096651
 20
73.8888686236
 30
0.0
 11
550.1584416995
 21
73.7663941365
 31
0.0
  0
SPLINE
  5
527
330
38F
100
AcDbEntity
  8
0-11MG
  6
Continuous
 62
     7
100
AcDbSpline
210
0.0
220
0.0
230
1.0
 70
     8
 71
     3
 72
    21
 73
    17
 74
     0
 42
0.0000000010393534
 43
0.0000000001
 40
0.1246326635935456
 40
0.1246326635935456
 40
0.1246326635935456
 40
0.1246326635935456
 40
0.1634237050245393
 40
0.2181215358445846
 40
0.2744712245304625
 40
0.3315911893269148
 40
0.388726500565432
 40
0.4456994476947844
 40
0.50255262521714
 40
0.559393238742323
 40
0.6163292522798468
 40
0.6734751077437348
 40
0.7309657108148261
 40
0.7888897254104775
 40
0.8471176535360166
 40
0.883969281490225
 40
0.883969281490225
 40
0.883969281490225
 40
0.883969281490225
 10
490.7348182643291
 20
97.89396995912352
 30
0.0
 10
490.6881810111328
 20
97.8030627714864
 30
0.0
 10
490.5925130578567
 20
97.56947664821386
 30
0.0
 10
490.5023250623816
 20
97.15667658244246
 30
0.0
 10
490.4822431079625
 20
96.64982720698411
 30
0.0
 10
490.5428171582198
 20
96.10420470107276
 30
0.0
 10
490.681817341305
 20
95.53896808915813
 30
0.0
 10
490.8935562375165
 20
94.97320445476565
 30
0.0
 10
491.1707330715992
 20
94.42388687942602
 30
0.0
 10
491.5048853864204
 20
93.90700397637805
 30
0.0
 10
491.8865777892346
 20
93.43767267622088
 30
0.0
 10
492.3057096393679
 20
93.02990627290525
 30
0.0
 10
492.7521585980953
 20
92.69645703198093
 30
0.0
 10
493.2150984037715
 20
92.4495403875103
 30
0.0
 10
493.627839017754
 20
92.31845783202391
 30
0.0
 10
493.8794735569768
 20
92.28664263318412
 30
0.0
 10
493.9766205177098
 20
92.28185400075265
 30
0.0
  0
SPLINE
  5
528
330
38F
100
AcDbEntity
  8
0-11MG
  6
Continuous
 62
     7
100
AcDbSpline
210
0.0
220
0.0
230
1.0
 70
     8
 71
     3
 72
    21
 73
    17
 74
     0
 42
0.0000000010393534
 43
0.0000000001
 40
0.1246326635935608
 40
0.1246326635935608
 40
0.1246326635935608
 40
0.1246326635935608
 40
0.1634237050245251
 40
0.2181215358445682
 40
0.2744712245304484
 40
0.3315911893268995
 40
0.3887265005654248
 40
0.4456994476947791
 40
0.5025526252171426
 40
0.5593932387423267
 40
0.6163292522798418
 40
0.6734751077437372
 40
0.7309657108148194
 40
0.7888897254104613
 40
0.8471176535359768
 40
0.8839692814903118
 40
0.8839692814903118
 40
0.8839692814903118
 40
0.8839692814903118
 10
454.6723724238149
 20
92.99499047355322
 30
0.0
 10
454.6257351706186
 20
92.90408328591624
 30
0.0
 10
454.5300672173425
 20
92.67049716264428
 30
0.0
 10
454.4398792218674
 20
92.25769709687262
 30
0.0
 10
454.4197972674483
 20
91.75084772141429
 30
0.0
 10
454.4803713177055
 20
91.20522521550318
 30
0.0
 10
454.6193715007907
 20
90.63998860358812
 30
0.0
 10
454.8311103970021
 20
90.07422496919548
 30
0.0
 10
455.1082872310849
 20
89.52490739385627
 30
0.0
 10
455.442439545906
 20
89.008024490808
 30
0.0
 10
455.8241319487202
 20
88.53869319065092
 30
0.0
 10
456.2432637988534
 20
88.13092678733531
 30
0.0
 10
456.6897127575808
 20
87.79747754641113
 30
0.0
 10
457.1526525632569
 20
87.55056090194019
 30
0.0
 10
457.5653931772396
 20
87.41947834645383
 30
0.0
 10
457.8170277164626
 20
87.3876631476139
 30
0.0
 10
457.9141746771959
 20
87.38287451518242
 30
0.0
  0
SPLINE
  5
529
330
38F
100
AcDbEntity
  8
0-11MG
  6
Continuous
 62
     7
100
AcDbSpline
210
0.0
220
0.0
230
1.0
 70
     8
 71
     3
 72
    21
 73
    17
 74
     0
 42
0.0000000010393534
 43
0.0000000001
 40
0.1246326635935586
 40
0.1246326635935586
 40
0.1246326635935586
 40
0.1246326635935586
 40
0.1634237050245373
 40
0.2181215358445854
 40
0.2744712245304633
 40
0.3315911893269123
 40
0.3887265005654358
 40
0.4456994476947913
 40
0.5025526252171568
 40
0.5593932387423387
 40
0.616329252279869
 40
0.6734751077437453
 40
0.7309657108148255
 40
0.7888897254104653
 40
0.8471176535359796
 40
0.8839692814902751
 40
0.8839692814902751
 40
0.8839692814902751
 40
0.8839692814902751
 10
490.7348182643291
 20
72.17432765989851
 30
0.0
 10
490.6881810111328
 20
72.08342047226152
 30
0.0
 10
490.5925130578568
 20
71.84983434898943
 30
0.0
 10
490.5023250623816
 20
71.43703428321763
 30
0.0
 10
490.4822431079626
 20
70.93018490775948
 30
0.0
 10
490.5428171582197
 20
70.38456240184804
 30
0.0
 10
490.681817341305
 20
69.8193257899336
 30
0.0
 10
490.8935562375164
 20
69.25356215554052
 30
0.0
 10
491.1707330715991
 20
68.7042445802013
 30
0.0
 10
491.5048853864203
 20
68.18736167715319
 30
0.0
 10
491.8865777892345
 20
67.71803037699591
 30
0.0
 10
492.3057096393676
 20
67.31026397368042
 30
0.0
 10
492.752158598095
 20
66.97681473275644
 30
0.0
 10
493.215098403771
 20
66.72989808828541
 30
0.0
 10
493.6278390177536
 20
66.59881553279911
 30
0.0
 10
493.8794735569766
 20
66.5670003339592
 30
0.0
 10
493.9766205177098
 20
66.56221170152769
 30
0.0
  0
SPLINE
  5
52A
330
38F
100
AcDbEntity
  8
0-11MG
  6
Continuous
 62
     7
100
AcDbSpline
210
0.0
220
0.0
230
1.0
 70
     8
 71
     3
 72
    21
 73
    17
 74
     0
 42
0.0000000010393534
 43
0.0000000001
 40
0.1246326635935621
 40
0.1246326635935621
 40
0.1246326635935621
 40
0.1246326635935621
 40
0.1634237050245281
 40
0.2181215358445721
 40
0.2744712245304559
 40
0.3315911893269081
 40
0.3887265005654347
 40
0.4456994476947875
 40
0.5025526252171563
 40
0.5593932387423365
 40
0.6163292522798649
 40
0.673475107743773
 40
0.7309657108148518
 40
0.7888897254104613
 40
0.8471176535359743
 40
0.8839692814903227
 40
0.8839692814903227
 40
0.8839692814903227
 40
0.8839692814903227
 10
454.6723724238149
 20
67.27534817432837
 30
0.0
 10
454.6257351706186
 20
67.18444098669137
 30
0.0
 10
454.5300672173426
 20
66.95085486341917
 30
0.0
 10
454.4398792218674
 20
66.53805479764749
 30
0.0
 10
454.4197972674483
 20
66.0312054221894
 30
0.0
 10
454.4803713177055
 20
65.48558291627818
 30
0.0
 10
454.6193715007908
 20
64.92034630436316
 30
0.0
 10
454.8311103970021
 20
64.35458266997063
 30
0.0
 10
455.1082872310849
 20
63.80526509463119
 30
0.0
 10
455.4424395459061
 20
63.28838219158317
 30
0.0
 10
455.8241319487203
 20
62.81905089142578
 30
0.0
 10
456.2432637988535
 20
62.41128448811015
 30
0.0
 10
456.6897127575809
 20
62.07783524718632
 30
0.0
 10
457.1526525632568
 20
61.83091860271525
 30
0.0
 10
457.5653931772395
 20
61.69983604722881
 30
0.0
 10
457.8170277164625
 20
61.66802084838898
 30
0.0
 10
457.9141746771959
 20
61.66323221595751
 30
0.0
  0
SPLINE
  5
52B
330
38F
100
AcDbEntity
  8
0-11MG
  6
Continuous
 62
     7
100
AcDbSpline
210
0.0
220
0.0
230
1.0
 70
     8
 71
     3
 72
    21
 73
    17
 74
     0
 42
0.0000000010393534
 43
0.0000000001
 40
0.1246326635935493
 40
0.1246326635935493
 40
0.1246326635935493
 40
0.1246326635935493
 40
0.1634237050245373
 40
0.2181215358445854
 40
0.2744712245304633
 40
0.3315911893269123
 40
0.3887265005654358
 40
0.4456994476947913
 40
0.5025526252171568
 40
0.5593932387423387
 40
0.616329252279869
 40
0.6734751077437453
 40
0.7309657108148255
 40
0.7888897254104653
 40
0.8471176535359796
 40
0.8839692814902745
 40
0.8839692814902745
 40
0.8839692814902745
 40
0.8839692814902745
 10
490.7348182643291
 20
46.45468536067364
 30
0.0
 10
490.6881810111328
 20
46.3637781730366
 30
0.0
 10
490.5925130578568
 20
46.13019204976432
 30
0.0
 10
490.5023250623816
 20
45.71739198399263
 30
0.0
 10
490.4822431079626
 20
45.21054260853444
 30
0.0
 10
490.5428171582197
 20
44.66492010262335
 30
0.0
 10
490.681817341305
 20
44.09968349070834
 30
0.0
 10
490.8935562375164
 20
43.53391985631558
 30
0.0
 10
491.1707330715992
 20
42.98460228097645
 30
0.0
 10
491.5048853864203
 20
42.46771937792806
 30
0.0
 10
491.8865777892345
 20
41.99838807777117
 30
0.0
 10
492.3057096393676
 20
41.59062167445548
 30
0.0
 10
492.752158598095
 20
41.2571724335313
 30
0.0
 10
493.215098403771
 20
41.01025578906054
 30
0.0
 10
493.6278390177536
 20
40.87917323357411
 30
0.0
 10
493.8794735569766
 20
40.84735803473419
 30
0.0
 10
493.9766205177098
 20
40.84256940230269
 30
0.0
  0
ENDBLK
  5
52D
330
38F
100
AcDbEntity
  8
0
100
AcDbBlockEnd
  0
ENDSEC
  0
SECTION
  2
ENTITIES
  0
INSERT
  5
41
330
1F
100
AcDbEntity
  8
Default
100
AcDbBlockReference
  2
SE
 10
0.0
 20
0.0
 30
0.0
  0
INSERT
  5
164
330
1F
100
AcDbEntity
  8
Default
100
AcDbBlockReference
  2
SE1
 10
0.0
 20
0.0
 30
0.0
  0
INSERT
  5
1C1
330
1F
100
AcDbEntity
  8
Default
100
AcDbBlockReference
  2
SE2
 10
0.0
 20
0.0
 30
0.0
  0
INSERT
  5
222
330
1F
100
AcDbEntity
  8
Default
100
AcDbBlockReference
  2
SE3
 10
0.0
 20
0.0
 30
0.0
  0
INSERT
  5
328
330
1F
100
AcDbEntity
  8
Default
100
AcDbBlockReference
  2
SE4
 10
0.0
 20
0.0
 30
0.0
  0
INSERT
  5
390
330
1F
100
AcDbEntity
  8
Default
100
AcDbBlockReference
  2
SE5
 10
0.0
 20
0.0
 30
0.0
  0
ENDSEC
  0
SECTION
  2
OBJECTS
  0
DICTIONARY
  5
C
330
0
100
AcDbDictionary
281
     1
  3
ACAD_GROUP
350
D
  3
ACAD_LAYOUT
350
1A
  3
ACAD_MATERIAL
350
3B
  3
ACAD_MLEADERSTYLE
350
530
  3
ACAD_MLINESTYLE
350
17
  3
ACAD_PLOTSETTINGS
350
19
  3
ACAD_PLOTSTYLENAME
350
E
  3
ACAD_VISUALSTYLE
350
2A
  3
AcDbVariableDictionary
350
52E
  0
DICTIONARY
  5
D
102
{ACAD_REACTORS
330
C
102
}
330
C
100
AcDbDictionary
281
     1
  0
DICTIONARY
  5
1A
102
{ACAD_REACTORS
330
C
102
}
330
C
100
AcDbDictionary
281
     1
  3
Layout1
350
1E
  3
Model
350
22
  0
DICTIONARY
  5
3B
102
{ACAD_REACTORS
330
C
102
}
330
C
100
AcDbDictionary
281
     1
  3
ByBlock
350
3D
  3
ByLayer
350
3C
  3
Global
350
3E
  0
DICTIONARY
  5
530
102
{ACAD_REACTORS
330
C
102
}
330
C
100
AcDbDictionary
281
     1
  0
DICTIONARY
  5
17
102
{ACAD_REACTORS
330
C
102
}
330
C
100
AcDbDictionary
281
     1
  3
Standard
350
18
  0
DICTIONARY
  5
19
102
{ACAD_REACTORS
330
C
102
}
330
C
100
AcDbDictionary
281
     1
  0
ACDBDICTIONARYWDFLT
  5
E
102
{ACAD_REACTORS
330
C
102
}
330
C
100
AcDbDictionary
281
     1
  3
Normal
350
F
100
AcDbDictionaryWithDefault
340
F
  0
DICTIONARY
  5
2A
102
{ACAD_REACTORS
330
C
102
}
330
C
100
AcDbDictionary
281
     1
  3
2dWireframe
350
2F
  3
3D Hidden
350
31
  3
3dWireframe
350
30
  3
Basic
350
32
  3
Brighten
350
36
  3
ColorChange
350
3A
  3
Conceptual
350
34
  3
Dim
350
35
  3
Facepattern
350
39
  3
Flat
350
2B
  3
FlatWithEdges
350
2C
  3
Gouraud
350
2D
  3
GouraudWithEdges
350
2E
  3
Linepattern
350
38
  3
Realistic
350
33
  3
Thicken
350
37
  0
DICTIONARY
  5
52E
102
{ACAD_REACTORS
330
C
102
}
330
C
100
AcDbDictionary
281
     1
  3
DIMASSOC
350
533
  3
HIDETEXT
350
534
  3
PSOLHEIGHT
350
532
  3
PSOLWIDTH
350
531
  0
LAYOUT
  5
1E
102
{ACAD_REACTORS
330
1A
102
}
330
1A
100
AcDbPlotSettings
  1

  2
none_device
  4

  6

 40
0.0
 41
0.0
 42
0.0
 43
0.0
 44
0.0
 45
0.0
 46
0.0
 47
0.0
 48
0.0
 49
0.0
140
0.0
141
0.0
142
1.0
143
1.0
 70
   688
 72
     0
 73
     0
 74
     5
  7

 75
    16
147
1.0
148
0.0
149
0.0
100
AcDbLayout
  1
Layout1
 70
     1
 71
     1
 10
0.0
 20
0.0
 11
594.0
 21
420.0
 12
0.0
 22
0.0
 32
0.0
 14
0.0
 24
0.0
 34
0.0
 15
594.0
 25
420.0
 35
0.0
146
0.0
 13
0.0
 23
0.0
 33
0.0
 16
1.0
 26
0.0
 36
0.0
 17
0.0
 27
1.0
 37
0.0
 76
     0
330
1B
  0
LAYOUT
  5
22
102
{ACAD_REACTORS
330
1A
102
}
330
1A
100
AcDbPlotSettings
  1

  2
none_device
  4

  6

 40
0.0
 41
0.0
 42
0.0
 43
0.0
 44
0.0
 45
0.0
 46
0.0
 47
0.0
 48
0.0
 49
0.0
140
0.0
141
0.0
142
1.0
143
1.0
 70
  1712
 72
     0
 73
     0
 74
     0
  7

 75
     0
147
1.0
148
0.0
149
0.0
100
AcDbLayout
  1
Model
 70
     1
 71
     0
 10
0.0
 20
0.0
 11
594.0
 21
420.0
 12
0.0
 22
0.0
 32
0.0
 14
0.0
 24
0.0
 34
0.0
 15
594.0
 25
420.0
 35
0.0
146
0.0
 13
0.0
 23
0.0
 33
0.0
 16
1.0
 26
0.0
 36
0.0
 17
0.0
 27
1.0
 37
0.0
 76
     0
330
1F
331
29
  0
MATERIAL
  5
3D
102
{ACAD_REACTORS
330
3B
102
}
102
{ACAD_XDICTIONARY
360
557
102
}
330
3B
100
AcDbMaterial
  1
ByBlock
  0
MATERIAL
  5
3C
102
{ACAD_REACTORS
330
3B
102
}
102
{ACAD_XDICTIONARY
360
555
102
}
330
3B
100
AcDbMaterial
  1
ByLayer
  0
MATERIAL
  5
3E
102
{ACAD_REACTORS
330
3B
102
}
102
{ACAD_XDICTIONARY
360
559
102
}
330
3B
100
AcDbMaterial
  1
Global
  0
MLINESTYLE
  5
18
102
{ACAD_REACTORS
330
17
102
}
330
17
100
AcDbMlineStyle
  2
Standard
 70
     0
  3

 62
   256
 51
90.0
 52
90.0
 71
     2
 49
0.5
 62
   256
  6
BYLAYER
 49
-0.5
 62
   256
  6
BYLAYER
  0
ACDBPLACEHOLDER
  5
F
102
{ACAD_REACTORS
330
E
102
}
330
E
  0
VISUALSTYLE
  5
2F
102
{ACAD_REACTORS
330
2A
102
}
102
{ACAD_XDICTIONARY
360
53D
102
}
330
2A
100
AcDbVisualStyle
  2
2dWireframe
 70
     4
 71
     0
 72
     2
 73
     0
 90
        0
 40
-0.6
 41
-30.0
 62
     5
 63
     7
 74
     1
 91
        4
 64
     7
 65
   257
 75
     1
175
     1
 42
1.0
 92
        0
 66
   257
 43
1.0
 76
     1
 77
     6
 78
     2
 67
     7
 79
     5
170
     0
171
     0
290
     0
174
     0
 93
        1
 44
0.0
173
     0
291
     0
 45
0.0
1001
ACAD
1000
AcDbSavedByObjectVersion
1070
     0
  0
VISUALSTYLE
  5
31
102
{ACAD_REACTORS
330
2A
102
}
102
{ACAD_XDICTIONARY
360
541
102
}
330
2A
100
AcDbVisualStyle
  2
3D Hidden
 70
     6
 71
     1
 72
     2
 73
     2
 90
        0
 40
-0.6
 41
-30.0
 62
     5
 63
     7
 74
     2
 91
        2
 64
     7
 65
   257
 75
     2
175
     1
 42
40.0
 92
        0
 66
   257
 43
1.0
 76
     1
 77
     6
 78
     2
 67
     7
 79
     3
170
     0
171
     0
290
     0
174
     0
 93
        1
 44
0.0
173
     0
291
     0
 45
0.0
1001
ACAD
1000
AcDbSavedByObjectVersion
1070
     0
  0
VISUALSTYLE
  5
30
102
{ACAD_REACTORS
330
2A
102
}
102
{ACAD_XDICTIONARY
360
53F
102
}
330
2A
100
AcDbVisualStyle
  2
3dWireframe
 70
     5
 71
     0
 72
     2
 73
     0
 90
        0
 40
-0.6
 41
-30.0
 62
     5
 63
     7
 74
     1
 91
        4
 64
     7
 65
   257
 75
     1
175
     1
 42
1.0
 92
        0
 66
   257
 43
1.0
 76
     1
 77
     6
 78
     2
 67
     7
 79
     5
170
     0
171
     0
290
     0
174
     0
 93
        1
 44
0.0
173
     0
291
     0
 45
0.0
1001
ACAD
1000
AcDbSavedByObjectVersion
1070
     0
  0
VISUALSTYLE
  5
32
102
{ACAD_REACTORS
330
2A
102
}
102
{ACAD_XDICTIONARY
360
543
102
}
330
2A
100
AcDbVisualStyle
  2
Basic
 70
     7
 71
     1
 72
     0
 73
     1
 90
        0
 40
-0.6
 41
-30.0
 62
     5
 63
     7
 74
     0
 91
        4
 64
     7
 65
   257
 75
     1
175
     1
 42
1.0
 92
        8
 66
     7
 43
1.0
 76
     1
 77
     6
 78
     2
 67
     7
 79
     5
170
     0
171
     0
290
     0
174
     0
 93
        1
 44
0.0
173
     0
291
     1
 45
0.0
1001
ACAD
1000
AcDbSavedByObjectVersion
1070
     0
  0
VISUALSTYLE
  5
36
102
{ACAD_REACTORS
330
2A
102
}
102
{ACAD_XDICTIONARY
360
54B
102
}
330
2A
100
AcDbVisualStyle
  2
Brighten
 70
    12
 71
     2
 72
     2
 73
     0
 90
        0
 40
-0.6
 41
-30.0
 62
     5
 63
     7
 74
     1
 91
        4
 64
     7
 65
   257
 75
     1
175
     1
 42
1.0
 92
        8
 66
     7
 43
1.0
 76
     1
 77
     6
 78
     2
 67
     7
 79
     5
170
     0
171
     0
290
     0
174
     0
 93
        1
 44
50.0
173
     0
291
     1
 45
0.0
1001
ACAD
1000
AcDbSavedByObjectVersion
1070
     0
  0
VISUALSTYLE
  5
3A
102
{ACAD_REACTORS
330
2A
102
}
102
{ACAD_XDICTIONARY
360
553
102
}
330
2A
100
AcDbVisualStyle
  2
ColorChange
 70
    16
 71
     2
 72
     2
 73
     3
 90
        0
 40
-0.6
 41
-30.0
 62
     5
 63
     8
 74
     1
 91
        4
 64
     7
 65
   257
 75
     1
175
     1
 42
1.0
 92
        8
 66
     8
 43
1.0
 76
     1
 77
     6
 78
     2
 67
     7
 79
     5
170
     0
171
     0
290
     0
174
     0
 93
        1
 44
0.0
173
     0
291
     1
 45
0.0
1001
ACAD
1000
AcDbSavedByObjectVersion
1070
     0
  0
VISUALSTYLE
  5
34
102
{ACAD_REACTORS
330
2A
102
}
102
{ACAD_XDICTIONARY
360
547
102
}
330
2A
100
AcDbVisualStyle
  2
Conceptual
 70
     9
 71
     3
 72
     2
 73
     0
 90
        0
 40
-0.6
 41
-30.0
 62
     5
 63
     7
 74
     2
 91
        2
 64
     7
 65
   257
 75
     1
175
     1
 42
40.0
 92
        8
 66
     7
 43
1.0
 76
     1
 77
     6
 78
     2
 67
     7
 79
     3
170
     0
171
     0
290
     0
174
     0
 93
        1
 44
0.0
173
     0
291
     0
 45
0.0
1001
ACAD
1000
AcDbSavedByObjectVersion
1070
     0
  0
VISUALSTYLE
  5
35
102
{ACAD_REACTORS
330
2A
102
}
102
{ACAD_XDICTIONARY
360
549
102
}
330
2A
100
AcDbVisualStyle
  2
Dim
 70
    11
 71
     2
 72
     2
 73
     0
 90
        0
 40
-0.6
 41
-30.0
 62
     5
 63
     7
 74
     1
 91
        4
 64
     7
 65
   257
 75
     1
175
     1
 42
1.0
 92
        8
 66
     7
 43
1.0
 76
     1
 77
     6
 78
     2
 67
     7
 79
     5
170
     0
171
     0
290
     0
174
     0
 93
        1
 44
-50.0
173
     0
291
     1
 45
0.0
1001
ACAD
1000
AcDbSavedByObjectVersion
1070
     0
  0
VISUALSTYLE
  5
39
102
{ACAD_REACTORS
330
2A
102
}
102
{ACAD_XDICTIONARY
360
551
102
}
330
2A
100
AcDbVisualStyle
  2
Facepattern
 70
    15
 71
     2
 72
     2
 73
     0
 90
        0
 40
-0.6
 41
-30.0
 62
     5
 63
     7
 74
     1
 91
        4
 64
     7
 65
   257
 75
     1
175
     1
 42
1.0
 92
        8
 66
     7
 43
1.0
 76
     1
 77
     6
 78
     2
 67
     7
 79
     5
170
     0
171
     0
290
     0
174
     0
 93
        1
 44
0.0
173
     0
291
     1
 45
0.0
1001
ACAD
1000
AcDbSavedByObjectVersion
1070
     0
  0
VISUALSTYLE
  5
2B
102
{ACAD_REACTORS
330
2A
102
}
102
{ACAD_XDICTIONARY
360
535
102
}
330
2A
100
AcDbVisualStyle
  2
Flat
 70
     0
 71
     2
 72
     1
 73
     1
 90
        2
 40
-0.6
 41
30.0
 62
     5
 63
     7
 74
     0
 91
        4
 64
     7
 65
   257
 75
     1
175
     1
 42
1.0
 92
        8
 66
     7
 43
1.0
 76
     1
 77
     6
 78
     2
 67
     7
 79
     5
170
     0
171
     0
290
     0
174
     0
 93
       13
 44
0.0
173
     0
291
     1
 45
0.0
1001
ACAD
1000
AcDbSavedByObjectVersion
1070
     0
  0
VISUALSTYLE
  5
2C
102
{ACAD_REACTORS
330
2A
102
}
102
{ACAD_XDICTIONARY
360
537
102
}
330
2A
100
AcDbVisualStyle
  2
FlatWithEdges
 70
     1
 71
     2
 72
     1
 73
     1
 90
        2
 40
-0.6
 41
30.0
 62
     5
 63
     7
 74
     1
 91
        4
 64
     7
 65
   257
 75
     1
175
     1
 42
1.0
 92
        0
 66
   257
 43
1.0
 76
     1
 77
     6
 78
     2
 67
     7
 79
     5
170
     0
171
     0
290
     0
174
     0
 93
       13
 44
0.0
173
     0
291
     1
 45
0.0
1001
ACAD
1000
AcDbSavedByObjectVersion
1070
     0
  0
VISUALSTYLE
  5
2D
102
{ACAD_REACTORS
330
2A
102
}
102
{ACAD_XDICTIONARY
360
539
102
}
330
2A
100
AcDbVisualStyle
  2
Gouraud
 70
     2
 71
     2
 72
     2
 73
     1
 90
        2
 40
-0.6
 41
30.0
 62
     5
 63
     7
 74
     0
 91
        4
 64
     7
 65
   257
 75
     1
175
     1
 42
1.0
 92
        0
 66
     7
 43
1.0
 76
     1
 77
     6
 78
     2
 67
     7
 79
     5
170
     0
171
     0
290
     0
174
     0
 93
       13
 44
0.0
173
     0
291
     1
 45
0.0
1001
ACAD
1000
AcDbSavedByObjectVersion
1070
     0
  0
VISUALSTYLE
  5
2E
102
{ACAD_REACTORS
330
2A
102
}
102
{ACAD_XDICTIONARY
360
53B
102
}
330
2A
100
AcDbVisualStyle
  2
GouraudWithEdges
 70
     3
 71
     2
 72
     2
 73
     1
 90
        2
 40
-0.6
 41
30.0
 62
     5
 63
     7
 74
     1
 91
        4
 64
     7
 65
   257
 75
     1
175
     1
 42
1.0
 92
        0
 66
   257
 43
1.0
 76
     1
 77
     6
 78
     2
 67
     7
 79
     5
170
     0
171
     0
290
     0
174
     0
 93
       13
 44
0.0
173
     0
291
     1
 45
0.0
1001
ACAD
1000
AcDbSavedByObjectVersion
1070
     0
  0
VISUALSTYLE
  5
38
102
{ACAD_REACTORS
330
2A
102
}
102
{ACAD_XDICTIONARY
360
54F
102
}
330
2A
100
AcDbVisualStyle
  2
Linepattern
 70
    14
 71
     2
 72
     2
 73
     0
 90
        0
 40
-0.6
 41
-30.0
 62
     5
 63
     7
 74
     1
 91
        4
 64
     7
 65
   257
 75
     7
175
     7
 42
1.0
 92
        8
 66
     7
 43
1.0
 76
     1
 77
     6
 78
     2
 67
     7
 79
     5
170
     0
171
     0
290
     0
174
     0
 93
        1
 44
0.0
173
     0
291
     1
 45
0.0
1001
ACAD
1000
AcDbSavedByObjectVersion
1070
     0
  0
VISUALSTYLE
  5
33
102
{ACAD_REACTORS
330
2A
102
}
102
{ACAD_XDICTIONARY
360
545
102
}
330
2A
100
AcDbVisualStyle
  2
Realistic
 70
     8
 71
     2
 72
     2
 73
     0
 90
        0
 40
-0.6
 41
-30.0
 62
     5
 63
     7
 74
     1
 91
        0
 64
     7
 65
   257
 75
     1
175
     1
 42
1.0
 92
        8
 66
     8
 43
1.0
 76
     1
 77
     6
 78
     2
 67
     7
 79
     5
170
     0
171
     0
290
     0
174
     0
 93
       13
 44
0.0
173
     0
291
     0
 45
0.0
1001
ACAD
1000
AcDbSavedByObjectVersion
1070
     0
  0
VISUALSTYLE
  5
37
102
{ACAD_REACTORS
330
2A
102
}
102
{ACAD_XDICTIONARY
360
54D
102
}
330
2A
100
AcDbVisualStyle
  2
Thicken
 70
    13
 71
     2
 72
     2
 73
     0
 90
        0
 40
-0.6
 41
-30.0
 62
     5
 63
     7
 74
     1
 91
        4
 64
     7
 65
   257
 75
     1
175
     1
 42
1.0
 92
       12
 66
     7
 43
1.0
 76
     1
 77
     6
 78
     2
 67
     7
 79
     5
170
     0
171
     0
290
     0
174
     0
 93
        1
 44
0.0
173
     0
291
     1
 45
0.0
1001
ACAD
1000
AcDbSavedByObjectVersion
1070
     0
  0
DICTIONARYVAR
  5
533
102
{ACAD_REACTORS
330
52E
102
}
330
52E
100
DictionaryVariables
280
     0
  1
2
  0
DICTIONARYVAR
  5
534
102
{ACAD_REACTORS
330
52E
102
}
330
52E
100
DictionaryVariables
280
     0
  1
1
  0
DICTIONARYVAR
  5
532
102
{ACAD_REACTORS
330
52E
102
}
330
52E
100
DictionaryVariables
280
     0
  1
80.000000
  0
DICTIONARYVAR
  5
531
102
{ACAD_REACTORS
330
52E
102
}
330
52E
100
DictionaryVariables
280
     0
  1
5.000000
  0
DICTIONARY
  5
557
330
3D
100
AcDbDictionary
280
     1
281
     1
  3
ACAD_XREC_ROUNDTRIP
360
558
  0
DICTIONARY
  5
555
330
3C
100
AcDbDictionary
280
     1
281
     1
  3
ACAD_XREC_ROUNDTRIP
360
556
  0
DICTIONARY
  5
559
330
3E
100
AcDbDictionary
280
     1
281
     1
  3
ACAD_XREC_ROUNDTRIP
360
55A
  0
DICTIONARY
  5
53D
330
2F
100
AcDbDictionary
280
     1
281
     1
  3
ACAD_XREC_ROUNDTRIP
360
53E
  0
DICTIONARY
  5
541
330
31
100
AcDbDictionary
280
     1
281
     1
  3
ACAD_XREC_ROUNDTRIP
360
542
  0
DICTIONARY
  5
53F
330
30
100
AcDbDictionary
280
     1
281
     1
  3
ACAD_XREC_ROUNDTRIP
360
540
  0
DICTIONARY
  5
543
330
32
100
AcDbDictionary
280
     1
281
     1
  3
ACAD_XREC_ROUNDTRIP
360
544
  0
DICTIONARY
  5
54B
330
36
100
AcDbDictionary
280
     1
281
     1
  3
ACAD_XREC_ROUNDTRIP
360
54C
  0
DICTIONARY
  5
553
330
3A
100
AcDbDictionary
280
     1
281
     1
  3
ACAD_XREC_ROUNDTRIP
360
554
  0
DICTIONARY
  5
547
330
34
100
AcDbDictionary
280
     1
281
     1
  3
ACAD_XREC_ROUNDTRIP
360
548
  0
DICTIONARY
  5
549
330
35
100
AcDbDictionary
280
     1
281
     1
  3
ACAD_XREC_ROUNDTRIP
360
54A
  0
DICTIONARY
  5
551
330
39
100
AcDbDictionary
280
     1
281
     1
  3
ACAD_XREC_ROUNDTRIP
360
552
  0
DICTIONARY
  5
535
330
2B
100
AcDbDictionary
280
     1
281
     1
  3
ACAD_XREC_ROUNDTRIP
360
536
  0
DICTIONARY
  5
537
330
2C
100
AcDbDictionary
280
     1
281
     1
  3
ACAD_XREC_ROUNDTRIP
360
538
  0
DICTIONARY
  5
539
330
2D
100
AcDbDictionary
280
     1
281
     1
  3
ACAD_XREC_ROUNDTRIP
360
53A
  0
DICTIONARY
  5
53B
330
2E
100
AcDbDictionary
280
     1
281
     1
  3
ACAD_XREC_ROUNDTRIP
360
53C
  0
DICTIONARY
  5
54F
330
38
100
AcDbDictionary
280
     1
281
     1
  3
ACAD_XREC_ROUNDTRIP
360
550
  0
DICTIONARY
  5
545
330
33
100
AcDbDictionary
280
     1
281
     1
  3
ACAD_XREC_ROUNDTRIP
360
546
  0
DICTIONARY
  5
54D
330
37
100
AcDbDictionary
280
     1
281
     1
  3
ACAD_XREC_ROUNDTRIP
360
54E
  0
XRECORD
  5
558
102
{ACAD_REACTORS
330
557
102
}
330
557
100
AcDbXrecord
280
     1
102
MATERIAL
148
0.0
149
0.0
149
0.0
 93
        0
 94
      127
282
     0
 72
     1
 77
     1
171
     1
175
     1
179
     1
273
     0
  0
XRECORD
  5
556
102
{ACAD_REACTORS
330
555
102
}
330
555
100
AcDbXrecord
280
     1
102
MATERIAL
148
0.0
149
0.0
149
0.0
 93
        0
 94
      127
282
     0
 72
     1
 77
     1
171
     1
175
     1
179
     1
273
     0
  0
XRECORD
  5
55A
102
{ACAD_REACTORS
330
559
102
}
330
559
100
AcDbXrecord
280
     1
102
MATERIAL
148
0.0
149
0.0
149
0.0
 93
        0
 94
      127
282
     0
 72
     1
 77
     1
171
     1
175
     1
179
     1
273
     0
  0
XRECORD
  5
53E
102
{ACAD_REACTORS
330
53D
102
}
330
53D
100
AcDbXrecord
280
     1
102
RTVSPropertyOp0
 70
     1
102
RTVSPropertyOp1
 70
     1
102
RTVSPropertyOp2
 70
     1
102
RTVSPropertyOp3
 70
     1
102
RTVSPropertyOp4
 70
     1
102
RTVSPropertyOp5
 70
     1
102
RTVSPropertyOp6
 70
     1
102
RTVSPropertyOp7
 70
     1
102
RTVSPropertyOp8
 70
     1
102
RTVSPropertyOp9
 70
     1
102
RTVSPropertyOp10
 70
     1
102
RTVSPropertyOp11
 70
     1
102
RTVSPropertyOp12
 70
     1
102
RTVSPropertyOp13
 70
     1
102
RTVSPropertyOp14
 70
     1
102
RTVSPropertyOp15
 70
     1
102
RTVSPropertyOp16
 70
     1
102
RTVSPropertyOp17
 70
     1
102
RTVSPropertyOp18
 70
     1
102
RTVSPropertyOp19
 70
     1
102
RTVSPropertyOp20
 70
     1
102
RTVSPropertyOp21
 70
     1
102
RTVSPropertyOp22
 70
     1
102
RTVSPropertyOp23
 70
     1
102
RTVSPropertyOp24
 70
     1
102
RTVSPropertyOp25
 70
     1
102
RTVSPropertyOp26
 70
     1
102
RTVSPropertyOp27
 70
     1
  0
XRECORD
  5
542
102
{ACAD_REACTORS
330
541
102
}
330
541
100
AcDbXrecord
280
     1
102
RTVSPropertyOp0
 70
     1
102
RTVSPropertyOp1
 70
     1
102
RTVSPropertyOp2
 70
     1
102
RTVSPropertyOp3
 70
     1
102
RTVSPropertyOp4
 70
     1
102
RTVSPropertyOp5
 70
     1
102
RTVSPropertyOp6
 70
     1
102
RTVSPropertyOp7
 70
     1
102
RTVSPropertyOp8
 70
     1
102
RTVSPropertyOp9
 70
     1
102
RTVSPropertyOp10
 70
     1
102
RTVSPropertyOp11
 70
     1
102
RTVSPropertyOp12
 70
     1
102
RTVSPropertyOp13
 70
     1
102
RTVSPropertyOp14
 70
     1
102
RTVSPropertyOp15
 70
     1
102
RTVSPropertyOp16
 70
     1
102
RTVSPropertyOp17
 70
     1
102
RTVSPropertyOp18
 70
     1
102
RTVSPropertyOp19
 70
     1
102
RTVSPropertyOp20
 70
     1
102
RTVSPropertyOp21
 70
     1
102
RTVSPropertyOp22
 70
     1
102
RTVSPropertyOp23
 70
     1
102
RTVSPropertyOp24
 70
     1
102
RTVSPropertyOp25
 70
     1
102
RTVSPropertyOp26
 70
     1
102
RTVSPropertyOp27
 70
     1
  0
XRECORD
  5
540
102
{ACAD_REACTORS
330
53F
102
}
330
53F
100
AcDbXrecord
280
     1
102
RTVSPropertyOp0
 70
     1
102
RTVSPropertyOp1
 70
     1
102
RTVSPropertyOp2
 70
     1
102
RTVSPropertyOp3
 70
     1
102
RTVSPropertyOp4
 70
     1
102
RTVSPropertyOp5
 70
     1
102
RTVSPropertyOp6
 70
     1
102
RTVSPropertyOp7
 70
     1
102
RTVSPropertyOp8
 70
     1
102
RTVSPropertyOp9
 70
     1
102
RTVSPropertyOp10
 70
     1
102
RTVSPropertyOp11
 70
     1
102
RTVSPropertyOp12
 70
     1
102
RTVSPropertyOp13
 70
     1
102
RTVSPropertyOp14
 70
     1
102
RTVSPropertyOp15
 70
     1
102
RTVSPropertyOp16
 70
     1
102
RTVSPropertyOp17
 70
     1
102
RTVSPropertyOp18
 70
     1
102
RTVSPropertyOp19
 70
     1
102
RTVSPropertyOp20
 70
     1
102
RTVSPropertyOp21
 70
     1
102
RTVSPropertyOp22
 70
     1
102
RTVSPropertyOp23
 70
     1
102
RTVSPropertyOp24
 70
     1
102
RTVSPropertyOp25
 70
     1
102
RTVSPropertyOp26
 70
     1
102
RTVSPropertyOp27
 70
     1
  0
XRECORD
  5
544
102
{ACAD_REACTORS
330
543
102
}
330
543
100
AcDbXrecord
280
     1
102
RTVSPropertyOp0
 70
     1
102
RTVSPropertyOp1
 70
     1
102
RTVSPropertyOp2
 70
     1
102
RTVSPropertyOp3
 70
     1
102
RTVSPropertyOp4
 70
     1
102
RTVSPropertyOp5
 70
     1
102
RTVSPropertyOp6
 70
     1
102
RTVSPropertyOp7
 70
     1
102
RTVSPropertyOp8
 70
     1
102
RTVSPropertyOp9
 70
     1
102
RTVSPropertyOp10
 70
     1
102
RTVSPropertyOp11
 70
     1
102
RTVSPropertyOp12
 70
     1
102
RTVSPropertyOp13
 70
     1
102
RTVSPropertyOp14
 70
     1
102
RTVSPropertyOp15
 70
     1
102
RTVSPropertyOp16
 70
     1
102
RTVSPropertyOp17
 70
     1
102
RTVSPropertyOp18
 70
     1
102
RTVSPropertyOp19
 70
     1
102
RTVSPropertyOp20
 70
     1
102
RTVSPropertyOp21
 70
     1
102
RTVSPropertyOp22
 70
     1
102
RTVSPropertyOp23
 70
     1
102
RTVSPropertyOp24
 70
     1
102
RTVSPropertyOp25
 70
     1
102
RTVSPropertyOp26
 70
     1
102
RTVSPropertyOp27
 70
     1
  0
XRECORD
  5
54C
102
{ACAD_REACTORS
330
54B
102
}
330
54B
100
AcDbXrecord
280
     1
102
RTVSPropertyOp0
 70
     1
102
RTVSPropertyOp1
 70
     1
102
RTVSPropertyOp2
 70
     1
102
RTVSPropertyOp3
 70
     1
102
RTVSPropertyOp4
 70
     1
102
RTVSPropertyOp5
 70
     1
102
RTVSPropertyOp6
 70
     1
102
RTVSPropertyOp7
 70
     1
102
RTVSPropertyOp8
 70
     1
102
RTVSPropertyOp9
 70
     1
102
RTVSPropertyOp10
 70
     1
102
RTVSPropertyOp11
 70
     1
102
RTVSPropertyOp12
 70
     1
102
RTVSPropertyOp13
 70
     1
102
RTVSPropertyOp14
 70
     1
102
RTVSPropertyOp15
 70
     1
102
RTVSPropertyOp16
 70
     1
102
RTVSPropertyOp17
 70
     1
102
RTVSPropertyOp18
 70
     1
102
RTVSPropertyOp19
 70
     1
102
RTVSPropertyOp20
 70
     1
102
RTVSPropertyOp21
 70
     1
102
RTVSPropertyOp22
 70
     1
102
RTVSPropertyOp23
 70
     1
102
RTVSPropertyOp24
 70
     1
102
RTVSPropertyOp25
 70
     1
102
RTVSPropertyOp26
 70
     1
102
RTVSPropertyOp27
 70
     1
  0
XRECORD
  5
554
102
{ACAD_REACTORS
330
553
102
}
330
553
100
AcDbXrecord
280
     1
102
RTVSPropertyOp0
 70
     1
102
RTVSPropertyOp1
 70
     1
102
RTVSPropertyOp2
 70
     1
102
RTVSPropertyOp3
 70
     1
102
RTVSPropertyOp4
 70
     1
102
RTVSPropertyOp5
 70
     1
102
RTVSPropertyOp6
 70
     1
102
RTVSPropertyOp7
 70
     1
102
RTVSPropertyOp8
 70
     1
102
RTVSPropertyOp9
 70
     1
102
RTVSPropertyOp10
 70
     1
102
RTVSPropertyOp11
 70
     1
102
RTVSPropertyOp12
 70
     1
102
RTVSPropertyOp13
 70
     1
102
RTVSPropertyOp14
 70
     1
102
RTVSPropertyOp15
 70
     1
102
RTVSPropertyOp16
 70
     1
102
RTVSPropertyOp17
 70
     1
102
RTVSPropertyOp18
 70
     1
102
RTVSPropertyOp19
 70
     1
102
RTVSPropertyOp20
 70
     1
102
RTVSPropertyOp21
 70
     1
102
RTVSPropertyOp22
 70
     1
102
RTVSPropertyOp23
 70
     1
102
RTVSPropertyOp24
 70
     1
102
RTVSPropertyOp25
 70
     1
102
RTVSPropertyOp26
 70
     1
102
RTVSPropertyOp27
 70
     1
  0
XRECORD
  5
548
102
{ACAD_REACTORS
330
547
102
}
330
547
100
AcDbXrecord
280
     1
102
RTVSPropertyOp0
 70
     1
102
RTVSPropertyOp1
 70
     1
102
RTVSPropertyOp2
 70
     1
102
RTVSPropertyOp3
 70
     1
102
RTVSPropertyOp4
 70
     1
102
RTVSPropertyOp5
 70
     1
102
RTVSPropertyOp6
 70
     1
102
RTVSPropertyOp7
 70
     1
102
RTVSPropertyOp8
 70
     1
102
RTVSPropertyOp9
 70
     1
102
RTVSPropertyOp10
 70
     1
102
RTVSPropertyOp11
 70
     1
102
RTVSPropertyOp12
 70
     1
102
RTVSPropertyOp13
 70
     1
102
RTVSPropertyOp14
 70
     1
102
RTVSPropertyOp15
 70
     1
102
RTVSPropertyOp16
 70
     1
102
RTVSPropertyOp17
 70
     1
102
RTVSPropertyOp18
 70
     1
102
RTVSPropertyOp19
 70
     1
102
RTVSPropertyOp20
 70
     1
102
RTVSPropertyOp21
 70
     1
102
RTVSPropertyOp22
 70
     1
102
RTVSPropertyOp23
 70
     1
102
RTVSPropertyOp24
 70
     1
102
RTVSPropertyOp25
 70
     1
102
RTVSPropertyOp26
 70
     1
102
RTVSPropertyOp27
 70
     1
  0
XRECORD
  5
54A
102
{ACAD_REACTORS
330
549
102
}
330
549
100
AcDbXrecord
280
     1
102
RTVSPropertyOp0
 70
     1
102
RTVSPropertyOp1
 70
     1
102
RTVSPropertyOp2
 70
     1
102
RTVSPropertyOp3
 70
     1
102
RTVSPropertyOp4
 70
     1
102
RTVSPropertyOp5
 70
     1
102
RTVSPropertyOp6
 70
     1
102
RTVSPropertyOp7
 70
     1
102
RTVSPropertyOp8
 70
     1
102
RTVSPropertyOp9
 70
     1
102
RTVSPropertyOp10
 70
     1
102
RTVSPropertyOp11
 70
     1
102
RTVSPropertyOp12
 70
     1
102
RTVSPropertyOp13
 70
     1
102
RTVSPropertyOp14
 70
     1
102
RTVSPropertyOp15
 70
     1
102
RTVSPropertyOp16
 70
     1
102
RTVSPropertyOp17
 70
     1
102
RTVSPropertyOp18
 70
     1
102
RTVSPropertyOp19
 70
     1
102
RTVSPropertyOp20
 70
     1
102
RTVSPropertyOp21
 70
     1
102
RTVSPropertyOp22
 70
     1
102
RTVSPropertyOp23
 70
     1
102
RTVSPropertyOp24
 70
     1
102
RTVSPropertyOp25
 70
     1
102
RTVSPropertyOp26
 70
     1
102
RTVSPropertyOp27
 70
     1
  0
XRECORD
  5
552
102
{ACAD_REACTORS
330
551
102
}
330
551
100
AcDbXrecord
280
     1
102
RTVSPropertyOp0
 70
     1
102
RTVSPropertyOp1
 70
     1
102
RTVSPropertyOp2
 70
     1
102
RTVSPropertyOp3
 70
     1
102
RTVSPropertyOp4
 70
     1
102
RTVSPropertyOp5
 70
     1
102
RTVSPropertyOp6
 70
     1
102
RTVSPropertyOp7
 70
     1
102
RTVSPropertyOp8
 70
     1
102
RTVSPropertyOp9
 70
     1
102
RTVSPropertyOp10
 70
     1
102
RTVSPropertyOp11
 70
     1
102
RTVSPropertyOp12
 70
     1
102
RTVSPropertyOp13
 70
     1
102
RTVSPropertyOp14
 70
     1
102
RTVSPropertyOp15
 70
     1
102
RTVSPropertyOp16
 70
     1
102
RTVSPropertyOp17
 70
     1
102
RTVSPropertyOp18
 70
     1
102
RTVSPropertyOp19
 70
     1
102
RTVSPropertyOp20
 70
     1
102
RTVSPropertyOp21
 70
     1
102
RTVSPropertyOp22
 70
     1
102
RTVSPropertyOp23
 70
     1
102
RTVSPropertyOp24
 70
     1
102
RTVSPropertyOp25
 70
     1
102
RTVSPropertyOp26
 70
     1
102
RTVSPropertyOp27
 70
     1
  0
XRECORD
  5
536
102
{ACAD_REACTORS
330
535
102
}
330
535
100
AcDbXrecord
280
     1
102
RTVSPropertyOp0
 70
     1
102
RTVSPropertyOp1
 70
     1
102
RTVSPropertyOp2
 70
     1
102
RTVSPropertyOp3
 70
     1
102
RTVSPropertyOp4
 70
     1
102
RTVSPropertyOp5
 70
     1
102
RTVSPropertyOp6
 70
     1
102
RTVSPropertyOp7
 70
     1
102
RTVSPropertyOp8
 70
     1
102
RTVSPropertyOp9
 70
     1
102
RTVSPropertyOp10
 70
     1
102
RTVSPropertyOp11
 70
     1
102
RTVSPropertyOp12
 70
     1
102
RTVSPropertyOp13
 70
     1
102
RTVSPropertyOp14
 70
     1
102
RTVSPropertyOp15
 70
     1
102
RTVSPropertyOp16
 70
     1
102
RTVSPropertyOp17
 70
     1
102
RTVSPropertyOp18
 70
     1
102
RTVSPropertyOp19
 70
     1
102
RTVSPropertyOp20
 70
     1
102
RTVSPropertyOp21
 70
     1
102
RTVSPropertyOp22
 70
     1
102
RTVSPropertyOp23
 70
     1
102
RTVSPropertyOp24
 70
     1
102
RTVSPropertyOp25
 70
     1
102
RTVSPropertyOp26
 70
     1
102
RTVSPropertyOp27
 70
     1
  0
XRECORD
  5
538
102
{ACAD_REACTORS
330
537
102
}
330
537
100
AcDbXrecord
280
     1
102
RTVSPropertyOp0
 70
     1
102
RTVSPropertyOp1
 70
     1
102
RTVSPropertyOp2
 70
     1
102
RTVSPropertyOp3
 70
     1
102
RTVSPropertyOp4
 70
     1
102
RTVSPropertyOp5
 70
     1
102
RTVSPropertyOp6
 70
     1
102
RTVSPropertyOp7
 70
     1
102
RTVSPropertyOp8
 70
     1
102
RTVSPropertyOp9
 70
     1
102
RTVSPropertyOp10
 70
     1
102
RTVSPropertyOp11
 70
     1
102
RTVSPropertyOp12
 70
     1
102
RTVSPropertyOp13
 70
     1
102
RTVSPropertyOp14
 70
     1
102
RTVSPropertyOp15
 70
     1
102
RTVSPropertyOp16
 70
     1
102
RTVSPropertyOp17
 70
     1
102
RTVSPropertyOp18
 70
     1
102
RTVSPropertyOp19
 70
     1
102
RTVSPropertyOp20
 70
     1
102
RTVSPropertyOp21
 70
     1
102
RTVSPropertyOp22
 70
     1
102
RTVSPropertyOp23
 70
     1
102
RTVSPropertyOp24
 70
     1
102
RTVSPropertyOp25
 70
     1
102
RTVSPropertyOp26
 70
     1
102
RTVSPropertyOp27
 70
     1
  0
XRECORD
  5
53A
102
{ACAD_REACTORS
330
539
102
}
330
539
100
AcDbXrecord
280
     1
102
RTVSPropertyOp0
 70
     1
102
RTVSPropertyOp1
 70
     1
102
RTVSPropertyOp2
 70
     1
102
RTVSPropertyOp3
 70
     1
102
RTVSPropertyOp4
 70
     1
102
RTVSPropertyOp5
 70
     1
102
RTVSPropertyOp6
 70
     1
102
RTVSPropertyOp7
 70
     1
102
RTVSPropertyOp8
 70
     1
102
RTVSPropertyOp9
 70
     1
102
RTVSPropertyOp10
 70
     1
102
RTVSPropertyOp11
 70
     1
102
RTVSPropertyOp12
 70
     1
102
RTVSPropertyOp13
 70
     1
102
RTVSPropertyOp14
 70
     1
102
RTVSPropertyOp15
 70
     1
102
RTVSPropertyOp16
 70
     1
102
RTVSPropertyOp17
 70
     1
102
RTVSPropertyOp18
 70
     1
102
RTVSPropertyOp19
 70
     1
102
RTVSPropertyOp20
 70
     1
102
RTVSPropertyOp21
 70
     1
102
RTVSPropertyOp22
 70
     1
102
RTVSPropertyOp23
 70
     1
102
RTVSPropertyOp24
 70
     1
102
RTVSPropertyOp25
 70
     1
102
RTVSPropertyOp26
 70
     1
102
RTVSPropertyOp27
 70
     1
  0
XRECORD
  5
53C
102
{ACAD_REACTORS
330
53B
102
}
330
53B
100
AcDbXrecord
280
     1
102
RTVSPropertyOp0
 70
     1
102
RTVSPropertyOp1
 70
     1
102
RTVSPropertyOp2
 70
     1
102
RTVSPropertyOp3
 70
     1
102
RTVSPropertyOp4
 70
     1
102
RTVSPropertyOp5
 70
     1
102
RTVSPropertyOp6
 70
     1
102
RTVSPropertyOp7
 70
     1
102
RTVSPropertyOp8
 70
     1
102
RTVSPropertyOp9
 70
     1
102
RTVSPropertyOp10
 70
     1
102
RTVSPropertyOp11
 70
     1
102
RTVSPropertyOp12
 70
     1
102
RTVSPropertyOp13
 70
     1
102
RTVSPropertyOp14
 70
     1
102
RTVSPropertyOp15
 70
     1
102
RTVSPropertyOp16
 70
     1
102
RTVSPropertyOp17
 70
     1
102
RTVSPropertyOp18
 70
     1
102
RTVSPropertyOp19
 70
     1
102
RTVSPropertyOp20
 70
     1
102
RTVSPropertyOp21
 70
     1
102
RTVSPropertyOp22
 70
     1
102
RTVSPropertyOp23
 70
     1
102
RTVSPropertyOp24
 70
     1
102
RTVSPropertyOp25
 70
     1
102
RTVSPropertyOp26
 70
     1
102
RTVSPropertyOp27
 70
     1
  0
XRECORD
  5
550
102
{ACAD_REACTORS
330
54F
102
}
330
54F
100
AcDbXrecord
280
     1
102
RTVSPropertyOp0
 70
     1
102
RTVSPropertyOp1
 70
     1
102
RTVSPropertyOp2
 70
     1
102
RTVSPropertyOp3
 70
     1
102
RTVSPropertyOp4
 70
     1
102
RTVSPropertyOp5
 70
     1
102
RTVSPropertyOp6
 70
     1
102
RTVSPropertyOp7
 70
     1
102
RTVSPropertyOp8
 70
     1
102
RTVSPropertyOp9
 70
     1
102
RTVSPropertyOp10
 70
     1
102
RTVSPropertyOp11
 70
     1
102
RTVSPropertyOp12
 70
     1
102
RTVSPropertyOp13
 70
     1
102
RTVSPropertyOp14
 70
     1
102
RTVSPropertyOp15
 70
     1
102
RTVSPropertyOp16
 70
     1
102
RTVSPropertyOp17
 70
     1
102
RTVSPropertyOp18
 70
     1
102
RTVSPropertyOp19
 70
     1
102
RTVSPropertyOp20
 70
     1
102
RTVSPropertyOp21
 70
     1
102
RTVSPropertyOp22
 70
     1
102
RTVSPropertyOp23
 70
     1
102
RTVSPropertyOp24
 70
     1
102
RTVSPropertyOp25
 70
     1
102
RTVSPropertyOp26
 70
     1
102
RTVSPropertyOp27
 70
     1
  0
XRECORD
  5
546
102
{ACAD_REACTORS
330
545
102
}
330
545
100
AcDbXrecord
280
     1
102
RTVSPropertyOp0
 70
     1
102
RTVSPropertyOp1
 70
     1
102
RTVSPropertyOp2
 70
     1
102
RTVSPropertyOp3
 70
     1
102
RTVSPropertyOp4
 70
     1
102
RTVSPropertyOp5
 70
     1
102
RTVSPropertyOp6
 70
     1
102
RTVSPropertyOp7
 70
     1
102
RTVSPropertyOp8
 70
     1
102
RTVSPropertyOp9
 70
     1
102
RTVSPropertyOp10
 70
     1
102
RTVSPropertyOp11
 70
     1
102
RTVSPropertyOp12
 70
     1
102
RTVSPropertyOp13
 70
     1
102
RTVSPropertyOp14
 70
     1
102
RTVSPropertyOp15
 70
     1
102
RTVSPropertyOp16
 70
     1
102
RTVSPropertyOp17
 70
     1
102
RTVSPropertyOp18
 70
     1
102
RTVSPropertyOp19
 70
     1
102
RTVSPropertyOp20
 70
     1
102
RTVSPropertyOp21
 70
     1
102
RTVSPropertyOp22
 70
     1
102
RTVSPropertyOp23
 70
     1
102
RTVSPropertyOp24
 70
     1
102
RTVSPropertyOp25
 70
     1
102
RTVSPropertyOp26
 70
     1
102
RTVSPropertyOp27
 70
     1
  0
XRECORD
  5
54E
102
{ACAD_REACTORS
330
54D
102
}
330
54D
100
AcDbXrecord
280
     1
102
RTVSPropertyOp0
 70
     1
102
RTVSPropertyOp1
 70
     1
102
RTVSPropertyOp2
 70
     1
102
RTVSPropertyOp3
 70
     1
102
RTVSPropertyOp4
 70
     1
102
RTVSPropertyOp5
 70
     1
102
RTVSPropertyOp6
 70
     1
102
RTVSPropertyOp7
 70
     1
102
RTVSPropertyOp8
 70
     1
102
RTVSPropertyOp9
 70
     1
102
RTVSPropertyOp10
 70
     1
102
RTVSPropertyOp11
 70
     1
102
RTVSPropertyOp12
 70
     1
102
RTVSPropertyOp13
 70
     1
102
RTVSPropertyOp14
 70
     1
102
RTVSPropertyOp15
 70
     1
102
RTVSPropertyOp16
 70
     1
102
RTVSPropertyOp17
 70
     1
102
RTVSPropertyOp18
 70
     1
102
RTVSPropertyOp19
 70
     1
102
RTVSPropertyOp20
 70
     1
102
RTVSPropertyOp21
 70
     1
102
RTVSPropertyOp22
 70
     1
102
RTVSPropertyOp23
 70
     1
102
RTVSPropertyOp24
 70
     1
102
RTVSPropertyOp25
 70
     1
102
RTVSPropertyOp26
 70
     1
102
RTVSPropertyOp27
 70
     1
  0
ENDSEC
  0
EOF
