  0
SECTION
  2
HEADER
  9
$ACADVER
  1
AC1015
  9
$ACADMAINTVER
 70
     6
  9
$DWGCODEPAGE
  3
ANSI_1252
  9
$INSBASE
 10
0.0
 20
0.0
 30
0.0
  9
$EXTMIN
 10
0.0
 20
0.0
 30
0.0
  9
$EXTMAX
 10
594.0
 20
420.0
 30
0.0
  9
$LIMMIN
 10
0.0
 20
0.0
  9
$LIMMAX
 10
594.0
 20
420.0
  9
$ORTHOMODE
 70
     0
  9
$REGENMODE
 70
     1
  9
$FILLMODE
 70
     1
  9
$QTEXTMODE
 70
     0
  9
$MIRRTEXT
 70
     1
  9
$LTSCALE
 40
1.0
  9
$ATTMODE
 70
     1
  9
$TEXTSIZE
 40
2.5
  9
$TRACEWID
 40
1.0
  9
$TEXTSTYLE
  7
Standard
  9
$CLAYER
  8
0
  9
$CELTYPE
  6
ByLayer
  9
$CECOLOR
 62
   256
  9
$CELTSCALE
 40
1.0
  9
$DISPSILH
 70
     0
  9
$DIMSCALE
 40
1.0
  9
$DIMASZ
 40
2.5
  9
$DIMEXO
 40
0.625
  9
$DIMDLI
 40
3.75
  9
$DIMRND
 40
0.0
  9
$DIMDLE
 40
0.0
  9
$DIMEXE
 40
1.25
  9
$DIMTP
 40
0.0
  9
$DIMTM
 40
0.0
  9
$DIMTXT
 40
2.5
  9
$DIMCEN
 40
2.5
  9
$DIMTSZ
 40
0.0
  9
$DIMTOL
 70
     0
  9
$DIMLIM
 70
     0
  9
$DIMTIH
 70
     0
  9
$DIMTOH
 70
     0
  9
$DIMSE1
 70
     0
  9
$DIMSE2
 70
     0
  9
$DIMTAD
 70
     1
  9
$DIMZIN
 70
     8
  9
$DIMBLK
  1

  9
$DIMASO
 70
     1
  9
$DIMSHO
 70
     1
  9
$DIMPOST
  1

  9
$DIMAPOST
  1

  9
$DIMALT
 70
     0
  9
$DIMALTD
 70
     3
  9
$DIMALTF
 40
0.0393700787
  9
$DIMLFAC
 40
1.0
  9
$DIMTOFL
 70
     1
  9
$DIMTVP
 40
0.0
  9
$DIMTIX
 70
     0
  9
$DIMSOXD
 70
     0
  9
$DIMSAH
 70
     0
  9
$DIMBLK1
  1

  9
$DIMBLK2
  1

  9
$DIMSTYLE
  2
ISO-25
  9
$DIMCLRD
 70
     0
  9
$DIMCLRE
 70
     0
  9
$DIMCLRT
 70
     0
  9
$DIMTFAC
 40
1.0
  9
$DIMGAP
 40
0.625
  9
$DIMJUST
 70
     0
  9
$DIMSD1
 70
     0
  9
$DIMSD2
 70
     0
  9
$DIMTOLJ
 70
     0
  9
$DIMTZIN
 70
     8
  9
$DIMALTZ
 70
     0
  9
$DIMALTTZ
 70
     0
  9
$DIMUPT
 70
     0
  9
$DIMDEC
 70
     2
  9
$DIMTDEC
 70
     2
  9
$DIMALTU
 70
     2
  9
$DIMALTTD
 70
     3
  9
$DIMTXSTY
  7
Standard
  9
$DIMAUNIT
 70
     0
  9
$DIMADEC
 70
     0
  9
$DIMALTRND
 40
0.0
  9
$DIMAZIN
 70
     0
  9
$DIMDSEP
 70
    44
  9
$DIMATFIT
 70
     3
  9
$DIMFRAC
 70
     0
  9
$DIMLDRBLK
  1

  9
$DIMLUNIT
 70
     2
  9
$DIMLWD
 70
    -2
  9
$DIMLWE
 70
    -2
  9
$DIMTMOVE
 70
     0
  9
$LUNITS
 70
     2
  9
$LUPREC
 70
     4
  9
$SKETCHINC
 40
1.0
  9
$FILLETRAD
 40
10.0
  9
$AUNITS
 70
     0
  9
$AUPREC
 70
     0
  9
$MENU
  1
.
  9
$ELEVATION
 40
0.0
  9
$PELEVATION
 40
0.0
  9
$THICKNESS
 40
0.0
  9
$LIMCHECK
 70
     0
  9
$CHAMFERA
 40
10.0
  9
$CHAMFERB
 40
10.0
  9
$CHAMFERC
 40
20.0
  9
$CHAMFERD
 40
0.0
  9
$SKPOLY
 70
     0
  9
$TDCREATE
 40
2455572.630443032
  9
$TDUCREATE
 40
2455572.588776366
  9
$TDUPDATE
 40
2455572.630443044
  9
$TDUUPDATE
 40
2455572.588776377
  9
$TDINDWG
 40
0.0000000116
  9
$TDUSRTIMER
 40
0.0000000116
  9
$USRTIMER
 70
     1
  9
$ANGBASE
 50
0.0
  9
$ANGDIR
 70
     0
  9
$PDMODE
 70
     0
  9
$PDSIZE
 40
0.0
  9
$PLINEWID
 40
0.0
  9
$SPLFRAME
 70
     0
  9
$SPLINETYPE
 70
     6
  9
$SPLINESEGS
 70
     8
  9
$HANDSEED
  5
5D0
  9
$SURFTAB1
 70
     6
  9
$SURFTAB2
 70
     6
  9
$SURFTYPE
 70
     6
  9
$SURFU
 70
     6
  9
$SURFV
 70
     6
  9
$UCSBASE
  2

  9
$UCSNAME
  2

  9
$UCSORG
 10
0.0
 20
0.0
 30
0.0
  9
$UCSXDIR
 10
1.0
 20
0.0
 30
0.0
  9
$UCSYDIR
 10
0.0
 20
1.0
 30
0.0
  9
$UCSORTHOREF
  2

  9
$UCSORTHOVIEW
 70
     0
  9
$UCSORGTOP
 10
0.0
 20
0.0
 30
0.0
  9
$UCSORGBOTTOM
 10
0.0
 20
0.0
 30
0.0
  9
$UCSORGLEFT
 10
0.0
 20
0.0
 30
0.0
  9
$UCSORGRIGHT
 10
0.0
 20
0.0
 30
0.0
  9
$UCSORGFRONT
 10
0.0
 20
0.0
 30
0.0
  9
$UCSORGBACK
 10
0.0
 20
0.0
 30
0.0
  9
$PUCSBASE
  2

  9
$PUCSNAME
  2

  9
$PUCSORG
 10
0.0
 20
0.0
 30
0.0
  9
$PUCSXDIR
 10
1.0
 20
0.0
 30
0.0
  9
$PUCSYDIR
 10
0.0
 20
1.0
 30
0.0
  9
$PUCSORTHOREF
  2

  9
$PUCSORTHOVIEW
 70
     0
  9
$PUCSORGTOP
 10
0.0
 20
0.0
 30
0.0
  9
$PUCSORGBOTTOM
 10
0.0
 20
0.0
 30
0.0
  9
$PUCSORGLEFT
 10
0.0
 20
0.0
 30
0.0
  9
$PUCSORGRIGHT
 10
0.0
 20
0.0
 30
0.0
  9
$PUCSORGFRONT
 10
0.0
 20
0.0
 30
0.0
  9
$PUCSORGBACK
 10
0.0
 20
0.0
 30
0.0
  9
$USERI1
 70
     0
  9
$USERI2
 70
     0
  9
$USERI3
 70
     0
  9
$USERI4
 70
     0
  9
$USERI5
 70
     0
  9
$USERR1
 40
0.0
  9
$USERR2
 40
0.0
  9
$USERR3
 40
0.0
  9
$USERR4
 40
0.0
  9
$USERR5
 40
0.0
  9
$WORLDVIEW
 70
     1
  9
$SHADEDGE
 70
     3
  9
$SHADEDIF
 70
    70
  9
$TILEMODE
 70
     1
  9
$MAXACTVP
 70
    64
  9
$PINSBASE
 10
0.0
 20
0.0
 30
0.0
  9
$PLIMCHECK
 70
     0
  9
$PEXTMIN
 10
0.0
 20
0.0
 30
0.0
  9
$PEXTMAX
 10
594.0
 20
420.0
 30
0.0
  9
$PLIMMIN
 10
0.0
 20
0.0
  9
$PLIMMAX
 10
594.0
 20
420.0
  9
$UNITMODE
 70
     0
  9
$VISRETAIN
 70
     1
  9
$PLINEGEN
 70
     0
  9
$PSLTSCALE
 70
     1
  9
$TREEDEPTH
 70
  3020
  9
$CMLSTYLE
  2
Standard
  9
$CMLJUST
 70
     0
  9
$CMLSCALE
 40
20.0
  9
$PROXYGRAPHICS
 70
     1
  9
$MEASUREMENT
 70
     1
  9
$CELWEIGHT
370
    -1
  9
$ENDCAPS
280
     0
  9
$JOINSTYLE
280
     0
  9
$LWDISPLAY
290
     0
  9
$INSUNITS
 70
     4
  9
$HYPERLINKBASE
  1

  9
$STYLESHEET
  1

  9
$XEDIT
290
     1
  9
$CEPSNTYPE
380
     0
  9
$PSTYLEMODE
290
     1
  9
$FINGERPRINTGUID
  2
{66E83C0F-2EB5-4943-9740-E3028F6C4E56}
  9
$VERSIONGUID
  2
{FAEB1C32-E019-11D5-929B-00C0DF256EC4}
  9
$EXTNAMES
290
     1
  9
$PSVPSCALE
 40
0.0
  9
$OLESTARTUP
290
     0
  0
ENDSEC
  0
SECTION
  2
CLASSES
  0
CLASS
  1
ACDBDICTIONARYWDFLT
  2
AcDbDictionaryWithDefault
  3
ObjectDBX Classes
 90
        0
280
     0
281
     0
  0
CLASS
  1
VISUALSTYLE
  2
AcDbVisualStyle
  3
ObjectDBX Classes
 90
     4095
280
     0
281
     0
  0
CLASS
  1
MATERIAL
  2
AcDbMaterial
  3
ObjectDBX Classes
 90
     1153
280
     0
281
     0
  0
CLASS
  1
DICTIONARYVAR
  2
AcDbDictionaryVar
  3
ObjectDBX Classes
 90
        0
280
     0
281
     0
  0
CLASS
  1
ACDBPLACEHOLDER
  2
AcDbPlaceHolder
  3
ObjectDBX Classes
 90
        0
280
     0
281
     0
  0
CLASS
  1
LAYOUT
  2
AcDbLayout
  3
ObjectDBX Classes
 90
        0
280
     0
281
     0
  0
ENDSEC
  0
SECTION
  2
TABLES
  0
TABLE
  2
VPORT
  5
8
330
0
100
AcDbSymbolTable
 70
     1
  0
VPORT
  5
29
330
8
100
AcDbSymbolTableRecord
100
AcDbViewportTableRecord
  2
*Active
 70
     0
 10
0.0
 20
0.0
 11
1.0
 21
1.0
 12
344.1869158879
 22
148.5
 13
0.0
 23
0.0
 14
10.0
 24
10.0
 15
10.0
 25
10.0
 16
0.0
 26
0.0
 36
1.0
 17
0.0
 27
0.0
 37
0.0
 40
297.0
 41
1.9729729729
 42
50.0
 43
0.0
 44
0.0
 50
0.0
 51
0.0
 71
     0
 72
   100
 73
     1
 74
     3
 75
     0
 76
     0
 77
     0
 78
     0
281
     0
 65
     1
110
0.0
120
0.0
130
0.0
111
1.0
121
0.0
131
0.0
112
0.0
122
1.0
132
0.0
 79
     0
146
0.0
  0
ENDTAB
  0
TABLE
  2
LTYPE
  5
5
330
0
100
AcDbSymbolTable
 70
     1
  0
LTYPE
  5
14
330
5
100
AcDbSymbolTableRecord
100
AcDbLinetypeTableRecord
  2
ByBlock
 70
     0
  3

 72
    65
 73
     0
 40
0.0
  0
LTYPE
  5
15
330
5
100
AcDbSymbolTableRecord
100
AcDbLinetypeTableRecord
  2
ByLayer
 70
     0
  3

 72
    65
 73
     0
 40
0.0
  0
LTYPE
  5
16
330
5
100
AcDbSymbolTableRecord
100
AcDbLinetypeTableRecord
  2
Continuous
 70
     0
  3
Solid line
 72
    65
 73
     0
 40
0.0
  0
ENDTAB
  0
TABLE
  2
LAYER
  5
2
330
0
100
AcDbSymbolTable
 70
     3
  0
LAYER
  5
10
330
2
100
AcDbSymbolTableRecord
100
AcDbLayerTableRecord
  2
0
 70
     0
 62
     7
  6
Continuous
370
    -3
390
F
  0
LAYER
  5
3F
330
2
100
AcDbSymbolTableRecord
100
AcDbLayerTableRecord
  2
Default
 70
     0
 62
     7
  6
Continuous
370
    -3
390
F
  0
LAYER
  5
42
330
2
100
AcDbSymbolTableRecord
100
AcDbLayerTableRecord
  2
1-1MH
 70
     0
 62
     7
  6
Continuous
370
    -3
390
F
  0
ENDTAB
  0
TABLE
  2
STYLE
  5
3
330
0
100
AcDbSymbolTable
 70
     1
  0
STYLE
  5
11
330
3
100
AcDbSymbolTableRecord
100
AcDbTextStyleTableRecord
  2
Standard
 70
     0
 40
0.0
 41
1.0
 50
0.0
 71
     0
 42
2.5
  3
txt
  4

  0
ENDTAB
  0
TABLE
  2
VIEW
  5
6
330
0
100
AcDbSymbolTable
 70
     0
  0
ENDTAB
  0
TABLE
  2
UCS
  5
7
330
0
100
AcDbSymbolTable
 70
     0
  0
ENDTAB
  0
TABLE
  2
APPID
  5
9
330
0
100
AcDbSymbolTable
 70
     1
  0
APPID
  5
12
330
9
100
AcDbSymbolTableRecord
100
AcDbRegAppTableRecord
  2
ACAD
 70
     0
  0
ENDTAB
  0
TABLE
  2
DIMSTYLE
  5
A
330
0
100
AcDbSymbolTable
 70
     1
100
AcDbDimStyleTable
  0
DIMSTYLE
105
27
330
A
100
AcDbSymbolTableRecord
100
AcDbDimStyleTableRecord
  2
ISO-25
 70
     0
 41
2.5
 42
0.625
 43
3.75
 44
1.25
 73
     0
 74
     0
 77
     1
 78
     8
140
2.5
141
2.5
143
0.0393700787
147
0.625
171
     3
172
     1
178
     0
271
     2
272
     2
274
     3
278
    44
283
     0
284
     8
340
11
  0
ENDTAB
  0
TABLE
  2
BLOCK_RECORD
  5
1
330
0
100
AcDbSymbolTable
 70
     7
  0
BLOCK_RECORD
  5
1F
330
1
100
AcDbSymbolTableRecord
100
AcDbBlockTableRecord
  2
*Model_Space
340
22
  0
BLOCK_RECORD
  5
1B
330
1
100
AcDbSymbolTableRecord
100
AcDbBlockTableRecord
  2
*Paper_Space
340
1E
  0
BLOCK_RECORD
  5
40
330
1
100
AcDbSymbolTableRecord
100
AcDbBlockTableRecord
  2
SE
340
0
102
{BLKREFS
331
41
102
}
  0
BLOCK_RECORD
  5
103
330
1
100
AcDbSymbolTableRecord
100
AcDbBlockTableRecord
  2
SE1
340
0
102
{BLKREFS
331
104
102
}
  0
BLOCK_RECORD
  5
183
330
1
100
AcDbSymbolTableRecord
100
AcDbBlockTableRecord
  2
SE2
340
0
102
{BLKREFS
331
184
102
}
  0
BLOCK_RECORD
  5
224
330
1
100
AcDbSymbolTableRecord
100
AcDbBlockTableRecord
  2
SE3
340
0
102
{BLKREFS
331
225
102
}
  0
BLOCK_RECORD
  5
29D
330
1
100
AcDbSymbolTableRecord
100
AcDbBlockTableRecord
  2
SE4
340
0
102
{BLKREFS
331
29E
102
}
  0
BLOCK_RECORD
  5
428
330
1
100
AcDbSymbolTableRecord
100
AcDbBlockTableRecord
  2
SE5
340
0
102
{BLKREFS
331
429
102
}
  0
ENDTAB
  0
ENDSEC
  0
SECTION
  2
BLOCKS
  0
BLOCK
  5
20
330
1F
100
AcDbEntity
  8
0
100
AcDbBlockBegin
  2
*Model_Space
 70
     0
 10
0.0
 20
0.0
 30
0.0
  3
*Model_Space
  1

  0
ENDBLK
  5
21
330
1F
100
AcDbEntity
  8
0
100
AcDbBlockEnd
  0
BLOCK
  5
1C
330
1B
100
AcDbEntity
 67
     1
  8
0
100
AcDbBlockBegin
  2
*Paper_Space
 70
     0
 10
0.0
 20
0.0
 30
0.0
  3
*Paper_Space
  1

  0
ENDBLK
  5
1D
330
1B
100
AcDbEntity
 67
     1
  8
0
100
AcDbBlockEnd
  0
BLOCK
  5
101
330
40
100
AcDbEntity
  8
0
100
AcDbBlockBegin
  2
SE
 70
     0
 10
0.0
 20
0.0
 30
0.0
  3
SE
  1

  0
LINE
  5
43
330
40
100
AcDbEntity
  8
1-1MH
  6
Continuous
 62
     7
100
AcDbLine
 10
270.201247063
 20
264.7953194967
 30
0.0
 11
202.201247063
 21
264.7953194967
 31
0.0
  0
LINE
  5
44
330
40
100
AcDbEntity
  8
1-1MH
  6
Continuous
 62
     7
100
AcDbLine
 10
270.201247063
 20
244.7953194967
 30
0.0
 11
202.201247063
 21
244.7953194967
 31
0.0
  0
LINE
  5
45
330
40
100
AcDbEntity
  8
1-1MH
  6
Continuous
 62
     7
100
AcDbLine
 10
270.201247063
 20
262.7953194967
 30
0.0
 11
270.201247063
 21
244.7953194967
 31
0.0
  0
LINE
  5
46
330
40
100
AcDbEntity
  8
1-1MH
  6
Continuous
 62
     7
100
AcDbLine
 10
202.201247063
 20
262.7953194967
 30
0.0
 11
270.201247063
 21
262.7953194967
 31
0.0
  0
LINE
  5
47
330
40
100
AcDbEntity
  8
1-1MH
  6
Continuous
 62
     7
100
AcDbLine
 10
202.201247063
 20
262.7953194967
 30
0.0
 11
202.201247063
 21
244.7953194967
 31
0.0
  0
CIRCLE
  5
48
330
40
100
AcDbEntity
  8
1-1MH
  6
Continuous
 62
     7
100
AcDbCircle
 10
261.201247063
 20
256.2953194967
 30
0.0
 40
2.96602540378444
  0
CIRCLE
  5
49
330
40
100
AcDbEntity
  8
1-1MH
  6
Continuous
 62
     7
100
AcDbCircle
 10
209.201247063
 20
256.2953194967
 30
0.0
 40
2.96602540378444
  0
ARC
  5
4A
330
40
100
AcDbEntity
  8
1-1MH
  6
Continuous
 62
     7
100
AcDbCircle
 10
240.201247063
 20
194.7953194967
 30
0.0
 40
28.5
100
AcDbArc
 50
241.3055864732
 51
298.6944135268
  0
ARC
  5
4B
330
40
100
AcDbEntity
  8
1-1MH
  6
Continuous
 62
     7
100
AcDbCircle
 10
240.201247063
 20
194.7953194967
 30
0.0
 40
28.49999999999681
100
AcDbArc
 50
298.6944135268
 51
302.6368975036
  0
ARC
  5
4C
330
40
100
AcDbEntity
  8
1-1MH
  6
Continuous
 62
     7
100
AcDbCircle
 10
240.201247063
 20
194.7953194967
 30
0.0
 40
28.49999999999998
100
AcDbArc
 50
302.6368975036
 51
237.3631024964
  0
CIRCLE
  5
4D
330
40
100
AcDbEntity
  8
1-1MH
  6
Continuous
 62
     7
100
AcDbCircle
 10
218.201247063
 20
231.7953194967
 30
0.0
 40
11.0
  0
LINE
  5
4E
330
40
100
AcDbEntity
  8
1-1MH
  6
Continuous
 62
     7
100
AcDbLine
 10
201.201247063
 20
263.7953194967
 30
0.0
 11
202.201247063
 21
264.7953194967
 31
0.0
  0
LINE
  5
4F
330
40
100
AcDbEntity
  8
1-1MH
  6
Continuous
 62
     7
100
AcDbLine
 10
202.201247063
 20
262.7953194967
 30
0.0
 11
201.201247063
 21
263.7953194967
 31
0.0
  0
LINE
  5
50
330
40
100
AcDbEntity
  8
1-1MH
  6
Continuous
 62
     7
100
AcDbLine
 10
270.201247063
 20
264.7953194967
 30
0.0
 11
270.201247063
 21
262.7953194967
 31
0.0
  0
LINE
  5
51
330
40
100
AcDbEntity
  8
1-1MH
  6
Continuous
 62
     7
100
AcDbLine
 10
270.201247063
 20
149.7953194967
 30
0.0
 11
202.201247063
 21
149.7953194967
 31
0.0
  0
LINE
  5
52
330
40
100
AcDbEntity
  8
1-1MH
  6
Continuous
 62
     7
100
AcDbLine
 10
270.201247063
 20
149.7953194967
 30
0.0
 11
270.201247063
 21
151.7953194967
 31
0.0
  0
LINE
  5
53
330
40
100
AcDbEntity
  8
1-1MH
  6
Continuous
 62
     7
100
AcDbLine
 10
202.201247063
 20
151.7953194967
 30
0.0
 11
270.201247063
 21
151.7953194967
 31
0.0
  0
LINE
  5
54
330
40
100
AcDbEntity
  8
1-1MH
  6
Continuous
 62
     7
100
AcDbLine
 10
201.201247063
 20
150.7953194967
 30
0.0
 11
202.201247063
 21
151.7953194967
 31
0.0
  0
LINE
  5
55
330
40
100
AcDbEntity
  8
1-1MH
  6
Continuous
 62
     7
100
AcDbLine
 10
202.201247063
 20
149.7953194967
 30
0.0
 11
201.201247063
 21
150.7953194967
 31
0.0
  0
LINE
  5
56
330
40
100
AcDbEntity
  8
1-1MH
  6
Continuous
 62
     7
100
AcDbLine
 10
255.571673212
 20
170.7953194967
 30
0.0
 11
270.201247063
 21
170.7953194967
 31
0.0
  0
LINE
  5
57
330
40
100
AcDbEntity
  8
1-1MH
  6
Continuous
 62
     7
100
AcDbLine
 10
270.201247063
 20
170.7953194967
 30
0.0
 11
270.201247063
 21
243.7953194967
 31
0.0
  0
LINE
  5
58
330
40
100
AcDbEntity
  8
1-1MH
  6
Continuous
 62
     7
100
AcDbLine
 10
201.201247063
 20
243.7953194967
 30
0.0
 11
270.201247063
 21
243.7953194967
 31
0.0
  0
LINE
  5
59
330
40
100
AcDbEntity
  8
1-1MH
  6
Continuous
 62
     7
100
AcDbLine
 10
201.201247063
 20
170.7953194967
 30
0.0
 11
201.201247063
 21
243.7953194967
 31
0.0
  0
LINE
  5
5A
330
40
100
AcDbEntity
  8
1-1MH
  6
Continuous
 62
     7
100
AcDbLine
 10
201.201247063
 20
170.7953194967
 30
0.0
 11
224.8308209141
 21
170.7953194967
 31
0.0
  0
LINE
  5
5B
330
40
100
AcDbEntity
  8
1-1MH
  6
Continuous
 62
     7
100
AcDbLine
 10
202.201247063
 20
169.7953194967
 30
0.0
 11
202.201247063
 21
151.7953194967
 31
0.0
  0
LINE
  5
5C
330
40
100
AcDbEntity
  8
1-1MH
  6
Continuous
 62
     7
100
AcDbLine
 10
270.201247063
 20
169.7953194967
 30
0.0
 11
270.201247063
 21
151.7953194967
 31
0.0
  0
LINE
  5
5D
330
40
100
AcDbEntity
  8
1-1MH
  6
Continuous
 62
     7
100
AcDbLine
 10
253.8851792465
 20
169.7953194967
 30
0.0
 11
270.201247063
 21
169.7953194967
 31
0.0
  0
LINE
  5
5E
330
40
100
AcDbEntity
  8
1-1MH
  6
Continuous
 62
     7
100
AcDbLine
 10
202.201247063
 20
169.7953194967
 30
0.0
 11
226.5173148796
 21
169.7953194967
 31
0.0
  0
CIRCLE
  5
5F
330
40
100
AcDbEntity
  8
1-1MH
  6
Continuous
 62
     7
100
AcDbCircle
 10
261.201247063
 20
158.2953194967
 30
0.0
 40
2.96602540378444
  0
CIRCLE
  5
60
330
40
100
AcDbEntity
  8
1-1MH
  6
Continuous
 62
     7
100
AcDbCircle
 10
209.201247063
 20
158.2953194967
 30
0.0
 40
2.96602540378444
  0
ARC
  5
61
330
40
100
AcDbEntity
  8
1-1MH
  6
Continuous
 62
     7
100
AcDbCircle
 10
240.201247063
 20
194.7953194967
 30
0.0
 40
28.50000000000062
100
AcDbArc
 50
237.3631024964
 51
241.3055864732
  0
LINE
  5
62
330
40
100
AcDbEntity
  8
1-1MH
  6
Continuous
 62
     7
100
AcDbLine
 10
202.201247063
 20
169.7953194967
 30
0.0
 11
201.201247063
 21
170.7953194967
 31
0.0
  0
LINE
  5
63
330
40
100
AcDbEntity
  8
1-1MH
  6
Continuous
 62
     7
100
AcDbLine
 10
270.201247063
 20
169.7953194967
 30
0.0
 11
270.201247063
 21
170.7953194967
 31
0.0
  0
CIRCLE
  5
64
330
40
100
AcDbEntity
  8
1-1MH
  6
Continuous
 62
     7
100
AcDbCircle
 10
261.201247063
 20
256.2953194967
 30
0.0
 40
2.1
  0
CIRCLE
  5
65
330
40
100
AcDbEntity
  8
1-1MH
  6
Continuous
 62
     7
100
AcDbCircle
 10
209.201247063
 20
256.2953194967
 30
0.0
 40
2.1
  0
CIRCLE
  5
66
330
40
100
AcDbEntity
  8
1-1MH
  6
Continuous
 62
     7
100
AcDbCircle
 10
261.201247063
 20
158.2953194967
 30
0.0
 40
2.1
  0
CIRCLE
  5
67
330
40
100
AcDbEntity
  8
1-1MH
  6
Continuous
 62
     7
100
AcDbCircle
 10
209.201247063
 20
158.2953194967
 30
0.0
 40
2.1
  0
LINE
  5
68
330
40
100
AcDbEntity
  8
1-1MH
  6
Continuous
 62
     7
100
AcDbLine
 10
200.201247063
 20
262.7953194967
 30
0.0
 11
200.201247063
 21
151.7953194967
 31
0.0
  0
LINE
  5
69
330
40
100
AcDbEntity
  8
1-1MH
  6
Continuous
 62
     7
100
AcDbLine
 10
270.201247063
 20
243.7953194967
 30
0.0
 11
270.201247063
 21
244.7953194967
 31
0.0
  0
LINE
  5
6A
330
40
100
AcDbEntity
  8
1-1MH
  6
Continuous
 62
     7
100
AcDbLine
 10
201.201247063
 20
263.7953194967
 30
0.0
 11
200.201247063
 21
262.7953194967
 31
0.0
  0
LINE
  5
6B
330
40
100
AcDbEntity
  8
1-1MH
  6
Continuous
 62
     7
100
AcDbLine
 10
201.201247063
 20
150.7953194967
 30
0.0
 11
200.201247063
 21
151.7953194967
 31
0.0
  0
LINE
  5
6C
330
40
100
AcDbEntity
  8
1-1MH
  6
Continuous
 62
     7
100
AcDbLine
 10
201.201247063
 20
243.7953194967
 30
0.0
 11
202.201247063
 21
244.7953194967
 31
0.0
  0
CIRCLE
  5
6D
330
40
100
AcDbEntity
  8
1-1MH
  6
Continuous
 62
     7
100
AcDbCircle
 10
218.201247063
 20
231.7953194967
 30
0.0
 40
8.55
  0
CIRCLE
  5
6E
330
40
100
AcDbEntity
  8
1-1MH
  6
Continuous
 62
     7
100
AcDbCircle
 10
218.201247063
 20
231.7953194967
 30
0.0
 40
9.5
  0
LINE
  5
6F
330
40
100
AcDbEntity
  8
1-1MH
  6
Continuous
 62
     7
100
AcDbLine
 10
218.201247063
 20
235.5480962464
 30
0.0
 11
214.951247063
 21
233.6717078715
 31
0.0
  0
LINE
  5
70
330
40
100
AcDbEntity
  8
1-1MH
  6
Continuous
 62
     7
100
AcDbLine
 10
215.201247063
 20
233.5273703042
 30
0.0
 11
218.201247063
 21
235.2594211118
 31
0.0
  0
LINE
  5
71
330
40
100
AcDbEntity
  8
1-1MH
  6
Continuous
 62
     7
100
AcDbLine
 10
214.951247063
 20
233.6717078715
 30
0.0
 11
214.951247063
 21
229.9189311218
 31
0.0
  0
LINE
  5
72
330
40
100
AcDbEntity
  8
1-1MH
  6
Continuous
 62
     7
100
AcDbLine
 10
215.201247063
 20
230.0632686891
 30
0.0
 11
215.201247063
 21
233.5273703042
 31
0.0
  0
LINE
  5
73
330
40
100
AcDbEntity
  8
1-1MH
  6
Continuous
 62
     7
100
AcDbLine
 10
215.201247063
 20
233.5273703042
 30
0.0
 11
214.951247063
 21
233.6717078715
 31
0.0
  0
LINE
  5
74
330
40
100
AcDbEntity
  8
1-1MH
  6
Continuous
 62
     7
100
AcDbLine
 10
214.951247063
 20
229.9189311218
 30
0.0
 11
218.201247063
 21
228.0425427469
 31
0.0
  0
LINE
  5
75
330
40
100
AcDbEntity
  8
1-1MH
  6
Continuous
 62
     7
100
AcDbLine
 10
218.201247063
 20
228.0425427469
 30
0.0
 11
218.201247063
 21
228.3312178815
 31
0.0
  0
LINE
  5
76
330
40
100
AcDbEntity
  8
1-1MH
  6
Continuous
 62
     7
100
AcDbLine
 10
218.201247063
 20
228.3312178815
 30
0.0
 11
215.201247063
 21
230.0632686891
 31
0.0
  0
LINE
  5
77
330
40
100
AcDbEntity
  8
1-1MH
  6
Continuous
 62
     7
100
AcDbLine
 10
215.201247063
 20
230.0632686891
 30
0.0
 11
214.951247063
 21
229.9189311218
 31
0.0
  0
LINE
  5
78
330
40
100
AcDbEntity
  8
1-1MH
  6
Continuous
 62
     7
100
AcDbLine
 10
218.201247063
 20
228.0425427469
 30
0.0
 11
221.451247063
 21
229.9189311218
 31
0.0
  0
LINE
  5
79
330
40
100
AcDbEntity
  8
1-1MH
  6
Continuous
 62
     7
100
AcDbLine
 10
221.201247063
 20
230.0632686891
 30
0.0
 11
218.201247063
 21
228.3312178815
 31
0.0
  0
LINE
  5
7A
330
40
100
AcDbEntity
  8
1-1MH
  6
Continuous
 62
     7
100
AcDbLine
 10
221.451247063
 20
229.9189311218
 30
0.0
 11
221.451247063
 21
233.6717078715
 31
0.0
  0
LINE
  5
7B
330
40
100
AcDbEntity
  8
1-1MH
  6
Continuous
 62
     7
100
AcDbLine
 10
221.451247063
 20
233.6717078715
 30
0.0
 11
221.201247063
 21
233.5273703042
 31
0.0
  0
LINE
  5
7C
330
40
100
AcDbEntity
  8
1-1MH
  6
Continuous
 62
     7
100
AcDbLine
 10
221.201247063
 20
233.5273703042
 30
0.0
 11
221.201247063
 21
230.0632686891
 31
0.0
  0
LINE
  5
7D
330
40
100
AcDbEntity
  8
1-1MH
  6
Continuous
 62
     7
100
AcDbLine
 10
221.201247063
 20
230.0632686891
 30
0.0
 11
221.451247063
 21
229.9189311218
 31
0.0
  0
LINE
  5
7E
330
40
100
AcDbEntity
  8
1-1MH
  6
Continuous
 62
     7
100
AcDbLine
 10
221.451247063
 20
233.6717078715
 30
0.0
 11
218.201247063
 21
235.5480962464
 31
0.0
  0
LINE
  5
7F
330
40
100
AcDbEntity
  8
1-1MH
  6
Continuous
 62
     7
100
AcDbLine
 10
218.201247063
 20
235.5480962464
 30
0.0
 11
218.201247063
 21
235.2594211118
 31
0.0
  0
LINE
  5
80
330
40
100
AcDbEntity
  8
1-1MH
  6
Continuous
 62
     7
100
AcDbLine
 10
218.201247063
 20
235.2594211118
 30
0.0
 11
221.201247063
 21
233.5273703042
 31
0.0
  0
ARC
  5
81
330
40
100
AcDbEntity
  8
1-1MH
  6
Continuous
 62
     7
100
AcDbCircle
 10
239.9569857252
 20
194.7953194967
 30
0.0
 40
9.0
100
AcDbArc
 50
16.1276202132
 51
343.8723797868
  0
CIRCLE
  5
82
330
40
100
AcDbEntity
  8
1-1MH
  6
Continuous
 62
     7
100
AcDbCircle
 10
239.9569857252
 20
194.7953194967
 30
0.0
 40
28.0
  0
ARC
  5
83
330
40
100
AcDbEntity
  8
1-1MH
  6
Continuous
 62
     7
100
AcDbCircle
 10
239.9569857252
 20
194.7953194967
 30
0.0
 40
27.49999999999996
100
AcDbArc
 50
60.0
 51
120.0
  0
ARC
  5
84
330
40
100
AcDbEntity
  8
1-1MH
  6
Continuous
 62
     7
100
AcDbCircle
 10
239.9569857252
 20
194.7953194967
 30
0.0
 40
27.49999999999995
100
AcDbArc
 50
0.0
 51
60.0
  0
ARC
  5
85
330
40
100
AcDbEntity
  8
1-1MH
  6
Continuous
 62
     7
100
AcDbCircle
 10
239.9569857252
 20
194.7953194967
 30
0.0
 40
27.5
100
AcDbArc
 50
300.0
 51
0.0
  0
ARC
  5
86
330
40
100
AcDbEntity
  8
1-1MH
  6
Continuous
 62
     7
100
AcDbCircle
 10
239.9569857252
 20
194.7953194967
 30
0.0
 40
27.49999999999996
100
AcDbArc
 50
240.0
 51
300.0
  0
CIRCLE
  5
87
330
40
100
AcDbEntity
  8
1-1MH
  6
Continuous
 62
     7
100
AcDbCircle
 10
216.9569857252
 20
194.7953194967
 30
0.0
 40
4.5
  0
CIRCLE
  5
88
330
40
100
AcDbEntity
  8
1-1MH
  6
Continuous
 62
     7
100
AcDbCircle
 10
228.4569857252
 20
214.7139037837
 30
0.0
 40
4.5
  0
CIRCLE
  5
89
330
40
100
AcDbEntity
  8
1-1MH
  6
Continuous
 62
     7
100
AcDbCircle
 10
251.4569857252
 20
214.7139037837
 30
0.0
 40
4.5
  0
CIRCLE
  5
8A
330
40
100
AcDbEntity
  8
1-1MH
  6
Continuous
 62
     7
100
AcDbCircle
 10
262.9569857252
 20
194.7953194967
 30
0.0
 40
4.5
  0
CIRCLE
  5
8B
330
40
100
AcDbEntity
  8
1-1MH
  6
Continuous
 62
     7
100
AcDbCircle
 10
251.4569857252
 20
174.8767352096
 30
0.0
 40
4.5
  0
CIRCLE
  5
8C
330
40
100
AcDbEntity
  8
1-1MH
  6
Continuous
 62
     7
100
AcDbCircle
 10
228.4569857252
 20
174.8767352096
 30
0.0
 40
4.5
  0
ARC
  5
8D
330
40
100
AcDbEntity
  8
1-1MH
  6
Continuous
 62
     7
100
AcDbCircle
 10
239.9569857252
 20
194.7953194967
 30
0.0
 40
27.49999999999995
100
AcDbArc
 50
180.0
 51
240.0
  0
ARC
  5
8E
330
40
100
AcDbEntity
  8
1-1MH
  6
Continuous
 62
     7
100
AcDbCircle
 10
239.9569857252
 20
194.7953194967
 30
0.0
 40
27.5
100
AcDbArc
 50
120.0
 51
180.0
  0
ARC
  5
8F
330
40
100
AcDbEntity
  8
1-1MH
  6
Continuous
 62
     7
100
AcDbCircle
 10
228.4569857252
 20
214.7139037837
 30
0.0
 40
4.229662000141606
100
AcDbArc
 50
340.6615900714
 51
19.3384099287
  0
CIRCLE
  5
90
330
40
100
AcDbEntity
  8
1-1MH
  6
Continuous
 62
     7
100
AcDbCircle
 10
228.701247063
 20
214.7139037837
 30
0.0
 40
1.45375
  0
ARC
  5
91
330
40
100
AcDbEntity
  8
1-1MH
  6
Continuous
 62
     7
100
AcDbCircle
 10
228.701247063
 20
214.7139037837
 30
0.0
 40
3.999999999999996
100
AcDbArc
 50
20.4971014546
 51
339.5028985455
  0
LINE
  5
92
330
40
100
AcDbEntity
  8
1-1MH
  6
Continuous
 62
     7
100
AcDbLine
 10
227.4290721073
 20
215.3969639679
 30
0.0
 11
228.656707057
 21
216.1571697056
 31
0.0
  0
LINE
  5
93
330
40
100
AcDbEntity
  8
1-1MH
  6
Continuous
 62
     7
100
AcDbLine
 10
228.656707057
 20
216.1571697056
 30
0.0
 11
229.9288820127
 21
215.4741095214
 31
0.0
  0
LINE
  5
94
330
40
100
AcDbEntity
  8
1-1MH
  6
Continuous
 62
     7
100
AcDbLine
 10
229.9288820127
 20
215.4741095214
 30
0.0
 11
229.9734220188
 21
214.0308435995
 31
0.0
  0
LINE
  5
95
330
40
100
AcDbEntity
  8
1-1MH
  6
Continuous
 62
     7
100
AcDbLine
 10
229.9734220188
 20
214.0308435995
 30
0.0
 11
228.7457870691
 21
213.2706378618
 31
0.0
  0
LINE
  5
96
330
40
100
AcDbEntity
  8
1-1MH
  6
Continuous
 62
     7
100
AcDbLine
 10
228.7457870691
 20
213.2706378618
 30
0.0
 11
227.4736121134
 21
213.953698046
 31
0.0
  0
LINE
  5
97
330
40
100
AcDbEntity
  8
1-1MH
  6
Continuous
 62
     7
100
AcDbLine
 10
227.4736121134
 20
213.953698046
 30
0.0
 11
227.4290721073
 21
215.3969639679
 31
0.0
  0
ARC
  5
98
330
40
100
AcDbEntity
  8
1-1MH
  6
Continuous
 62
     7
100
AcDbCircle
 10
239.9569857252
 20
194.7953194967
 30
0.0
 40
8.5
100
AcDbArc
 50
17.1046351766
 51
342.8953648234
  0
CIRCLE
  5
99
330
40
100
AcDbEntity
  8
1-1MH
  6
Continuous
 62
     7
100
AcDbCircle
 10
239.9569857252
 20
194.7953194967
 30
0.0
 40
7.0
  0
CIRCLE
  5
9A
330
40
100
AcDbEntity
  8
1-1MH
  6
Continuous
 62
     7
100
AcDbCircle
 10
239.9569857252
 20
194.7953194967
 30
0.0
 40
6.2
  0
CIRCLE
  5
9B
330
40
100
AcDbEntity
  8
1-1MH
  6
Continuous
 62
     7
100
AcDbCircle
 10
239.9569857252
 20
194.7953194967
 30
0.0
 40
2.1
  0
CIRCLE
  5
9C
330
40
100
AcDbEntity
  8
1-1MH
  6
Continuous
 62
     7
100
AcDbCircle
 10
239.9569857252
 20
194.7953194967
 30
0.0
 40
2.96602540378443
  0
LINE
  5
9D
330
40
100
AcDbEntity
  8
1-1MH
  6
Continuous
 62
     7
100
AcDbLine
 10
246.4953341405
 20
192.2953194967
 30
0.0
 11
249.0891163941
 21
192.2953194967
 31
0.0
  0
LINE
  5
9E
330
40
100
AcDbEntity
  8
1-1MH
  6
Continuous
 62
     7
100
AcDbLine
 10
246.9569854395
 20
194.7973194967
 30
0.0
 11
249.0891163941
 21
194.7973194967
 31
0.0
  0
LINE
  5
9F
330
40
100
AcDbEntity
  8
1-1MH
  6
Continuous
 62
     7
100
AcDbLine
 10
246.4953341405
 20
197.2953194967
 30
0.0
 11
249.0891163941
 21
197.2953194967
 31
0.0
  0
LINE
  5
A0
330
40
100
AcDbEntity
  8
1-1MH
  6
Continuous
 62
     7
100
AcDbLine
 10
249.0891163941
 20
194.7953194967
 30
0.0
 11
249.0891163941
 21
194.7973194967
 31
0.0
  0
LINE
  5
A1
330
40
100
AcDbEntity
  8
1-1MH
  6
Continuous
 62
     7
100
AcDbLine
 10
249.0891163941
 20
194.1471713485
 30
0.0
 11
246.9269142742
 21
194.1471713485
 31
0.0
  0
LINE
  5
A2
330
40
100
AcDbEntity
  8
1-1MH
  6
Continuous
 62
     7
100
AcDbLine
 10
249.0891163941
 20
192.2953194967
 30
0.0
 11
249.0891163941
 21
194.1471713485
 31
0.0
  0
LINE
  5
A3
330
40
100
AcDbEntity
  8
1-1MH
  6
Continuous
 62
     7
100
AcDbLine
 10
249.0891163941
 20
194.7953194967
 30
0.0
 11
246.9569857252
 21
194.7953194967
 31
0.0
  0
LINE
  5
A4
330
40
100
AcDbEntity
  8
1-1MH
  6
Continuous
 62
     7
100
AcDbLine
 10
249.0891163941
 20
194.7973194967
 30
0.0
 11
249.0891163941
 21
195.4434676448
 31
0.0
  0
LINE
  5
A5
330
40
100
AcDbEntity
  8
1-1MH
  6
Continuous
 62
     7
100
AcDbLine
 10
249.0891163941
 20
195.4434676448
 30
0.0
 11
246.9269142742
 21
195.4434676448
 31
0.0
  0
LINE
  5
A6
330
40
100
AcDbEntity
  8
1-1MH
  6
Continuous
 62
     7
100
AcDbLine
 10
249.0891163941
 20
195.4434676448
 30
0.0
 11
249.0891163941
 21
197.2953194967
 31
0.0
  0
LINE
  5
A7
330
40
100
AcDbEntity
  8
1-1MH
  6
Continuous
 62
     7
100
AcDbLine
 10
249.0891163941
 20
194.1471713485
 30
0.0
 11
249.0891163941
 21
194.7953194967
 31
0.0
  0
LINE
  5
A8
330
40
100
AcDbEntity
  8
1-1MH
  6
Continuous
 62
     7
100
AcDbLine
 10
240.201247063
 20
265.2953194967
 30
0.0
 11
231.701247063
 21
265.2953194967
 31
0.0
  0
LINE
  5
A9
330
40
100
AcDbEntity
  8
1-1MH
  6
Continuous
 62
     7
100
AcDbLine
 10
248.701247063
 20
264.7953194967
 30
0.0
 11
248.701247063
 21
265.2953194967
 31
0.0
  0
LINE
  5
AA
330
40
100
AcDbEntity
  8
1-1MH
  6
Continuous
 62
     7
100
AcDbLine
 10
248.701247063
 20
265.2953194967
 30
0.0
 11
240.201247063
 21
265.2953194967
 31
0.0
  0
LINE
  5
AB
330
40
100
AcDbEntity
  8
1-1MH
  6
Continuous
 62
     7
100
AcDbLine
 10
240.201247063
 20
265.2953194967
 30
0.0
 11
240.201247063
 21
264.7953194967
 31
0.0
  0
LINE
  5
AC
330
40
100
AcDbEntity
  8
1-1MH
  6
Continuous
 62
     7
100
AcDbLine
 10
231.701247063
 20
264.7953194967
 30
0.0
 11
231.701247063
 21
265.2953194967
 31
0.0
  0
LINE
  5
AD
330
40
100
AcDbEntity
  8
1-1MH
  6
Continuous
 62
     7
100
AcDbLine
 10
232.201247063
 20
265.7953194967
 30
0.0
 11
240.201247063
 21
265.7953194967
 31
0.0
  0
LINE
  5
AE
330
40
100
AcDbEntity
  8
1-1MH
  6
Continuous
 62
     7
100
AcDbLine
 10
240.201247063
 20
265.7953194967
 30
0.0
 11
248.201247063
 21
265.7953194967
 31
0.0
  0
LINE
  5
AF
330
40
100
AcDbEntity
  8
1-1MH
  6
Continuous
 62
     7
100
AcDbLine
 10
231.682758063
 20
267.7953194967
 30
0.0
 11
248.682758063
 21
267.7953194967
 31
0.0
  0
LINE
  5
B0
330
40
100
AcDbEntity
  8
1-1MH
  6
Continuous
 62
     7
100
AcDbLine
 10
233.182758063
 20
277.7953194967
 30
0.0
 11
247.182758063
 21
277.7953194967
 31
0.0
  0
LINE
  5
B1
330
40
100
AcDbEntity
  8
1-1MH
  6
Continuous
 62
     7
100
AcDbLine
 10
231.682758063
 20
276.2953194967
 30
0.0
 11
248.682758063
 21
276.2953194967
 31
0.0
  0
LINE
  5
B2
330
40
100
AcDbEntity
  8
1-1MH
  6
Continuous
 62
     7
100
AcDbLine
 10
240.201247063
 20
265.7953194967
 30
0.0
 11
240.201247063
 21
265.2953194967
 31
0.0
  0
LINE
  5
B3
330
40
100
AcDbEntity
  8
1-1MH
  6
Continuous
 62
     7
100
AcDbLine
 10
248.201247063
 20
265.7953194967
 30
0.0
 11
248.701247063
 21
265.2953194967
 31
0.0
  0
LINE
  5
B4
330
40
100
AcDbEntity
  8
1-1MH
  6
Continuous
 62
     7
100
AcDbLine
 10
231.701247063
 20
265.2953194967
 30
0.0
 11
232.201247063
 21
265.7953194967
 31
0.0
  0
LINE
  5
B5
330
40
100
AcDbEntity
  8
1-1MH
  6
Continuous
 62
     7
100
AcDbLine
 10
285.201247063
 20
215.7953194967
 30
0.0
 11
285.701247063
 21
215.7953194967
 31
0.0
  0
LINE
  5
B6
330
40
100
AcDbEntity
  8
1-1MH
  6
Continuous
 62
     7
100
AcDbLine
 10
285.201247063
 20
207.2953194967
 30
0.0
 11
285.701247063
 21
207.2953194967
 31
0.0
  0
LINE
  5
B7
330
40
100
AcDbEntity
  8
1-1MH
  6
Continuous
 62
     7
100
AcDbLine
 10
285.701247063
 20
207.2953194967
 30
0.0
 11
285.701247063
 21
215.7953194967
 31
0.0
  0
LINE
  5
B8
330
40
100
AcDbEntity
  8
1-1MH
  6
Continuous
 62
     7
100
AcDbLine
 10
285.201247063
 20
198.7953194967
 30
0.0
 11
285.701247063
 21
198.7953194967
 31
0.0
  0
LINE
  5
B9
330
40
100
AcDbEntity
  8
1-1MH
  6
Continuous
 62
     7
100
AcDbLine
 10
285.701247063
 20
198.7953194967
 30
0.0
 11
285.701247063
 21
207.2953194967
 31
0.0
  0
LINE
  5
BA
330
40
100
AcDbEntity
  8
1-1MH
  6
Continuous
 62
     7
100
AcDbLine
 10
286.201247063
 20
215.2953194967
 30
0.0
 11
286.201247063
 21
207.2953194967
 31
0.0
  0
LINE
  5
BB
330
40
100
AcDbEntity
  8
1-1MH
  6
Continuous
 62
     7
100
AcDbLine
 10
286.201247063
 20
207.2953194967
 30
0.0
 11
286.201247063
 21
199.2953194967
 31
0.0
  0
LINE
  5
BC
330
40
100
AcDbEntity
  8
1-1MH
  6
Continuous
 62
     7
100
AcDbLine
 10
287.201247063
 20
213.7953194967
 30
0.0
 11
287.201247063
 21
200.7953194967
 31
0.0
  0
LINE
  5
BD
330
40
100
AcDbEntity
  8
1-1MH
  6
Continuous
 62
     7
100
AcDbLine
 10
286.201247063
 20
199.2953194967
 30
0.0
 11
285.701247063
 21
198.7953194967
 31
0.0
  0
LINE
  5
BE
330
40
100
AcDbEntity
  8
1-1MH
  6
Continuous
 62
     7
100
AcDbLine
 10
285.701247063
 20
207.2953194967
 30
0.0
 11
286.201247063
 21
207.2953194967
 31
0.0
  0
LINE
  5
BF
330
40
100
AcDbEntity
  8
1-1MH
  6
Continuous
 62
     7
100
AcDbLine
 10
285.701247063
 20
215.7953194967
 30
0.0
 11
286.201247063
 21
215.2953194967
 31
0.0
  0
LINE
  5
C0
330
40
100
AcDbEntity
  8
1-1MH
  6
Continuous
 62
     7
100
AcDbLine
 10
283.202465409
 20
153.2505496499
 30
0.0
 11
283.202465409
 21
261.3400893435
 31
0.0
  0
LINE
  5
C1
330
40
100
AcDbEntity
  8
1-1MH
  6
Continuous
 62
     7
100
AcDbLine
 10
283.202465409
 20
261.3400893435
 30
0.0
 11
270.201247063
 21
261.7941018924
 31
0.0
  0
LINE
  5
C2
330
40
100
AcDbEntity
  8
1-1MH
  6
Continuous
 62
     7
100
AcDbLine
 10
270.201247063
 20
150.7953194967
 30
0.0
 11
283.202465409
 21
151.2493320456
 31
0.0
  0
LINE
  5
C3
330
40
100
AcDbEntity
  8
1-1MH
  6
Continuous
 62
     7
100
AcDbLine
 10
284.2024646673
 20
152.2848615913
 30
0.0
 11
283.202465409
 21
153.2505496499
 31
0.0
  0
LINE
  5
C4
330
40
100
AcDbEntity
  8
1-1MH
  6
Continuous
 62
     7
100
AcDbLine
 10
283.202465409
 20
153.2505496499
 30
0.0
 11
270.201247063
 21
152.7965371009
 31
0.0
  0
LINE
  5
C5
330
40
100
AcDbEntity
  8
1-1MH
  6
Continuous
 62
     7
100
AcDbLine
 10
284.2024646673
 20
262.305777402
 30
0.0
 11
283.202465409
 21
263.3413069477
 31
0.0
  0
LINE
  5
C6
330
40
100
AcDbEntity
  8
1-1MH
  6
Continuous
 62
     7
100
AcDbLine
 10
270.201247063
 20
263.7953194967
 30
0.0
 11
283.202465409
 21
263.3413069477
 31
0.0
  0
LINE
  5
C7
330
40
100
AcDbEntity
  8
1-1MH
  6
Continuous
 62
     7
100
AcDbLine
 10
284.2024646673
 20
152.2848615913
 30
0.0
 11
285.201247063
 21
153.319131039
 31
0.0
  0
LINE
  5
C8
330
40
100
AcDbEntity
  8
1-1MH
  6
Continuous
 62
     7
100
AcDbLine
 10
285.201247063
 20
153.319131039
 30
0.0
 11
285.201247063
 21
261.2715079543
 31
0.0
  0
LINE
  5
C9
330
40
100
AcDbEntity
  8
1-1MH
  6
Continuous
 62
     7
100
AcDbLine
 10
285.201247063
 20
261.2715079543
 30
0.0
 11
284.2024646673
 21
262.305777402
 31
0.0
  0
LINE
  5
CA
330
40
100
AcDbEntity
  8
1-1MH
  6
Continuous
 62
     7
100
AcDbLine
 10
284.2024646673
 20
262.305777402
 30
0.0
 11
283.202465409
 21
261.3400893435
 31
0.0
  0
LINE
  5
CB
330
40
100
AcDbEntity
  8
1-1MH
  6
Continuous
 62
     7
100
AcDbLine
 10
284.2024646673
 20
152.2848615913
 30
0.0
 11
283.202465409
 21
151.2493320456
 31
0.0
  0
ARC
  5
CC
330
40
100
AcDbEntity
  8
1-1MH
  6
Continuous
 62
     7
100
AcDbCircle
 10
216.9569857252
 20
194.7953194967
 30
0.0
 40
4.229662000141617
100
AcDbArc
 50
40.6615900714
 51
79.3384099287
  0
ARC
  5
CD
330
40
100
AcDbEntity
  8
1-1MH
  6
Continuous
 62
     7
100
AcDbCircle
 10
217.0791163941
 20
195.0068560204
 30
0.0
 40
4.000000000000001
100
AcDbArc
 50
80.4971014546
 51
39.5028985455
  0
CIRCLE
  5
CE
330
40
100
AcDbEntity
  8
1-1MH
  6
Continuous
 62
     7
100
AcDbCircle
 10
217.0791163941
 20
195.0068560204
 30
0.0
 40
1.45375
  0
LINE
  5
CF
330
40
100
AcDbEntity
  8
1-1MH
  6
Continuous
 62
     7
100
AcDbLine
 10
215.8069414383
 20
195.6899162046
 30
0.0
 11
217.034576388
 21
196.4501219423
 31
0.0
  0
LINE
  5
D0
330
40
100
AcDbEntity
  8
1-1MH
  6
Continuous
 62
     7
100
AcDbLine
 10
218.3067513438
 20
195.7670617581
 30
0.0
 11
218.3512913499
 21
194.3237958362
 31
0.0
  0
LINE
  5
D1
330
40
100
AcDbEntity
  8
1-1MH
  6
Continuous
 62
     7
100
AcDbLine
 10
218.3512913499
 20
194.3237958362
 30
0.0
 11
217.1236564002
 21
193.5635900985
 31
0.0
  0
LINE
  5
D2
330
40
100
AcDbEntity
  8
1-1MH
  6
Continuous
 62
     7
100
AcDbLine
 10
217.1236564002
 20
193.5635900985
 30
0.0
 11
215.8514814444
 21
194.2466502827
 31
0.0
  0
LINE
  5
D3
330
40
100
AcDbEntity
  8
1-1MH
  6
Continuous
 62
     7
100
AcDbLine
 10
215.8514814444
 20
194.2466502827
 30
0.0
 11
215.8069414383
 21
195.6899162046
 31
0.0
  0
LINE
  5
D4
330
40
100
AcDbEntity
  8
1-1MH
  6
Continuous
 62
     7
100
AcDbLine
 10
217.034576388
 20
196.4501219423
 30
0.0
 11
218.3067513438
 21
195.7670617581
 31
0.0
  0
ARC
  5
D5
330
40
100
AcDbEntity
  8
1-1MH
  6
Continuous
 62
     7
100
AcDbCircle
 10
228.4569857252
 20
174.8767352096
 30
0.0
 40
4.229662000141607
100
AcDbArc
 50
100.6615900714
 51
139.3384099287
  0
ARC
  5
D6
330
40
100
AcDbEntity
  8
1-1MH
  6
Continuous
 62
     7
100
AcDbCircle
 10
228.3348550563
 20
175.0882717334
 30
0.0
 40
3.999999999999999
100
AcDbArc
 50
140.4971014546
 51
99.5028985456
  0
CIRCLE
  5
D7
330
40
100
AcDbEntity
  8
1-1MH
  6
Continuous
 62
     7
100
AcDbCircle
 10
228.3348550563
 20
175.0882717334
 30
0.0
 40
1.45375
  0
LINE
  5
D8
330
40
100
AcDbEntity
  8
1-1MH
  6
Continuous
 62
     7
100
AcDbLine
 10
227.1072201066
 20
174.3280659957
 30
0.0
 11
227.0626801005
 21
175.7713319175
 31
0.0
  0
LINE
  5
D9
330
40
100
AcDbEntity
  8
1-1MH
  6
Continuous
 62
     7
100
AcDbLine
 10
228.2903150502
 20
176.5315376552
 30
0.0
 11
229.562490006
 21
175.848477471
 31
0.0
  0
LINE
  5
DA
330
40
100
AcDbEntity
  8
1-1MH
  6
Continuous
 62
     7
100
AcDbLine
 10
229.562490006
 20
175.848477471
 30
0.0
 11
229.6070300121
 21
174.4052115492
 31
0.0
  0
LINE
  5
DB
330
40
100
AcDbEntity
  8
1-1MH
  6
Continuous
 62
     7
100
AcDbLine
 10
229.6070300121
 20
174.4052115492
 30
0.0
 11
228.3793950624
 21
173.6450058115
 31
0.0
  0
LINE
  5
DC
330
40
100
AcDbEntity
  8
1-1MH
  6
Continuous
 62
     7
100
AcDbLine
 10
228.3793950624
 20
173.6450058115
 30
0.0
 11
227.1072201066
 21
174.3280659957
 31
0.0
  0
LINE
  5
DD
330
40
100
AcDbEntity
  8
1-1MH
  6
Continuous
 62
     7
100
AcDbLine
 10
227.0626801005
 20
175.7713319175
 30
0.0
 11
228.2903150502
 21
176.5315376552
 31
0.0
  0
ARC
  5
DE
330
40
100
AcDbEntity
  8
1-1MH
  6
Continuous
 62
     7
100
AcDbCircle
 10
251.4569857252
 20
174.8767352096
 30
0.0
 40
4.229662000141608
100
AcDbArc
 50
160.6615900714
 51
199.3384099288
  0
ARC
  5
DF
330
40
100
AcDbEntity
  8
1-1MH
  6
Continuous
 62
     7
100
AcDbCircle
 10
251.2127243873
 20
174.8767352096
 30
0.0
 40
3.999999999999999
100
AcDbArc
 50
200.4971014546
 51
159.5028985455
  0
CIRCLE
  5
E0
330
40
100
AcDbEntity
  8
1-1MH
  6
Continuous
 62
     7
100
AcDbCircle
 10
251.2127243873
 20
174.8767352096
 30
0.0
 40
1.45375
  0
LINE
  5
E1
330
40
100
AcDbEntity
  8
1-1MH
  6
Continuous
 62
     7
100
AcDbLine
 10
251.2572643934
 20
173.4334692878
 30
0.0
 11
249.9850894377
 21
174.1165294719
 31
0.0
  0
LINE
  5
E2
330
40
100
AcDbEntity
  8
1-1MH
  6
Continuous
 62
     7
100
AcDbLine
 10
249.9405494316
 20
175.5597953938
 30
0.0
 11
251.1681843813
 21
176.3200011315
 31
0.0
  0
LINE
  5
E3
330
40
100
AcDbEntity
  8
1-1MH
  6
Continuous
 62
     7
100
AcDbLine
 10
251.1681843813
 20
176.3200011315
 30
0.0
 11
252.440359337
 21
175.6369409473
 31
0.0
  0
LINE
  5
E4
330
40
100
AcDbEntity
  8
1-1MH
  6
Continuous
 62
     7
100
AcDbLine
 10
252.440359337
 20
175.6369409473
 30
0.0
 11
252.4848993431
 21
174.1936750255
 31
0.0
  0
LINE
  5
E5
330
40
100
AcDbEntity
  8
1-1MH
  6
Continuous
 62
     7
100
AcDbLine
 10
252.4848993431
 20
174.1936750255
 30
0.0
 11
251.2572643934
 21
173.4334692878
 31
0.0
  0
LINE
  5
E6
330
40
100
AcDbEntity
  8
1-1MH
  6
Continuous
 62
     7
100
AcDbLine
 10
249.9850894377
 20
174.1165294719
 30
0.0
 11
249.9405494316
 21
175.5597953938
 31
0.0
  0
ARC
  5
E7
330
40
100
AcDbEntity
  8
1-1MH
  6
Continuous
 62
     7
100
AcDbCircle
 10
262.9569857252
 20
194.7953194967
 30
0.0
 40
4.229662000141614
100
AcDbArc
 50
220.6615900714
 51
259.3384099287
  0
ARC
  5
E8
330
40
100
AcDbEntity
  8
1-1MH
  6
Continuous
 62
     7
100
AcDbCircle
 10
262.8348550563
 20
194.5837829729
 30
0.0
 40
3.999999999999998
100
AcDbArc
 50
260.4971014546
 51
219.5028985455
  0
CIRCLE
  5
E9
330
40
100
AcDbEntity
  8
1-1MH
  6
Continuous
 62
     7
100
AcDbCircle
 10
262.8348550563
 20
194.5837829729
 30
0.0
 40
1.45375
  0
LINE
  5
EA
330
40
100
AcDbEntity
  8
1-1MH
  6
Continuous
 62
     7
100
AcDbLine
 10
264.1070300121
 20
193.9007227888
 30
0.0
 11
262.8793950624
 21
193.1405170511
 31
0.0
  0
LINE
  5
EB
330
40
100
AcDbEntity
  8
1-1MH
  6
Continuous
 62
     7
100
AcDbLine
 10
261.6072201066
 20
193.8235772352
 30
0.0
 11
261.5626801005
 21
195.2668431571
 31
0.0
  0
LINE
  5
EC
330
40
100
AcDbEntity
  8
1-1MH
  6
Continuous
 62
     7
100
AcDbLine
 10
261.5626801005
 20
195.2668431571
 30
0.0
 11
262.7903150502
 21
196.0270488948
 31
0.0
  0
LINE
  5
ED
330
40
100
AcDbEntity
  8
1-1MH
  6
Continuous
 62
     7
100
AcDbLine
 10
262.7903150502
 20
196.0270488948
 30
0.0
 11
264.062490006
 21
195.3439887106
 31
0.0
  0
LINE
  5
EE
330
40
100
AcDbEntity
  8
1-1MH
  6
Continuous
 62
     7
100
AcDbLine
 10
264.062490006
 20
195.3439887106
 30
0.0
 11
264.1070300121
 21
193.9007227888
 31
0.0
  0
LINE
  5
EF
330
40
100
AcDbEntity
  8
1-1MH
  6
Continuous
 62
     7
100
AcDbLine
 10
262.8793950624
 20
193.1405170511
 30
0.0
 11
261.6072201066
 21
193.8235772352
 31
0.0
  0
ARC
  5
F0
330
40
100
AcDbEntity
  8
1-1MH
  6
Continuous
 62
     7
100
AcDbCircle
 10
251.4569857252
 20
214.7139037837
 30
0.0
 40
4.229662000141606
100
AcDbArc
 50
280.6615900714
 51
319.3384099287
  0
ARC
  5
F1
330
40
100
AcDbEntity
  8
1-1MH
  6
Continuous
 62
     7
100
AcDbCircle
 10
251.5791163941
 20
214.50236726
 30
0.0
 40
4.000000000000002
100
AcDbArc
 50
320.4971014546
 51
279.5028985455
  0
CIRCLE
  5
F2
330
40
100
AcDbEntity
  8
1-1MH
  6
Continuous
 62
     7
100
AcDbCircle
 10
251.5791163941
 20
214.50236726
 30
0.0
 40
1.45375
  0
LINE
  5
F3
330
40
100
AcDbEntity
  8
1-1MH
  6
Continuous
 62
     7
100
AcDbLine
 10
252.8067513438
 20
215.2625729977
 30
0.0
 11
252.8512913499
 21
213.8193070758
 31
0.0
  0
LINE
  5
F4
330
40
100
AcDbEntity
  8
1-1MH
  6
Continuous
 62
     7
100
AcDbLine
 10
251.6236564002
 20
213.0591013381
 30
0.0
 11
250.3514814444
 21
213.7421615223
 31
0.0
  0
LINE
  5
F5
330
40
100
AcDbEntity
  8
1-1MH
  6
Continuous
 62
     7
100
AcDbLine
 10
250.3514814444
 20
213.7421615223
 30
0.0
 11
250.3069414383
 21
215.1854274441
 31
0.0
  0
LINE
  5
F6
330
40
100
AcDbEntity
  8
1-1MH
  6
Continuous
 62
     7
100
AcDbLine
 10
250.3069414383
 20
215.1854274441
 30
0.0
 11
251.534576388
 21
215.9456331818
 31
0.0
  0
LINE
  5
F7
330
40
100
AcDbEntity
  8
1-1MH
  6
Continuous
 62
     7
100
AcDbLine
 10
251.534576388
 20
215.9456331818
 30
0.0
 11
252.8067513438
 21
215.2625729977
 31
0.0
  0
LINE
  5
F8
330
40
100
AcDbEntity
  8
1-1MH
  6
Continuous
 62
     7
100
AcDbLine
 10
252.8512913499
 20
213.8193070758
 30
0.0
 11
251.6236564002
 21
213.0591013381
 31
0.0
  0
LINE
  5
F9
330
40
100
AcDbEntity
  8
1-1MH
  6
Continuous
 62
     7
100
AcDbLine
 10
234.701247063
 20
267.7953194967
 30
0.0
 11
234.701247063
 21
265.7953194967
 31
0.0
  0
LINE
  5
FA
330
40
100
AcDbEntity
  8
1-1MH
  6
Continuous
 62
     7
100
AcDbLine
 10
245.701247063
 20
265.7953194967
 30
0.0
 11
245.701247063
 21
267.7953194967
 31
0.0
  0
LINE
  5
FB
330
40
100
AcDbEntity
  8
1-1MH
  6
Continuous
 62
     7
100
AcDbLine
 10
231.682758063
 20
276.2953194967
 30
0.0
 11
231.682758063
 21
267.7953194967
 31
0.0
  0
LINE
  5
FC
330
40
100
AcDbEntity
  8
1-1MH
  6
Continuous
 62
     7
100
AcDbLine
 10
248.682758063
 20
267.7953194967
 30
0.0
 11
248.682758063
 21
276.2953194967
 31
0.0
  0
ARC
  5
FD
330
40
100
AcDbEntity
  8
1-1MH
  6
Continuous
 62
     7
100
AcDbCircle
 10
233.182758063
 20
276.2953194967
 30
0.0
 40
1.500000000000001
100
AcDbArc
 50
90.0
 51
180.0
  0
ARC
  5
FE
330
40
100
AcDbEntity
  8
1-1MH
  6
Continuous
 62
     7
100
AcDbCircle
 10
247.182758063
 20
276.2953194967
 30
0.0
 40
1.500000000000001
100
AcDbArc
 50
0.0
 51
90.0
  0
ARC
  5
FF
330
40
100
AcDbEntity
  8
1-1MH
  6
Continuous
 62
     7
100
AcDbCircle
 10
286.201247063
 20
213.7953194967
 30
0.0
 40
1.000000000000001
100
AcDbArc
 50
0.0
 51
90.0
  0
ARC
  5
100
330
40
100
AcDbEntity
  8
1-1MH
  6
Continuous
 62
     7
100
AcDbCircle
 10
286.201247063
 20
200.7953194967
 30
0.0
 40
1.000000000000001
100
AcDbArc
 50
270.0
 51
0.0
  0
ENDBLK
  5
102
330
40
100
AcDbEntity
  8
0
100
AcDbBlockEnd
  0
BLOCK
  5
181
330
103
100
AcDbEntity
  8
0
100
AcDbBlockBegin
  2
SE1
 70
     0
 10
0.0
 20
0.0
 30
0.0
  3
SE1
  1

  0
LINE
  5
105
330
103
100
AcDbEntity
  8
1-1MH
  6
Continuous
 62
     7
100
AcDbLine
 10
202.201247063
 20
290.0488653093
 30
0.0
 11
270.201247063
 21
290.0488653093
 31
0.0
  0
CIRCLE
  5
106
330
103
100
AcDbEntity
  8
1-1MH
  6
Continuous
 62
     7
100
AcDbCircle
 10
254.201247063
 20
366.5488653093
 30
0.0
 40
2.1
  0
CIRCLE
  5
107
330
103
100
AcDbEntity
  8
1-1MH
  6
Continuous
 62
     7
100
AcDbCircle
 10
254.201247063
 20
366.5488653093
 30
0.0
 40
2.96602540378444
  0
CIRCLE
  5
108
330
103
100
AcDbEntity
  8
1-1MH
  6
Continuous
 62
     7
100
AcDbCircle
 10
216.201247063
 20
366.5488653093
 30
0.0
 40
2.1
  0
CIRCLE
  5
109
330
103
100
AcDbEntity
  8
1-1MH
  6
Continuous
 62
     7
100
AcDbCircle
 10
216.201247063
 20
366.5488653093
 30
0.0
 40
2.96602540378444
  0
CIRCLE
  5
10A
330
103
100
AcDbEntity
  8
1-1MH
  6
Continuous
 62
     7
100
AcDbCircle
 10
216.201247063
 20
298.5488653093
 30
0.0
 40
2.1
  0
CIRCLE
  5
10B
330
103
100
AcDbEntity
  8
1-1MH
  6
Continuous
 62
     7
100
AcDbCircle
 10
216.201247063
 20
298.5488653093
 30
0.0
 40
2.96602540378444
  0
CIRCLE
  5
10C
330
103
100
AcDbEntity
  8
1-1MH
  6
Continuous
 62
     7
100
AcDbCircle
 10
254.201247063
 20
298.5488653093
 30
0.0
 40
2.1
  0
CIRCLE
  5
10D
330
103
100
AcDbEntity
  8
1-1MH
  6
Continuous
 62
     7
100
AcDbCircle
 10
254.201247063
 20
298.5488653093
 30
0.0
 40
2.96602540378444
  0
LINE
  5
10E
330
103
100
AcDbEntity
  8
1-1MH
  6
Continuous
 62
     7
100
AcDbLine
 10
270.201247063
 20
292.0488653093
 30
0.0
 11
202.201247063
 21
292.0488653093
 31
0.0
  0
LINE
  5
10F
330
103
100
AcDbEntity
  8
1-1MH
  6
Continuous
 62
     7
100
AcDbLine
 10
201.201247063
 20
291.0488653093
 30
0.0
 11
202.201247063
 21
292.0488653093
 31
0.0
  0
LINE
  5
110
330
103
100
AcDbEntity
  8
1-1MH
  6
Continuous
 62
     7
100
AcDbLine
 10
202.201247063
 20
290.0488653093
 30
0.0
 11
201.201247063
 21
291.0488653093
 31
0.0
  0
LINE
  5
111
330
103
100
AcDbEntity
  8
1-1MH
  6
Continuous
 62
     7
100
AcDbLine
 10
270.201247063
 20
292.0488653093
 30
0.0
 11
270.201247063
 21
290.0488653093
 31
0.0
  0
LINE
  5
112
330
103
100
AcDbEntity
  8
1-1MH
  6
Continuous
 62
     7
100
AcDbLine
 10
270.201247063
 20
373.0488653093
 30
0.0
 11
202.201247063
 21
373.0488653093
 31
0.0
  0
LINE
  5
113
330
103
100
AcDbEntity
  8
1-1MH
  6
Continuous
 62
     7
100
AcDbLine
 10
270.201247063
 20
373.0488653093
 30
0.0
 11
270.201247063
 21
375.0488653093
 31
0.0
  0
LINE
  5
114
330
103
100
AcDbEntity
  8
1-1MH
  6
Continuous
 62
     7
100
AcDbLine
 10
202.201247063
 20
375.0488653093
 30
0.0
 11
270.201247063
 21
375.0488653093
 31
0.0
  0
LINE
  5
115
330
103
100
AcDbEntity
  8
1-1MH
  6
Continuous
 62
     7
100
AcDbLine
 10
201.201247063
 20
374.0488653093
 30
0.0
 11
202.201247063
 21
375.0488653093
 31
0.0
  0
LINE
  5
116
330
103
100
AcDbEntity
  8
1-1MH
  6
Continuous
 62
     7
100
AcDbLine
 10
202.201247063
 20
373.0488653093
 30
0.0
 11
201.201247063
 21
374.0488653093
 31
0.0
  0
LINE
  5
117
330
103
100
AcDbEntity
  8
1-1MH
  6
Continuous
 62
     7
100
AcDbLine
 10
201.201247063
 20
311.3488653093
 30
0.0
 11
201.201247063
 21
353.7488653093
 31
0.0
  0
LINE
  5
118
330
103
100
AcDbEntity
  8
1-1MH
  6
Continuous
 62
     7
100
AcDbLine
 10
201.201247063
 20
311.3488653093
 30
0.0
 11
270.201247063
 21
311.3488653093
 31
0.0
  0
LINE
  5
119
330
103
100
AcDbEntity
  8
1-1MH
  6
Continuous
 62
     7
100
AcDbLine
 10
270.201247063
 20
311.3488653093
 30
0.0
 11
270.201247063
 21
353.7488653093
 31
0.0
  0
LINE
  5
11A
330
103
100
AcDbEntity
  8
1-1MH
  6
Continuous
 62
     7
100
AcDbLine
 10
201.201247063
 20
353.7488653093
 30
0.0
 11
270.201247063
 21
353.7488653093
 31
0.0
  0
CIRCLE
  5
11B
330
103
100
AcDbEntity
  8
1-1MH
  6
Continuous
 62
     7
100
AcDbCircle
 10
218.201247063
 20
332.5488653093
 30
0.0
 40
11.0
  0
LINE
  5
11C
330
103
100
AcDbEntity
  8
1-1MH
  6
Continuous
 62
     7
100
AcDbLine
 10
202.201247063
 20
310.3488653093
 30
0.0
 11
270.201247063
 21
310.3488653093
 31
0.0
  0
LINE
  5
11D
330
103
100
AcDbEntity
  8
1-1MH
  6
Continuous
 62
     7
100
AcDbLine
 10
202.201247063
 20
310.3488653093
 30
0.0
 11
202.201247063
 21
292.0488653093
 31
0.0
  0
LINE
  5
11E
330
103
100
AcDbEntity
  8
1-1MH
  6
Continuous
 62
     7
100
AcDbLine
 10
270.201247063
 20
310.3488653093
 30
0.0
 11
270.201247063
 21
292.0488653093
 31
0.0
  0
LINE
  5
11F
330
103
100
AcDbEntity
  8
1-1MH
  6
Continuous
 62
     7
100
AcDbLine
 10
270.201247063
 20
310.3488653093
 30
0.0
 11
270.201247063
 21
311.3488653093
 31
0.0
  0
LINE
  5
120
330
103
100
AcDbEntity
  8
1-1MH
  6
Continuous
 62
     7
100
AcDbLine
 10
202.201247063
 20
310.3488653093
 30
0.0
 11
201.201247063
 21
311.3488653093
 31
0.0
  0
LINE
  5
121
330
103
100
AcDbEntity
  8
1-1MH
  6
Continuous
 62
     7
100
AcDbLine
 10
202.201247063
 20
373.0488653093
 30
0.0
 11
202.201247063
 21
354.7488653093
 31
0.0
  0
LINE
  5
122
330
103
100
AcDbEntity
  8
1-1MH
  6
Continuous
 62
     7
100
AcDbLine
 10
270.201247063
 20
354.7488653093
 30
0.0
 11
202.201247063
 21
354.7488653093
 31
0.0
  0
LINE
  5
123
330
103
100
AcDbEntity
  8
1-1MH
  6
Continuous
 62
     7
100
AcDbLine
 10
270.201247063
 20
373.0488653093
 30
0.0
 11
270.201247063
 21
354.7488653093
 31
0.0
  0
LINE
  5
124
330
103
100
AcDbEntity
  8
1-1MH
  6
Continuous
 62
     7
100
AcDbLine
 10
201.201247063
 20
353.7488653093
 30
0.0
 11
202.201247063
 21
354.7488653093
 31
0.0
  0
LINE
  5
125
330
103
100
AcDbEntity
  8
1-1MH
  6
Continuous
 62
     7
100
AcDbLine
 10
270.201247063
 20
353.7488653093
 30
0.0
 11
270.201247063
 21
354.7488653093
 31
0.0
  0
LINE
  5
126
330
103
100
AcDbEntity
  8
1-1MH
  6
Continuous
 62
     7
100
AcDbLine
 10
200.201247063
 20
373.0488653093
 30
0.0
 11
200.201247063
 21
292.0488653093
 31
0.0
  0
LINE
  5
127
330
103
100
AcDbEntity
  8
1-1MH
  6
Continuous
 62
     7
100
AcDbLine
 10
201.201247063
 20
374.0488653093
 30
0.0
 11
200.201247063
 21
373.0488653093
 31
0.0
  0
LINE
  5
128
330
103
100
AcDbEntity
  8
1-1MH
  6
Continuous
 62
     7
100
AcDbLine
 10
200.201247063
 20
292.0488653093
 30
0.0
 11
201.201247063
 21
291.0488653093
 31
0.0
  0
LINE
  5
129
330
103
100
AcDbEntity
  8
1-1MH
  6
Continuous
 62
     7
100
AcDbLine
 10
231.4569857252
 20
383.0488653093
 30
0.0
 11
248.4569857252
 21
383.0488653093
 31
0.0
  0
LINE
  5
12A
330
103
100
AcDbEntity
  8
1-1MH
  6
Continuous
 62
     7
100
AcDbLine
 10
232.9569857252
 20
411.7488653093
 30
0.0
 11
246.9569857252
 21
411.7488653093
 31
0.0
  0
LINE
  5
12B
330
103
100
AcDbEntity
  8
1-1MH
  6
Continuous
 62
     7
100
AcDbLine
 10
233.7569857252
 20
412.5488653093
 30
0.0
 11
246.1569857252
 21
412.5488653093
 31
0.0
  0
LINE
  5
12C
330
103
100
AcDbEntity
  8
1-1MH
  6
Continuous
 62
     7
100
AcDbLine
 10
232.9569857252
 20
383.2016517138
 30
0.0
 11
246.9569857252
 21
383.2016517138
 31
0.0
  0
LINE
  5
12D
330
103
100
AcDbEntity
  8
1-1MH
  6
Continuous
 62
     7
100
AcDbLine
 10
233.1569857252
 20
383.6488653093
 30
0.0
 11
246.7569857252
 21
383.6488653093
 31
0.0
  0
LINE
  5
12E
330
103
100
AcDbEntity
  8
1-1MH
  6
Continuous
 62
     7
100
AcDbLine
 10
232.9569857252
 20
385.0488653093
 30
0.0
 11
246.9569857252
 21
385.0488653093
 31
0.0
  0
LINE
  5
12F
330
103
100
AcDbEntity
  8
1-1MH
  6
Continuous
 62
     7
100
AcDbLine
 10
233.1569857252
 20
384.3024551478
 30
0.0
 11
246.7569857252
 21
384.3024551478
 31
0.0
  0
LINE
  5
130
330
103
100
AcDbEntity
  8
1-1MH
  6
Continuous
 62
     7
100
AcDbLine
 10
246.4953341405
 20
408.6970134575
 30
0.0
 11
246.4953341405
 21
392.4007171612
 31
0.0
  0
SPLINE
  5
131
330
103
100
AcDbEntity
  8
1-1MH
  6
Continuous
 62
     7
100
AcDbSpline
210
0.0
220
0.0
230
1.0
 70
     8
 71
     3
 72
    18
 73
    14
 74
     0
 42
0.0000000051651352
 43
0.0000000001
 40
0.0
 40
0.0
 40
0.0
 40
0.0
 40
0.1250000000000025
 40
0.1250000000000025
 40
0.250000000000005
 40
0.250000000000005
 40
0.5000000000000033
 40
0.5000000000000033
 40
0.7500000000000017
 40
0.7500000000000017
 40
0.8750000000000008
 40
0.8750000000000008
 40
1.0
 40
1.0
 40
1.0
 40
1.0
 10
246.9269142741889
 20
410.5488653093203
 30
0.0
 10
246.9154879797776
 20
410.5488653093203
 30
0.0
 10
246.9009763848103
 20
410.5367579790219
 30
0.0
 10
246.866268170987
 20
410.4892616170573
 30
0.0
 10
246.8458451691282
 20
410.4533030178542
 30
0.0
 10
246.7797515080075
 20
410.3144827691777
 30
0.0
 10
246.7276374807676
 20
410.1776088847596
 30
0.0
 10
246.628992972364
 20
409.8396632707579
 30
0.0
 10
246.5817301087309
 20
409.634633661864
 30
0.0
 10
246.5316739057798
 20
409.2998169044523
 30
0.0
 10
246.5181031490503
 20
409.1812712866982
 30
0.0
 10
246.4999881704528
 20
408.9410855510313
 30
0.0
 10
246.495334140508
 20
408.8197020666905
 30
0.0
 10
246.495334140508
 20
408.6970134574685
 30
0.0
  0
SPLINE
  5
132
330
103
100
AcDbEntity
  8
1-1MH
  6
Continuous
 62
     7
100
AcDbSpline
210
0.0
220
0.0
230
1.0
 70
     8
 71
     3
 72
    20
 73
    16
 74
     0
 42
0.0000000051546258
 43
0.0000000001
 40
0.0
 40
0.0
 40
0.0
 40
0.0
 40
0.1249999999999992
 40
0.1249999999999992
 40
0.2499999999999984
 40
0.2499999999999984
 40
0.3749999999999976
 40
0.3749999999999976
 40
0.4999999999999968
 40
0.4999999999999968
 40
0.624999999999996
 40
0.624999999999996
 40
0.7499999999999951
 40
0.7499999999999951
 40
1.0
 40
1.0
 40
1.0
 40
1.0
 10
246.495334140508
 20
392.4007171611723
 30
0.0
 10
246.495334140508
 20
392.278143227824
 30
0.0
 10
246.5001367428818
 20
392.1539987118515
 30
0.0
 10
246.5182670778609
 20
391.9149740412483
 30
0.0
 10
246.5315965674581
 20
391.7982548481513
 30
0.0
 10
246.5654464720575
 20
391.5721930805566
 30
0.0
 10
246.5854549349059
 20
391.4659899649312
 30
0.0
 10
246.6296338538356
 20
391.2662761098848
 30
0.0
 10
246.6540673774493
 20
391.1720260448242
 30
0.0
 10
246.7035583933391
 20
391.0027560107183
 30
0.0
 10
246.7287124451489
 20
390.9270539951779
 30
0.0
 10
246.7780977637877
 20
390.793435564199
 30
0.0
 10
246.8022185171306
 20
390.7359921236604
 30
0.0
 10
246.8679870925497
 20
390.5980571762428
 30
0.0
 10
246.9043229397983
 20
390.5488653093204
 30
0.0
 10
246.926914274189
 20
390.5488653093204
 30
0.0
  0
LINE
  5
133
330
103
100
AcDbEntity
  8
1-1MH
  6
Continuous
 62
     7
100
AcDbLine
 10
246.4953341405
 20
408.6970134575
 30
0.0
 11
249.0891163941
 21
408.6970134575
 31
0.0
  0
LINE
  5
134
330
103
100
AcDbEntity
  8
1-1MH
  6
Continuous
 62
     7
100
AcDbLine
 10
246.9569857252
 20
410.5488653093
 30
0.0
 11
246.9569857252
 21
410.5598653093
 31
0.0
  0
LINE
  5
135
330
103
100
AcDbEntity
  8
1-1MH
  6
Continuous
 62
     7
100
AcDbLine
 10
249.0891163941
 20
410.5488653093
 30
0.0
 11
246.9269142742
 21
410.5488653093
 31
0.0
  0
LINE
  5
136
330
103
100
AcDbEntity
  8
1-1MH
  6
Continuous
 62
     7
100
AcDbLine
 10
249.0891163941
 20
408.6970134575
 30
0.0
 11
249.0891163941
 21
410.5488653093
 31
0.0
  0
LINE
  5
137
330
103
100
AcDbEntity
  8
1-1MH
  6
Continuous
 62
     7
100
AcDbLine
 10
249.0891163941
 20
392.4007171612
 30
0.0
 11
249.0891163941
 21
408.6970134575
 31
0.0
  0
LINE
  5
138
330
103
100
AcDbEntity
  8
1-1MH
  6
Continuous
 62
     7
100
AcDbLine
 10
249.0891163941
 20
410.5488653093
 30
0.0
 11
249.0891163941
 21
410.5598653093
 31
0.0
  0
LINE
  5
139
330
103
100
AcDbEntity
  8
1-1MH
  6
Continuous
 62
     7
100
AcDbLine
 10
249.0891163941
 20
410.5598653093
 30
0.0
 11
246.9569857252
 21
410.5598653093
 31
0.0
  0
LINE
  5
13A
330
103
100
AcDbEntity
  8
1-1MH
  6
Continuous
 62
     7
100
AcDbLine
 10
249.0891163941
 20
392.4007171612
 30
0.0
 11
246.4953341405
 21
392.4007171612
 31
0.0
  0
LINE
  5
13B
330
103
100
AcDbEntity
  8
1-1MH
  6
Continuous
 62
     7
100
AcDbLine
 10
249.0891163941
 20
390.5488653093
 30
0.0
 11
249.0891163941
 21
392.4007171612
 31
0.0
  0
LINE
  5
13C
330
103
100
AcDbEntity
  8
1-1MH
  6
Continuous
 62
     7
100
AcDbLine
 10
249.0891163941
 20
390.5488653093
 30
0.0
 11
246.9269142742
 21
390.5488653093
 31
0.0
  0
LINE
  5
13D
330
103
100
AcDbEntity
  8
1-1MH
  6
Continuous
 62
     7
100
AcDbLine
 10
284.201247063
 20
322.7339107331
 30
0.0
 11
285.701247063
 21
322.7339107331
 31
0.0
  0
LINE
  5
13E
330
103
100
AcDbEntity
  8
1-1MH
  6
Continuous
 62
     7
100
AcDbLine
 10
285.701247063
 20
322.7339107331
 30
0.0
 11
285.701247063
 21
327.6413880212
 31
0.0
  0
LINE
  5
13F
330
103
100
AcDbEntity
  8
1-1MH
  6
Continuous
 62
     7
100
AcDbLine
 10
284.201247063
 20
342.3638198855
 30
0.0
 11
285.701247063
 21
342.3638198855
 31
0.0
  0
LINE
  5
140
330
103
100
AcDbEntity
  8
1-1MH
  6
Continuous
 62
     7
100
AcDbLine
 10
284.201247063
 20
337.4563425974
 30
0.0
 11
285.701247063
 21
337.4563425974
 31
0.0
  0
LINE
  5
141
330
103
100
AcDbEntity
  8
1-1MH
  6
Continuous
 62
     7
100
AcDbLine
 10
285.701247063
 20
337.4563425974
 30
0.0
 11
285.701247063
 21
342.3638198855
 31
0.0
  0
LINE
  5
142
330
103
100
AcDbEntity
  8
1-1MH
  6
Continuous
 62
     7
100
AcDbLine
 10
284.201247063
 20
327.6413880212
 30
0.0
 11
285.701247063
 21
327.6413880212
 31
0.0
  0
LINE
  5
143
330
103
100
AcDbEntity
  8
1-1MH
  6
Continuous
 62
     7
100
AcDbLine
 10
285.701247063
 20
327.6413880212
 30
0.0
 11
285.701247063
 21
337.4563425974
 31
0.0
  0
LINE
  5
144
330
103
100
AcDbEntity
  8
1-1MH
  6
Continuous
 62
     7
100
AcDbLine
 10
286.201247063
 20
341.7864696164
 30
0.0
 11
286.201247063
 21
337.1676674628
 31
0.0
  0
LINE
  5
145
330
103
100
AcDbEntity
  8
1-1MH
  6
Continuous
 62
     7
100
AcDbLine
 10
286.201247063
 20
337.1676674628
 30
0.0
 11
286.201247063
 21
327.9300631558
 31
0.0
  0
LINE
  5
146
330
103
100
AcDbEntity
  8
1-1MH
  6
Continuous
 62
     7
100
AcDbLine
 10
286.201247063
 20
327.9300631558
 30
0.0
 11
286.201247063
 21
323.3112610023
 31
0.0
  0
LINE
  5
147
330
103
100
AcDbEntity
  8
1-1MH
  6
Continuous
 62
     7
100
AcDbLine
 10
287.201247063
 20
339.0488653093
 30
0.0
 11
287.201247063
 21
326.0488653093
 31
0.0
  0
LINE
  5
148
330
103
100
AcDbEntity
  8
1-1MH
  6
Continuous
 62
     7
100
AcDbLine
 10
286.201247063
 20
327.9300631558
 30
0.0
 11
285.701247063
 21
327.6413880212
 31
0.0
  0
LINE
  5
149
330
103
100
AcDbEntity
  8
1-1MH
  6
Continuous
 62
     7
100
AcDbLine
 10
285.701247063
 20
322.7339107331
 30
0.0
 11
286.201247063
 21
323.3112610023
 31
0.0
  0
LINE
  5
14A
330
103
100
AcDbEntity
  8
1-1MH
  6
Continuous
 62
     7
100
AcDbLine
 10
286.201247063
 20
337.1676674628
 30
0.0
 11
285.701247063
 21
337.4563425974
 31
0.0
  0
LINE
  5
14B
330
103
100
AcDbEntity
  8
1-1MH
  6
Continuous
 62
     7
100
AcDbLine
 10
285.701247063
 20
342.3638198855
 30
0.0
 11
286.201247063
 21
341.7864696164
 31
0.0
  0
CIRCLE
  5
14C
330
103
100
AcDbEntity
  8
1-1MH
  6
Continuous
 62
     7
100
AcDbCircle
 10
218.201247063
 20
332.5488653093
 30
0.0
 40
8.55
  0
CIRCLE
  5
14D
330
103
100
AcDbEntity
  8
1-1MH
  6
Continuous
 62
     7
100
AcDbCircle
 10
218.201247063
 20
332.5488653093
 30
0.0
 40
9.5
  0
LINE
  5
14E
330
103
100
AcDbEntity
  8
1-1MH
  6
Continuous
 62
     7
100
AcDbLine
 10
218.201247063
 20
328.7960885596
 30
0.0
 11
221.451247063
 21
330.6724769345
 31
0.0
  0
LINE
  5
14F
330
103
100
AcDbEntity
  8
1-1MH
  6
Continuous
 62
     7
100
AcDbLine
 10
221.201247063
 20
330.8168145018
 30
0.0
 11
218.201247063
 21
329.0847636942
 31
0.0
  0
LINE
  5
150
330
103
100
AcDbEntity
  8
1-1MH
  6
Continuous
 62
     7
100
AcDbLine
 10
221.451247063
 20
330.6724769345
 30
0.0
 11
221.451247063
 21
334.4252536842
 31
0.0
  0
LINE
  5
151
330
103
100
AcDbEntity
  8
1-1MH
  6
Continuous
 62
     7
100
AcDbLine
 10
221.201247063
 20
334.2809161169
 30
0.0
 11
221.201247063
 21
330.8168145018
 31
0.0
  0
LINE
  5
152
330
103
100
AcDbEntity
  8
1-1MH
  6
Continuous
 62
     7
100
AcDbLine
 10
221.201247063
 20
330.8168145018
 30
0.0
 11
221.451247063
 21
330.6724769345
 31
0.0
  0
LINE
  5
153
330
103
100
AcDbEntity
  8
1-1MH
  6
Continuous
 62
     7
100
AcDbLine
 10
221.451247063
 20
334.4252536842
 30
0.0
 11
218.201247063
 21
336.3016420591
 31
0.0
  0
LINE
  5
154
330
103
100
AcDbEntity
  8
1-1MH
  6
Continuous
 62
     7
100
AcDbLine
 10
218.201247063
 20
336.3016420591
 30
0.0
 11
218.201247063
 21
336.0129669245
 31
0.0
  0
LINE
  5
155
330
103
100
AcDbEntity
  8
1-1MH
  6
Continuous
 62
     7
100
AcDbLine
 10
218.201247063
 20
336.0129669245
 30
0.0
 11
221.201247063
 21
334.2809161169
 31
0.0
  0
LINE
  5
156
330
103
100
AcDbEntity
  8
1-1MH
  6
Continuous
 62
     7
100
AcDbLine
 10
221.201247063
 20
334.2809161169
 30
0.0
 11
221.451247063
 21
334.4252536842
 31
0.0
  0
LINE
  5
157
330
103
100
AcDbEntity
  8
1-1MH
  6
Continuous
 62
     7
100
AcDbLine
 10
218.201247063
 20
336.3016420591
 30
0.0
 11
214.951247063
 21
334.4252536842
 31
0.0
  0
LINE
  5
158
330
103
100
AcDbEntity
  8
1-1MH
  6
Continuous
 62
     7
100
AcDbLine
 10
215.201247063
 20
334.2809161169
 30
0.0
 11
218.201247063
 21
336.0129669245
 31
0.0
  0
LINE
  5
159
330
103
100
AcDbEntity
  8
1-1MH
  6
Continuous
 62
     7
100
AcDbLine
 10
214.951247063
 20
334.4252536842
 30
0.0
 11
214.951247063
 21
330.6724769345
 31
0.0
  0
LINE
  5
15A
330
103
100
AcDbEntity
  8
1-1MH
  6
Continuous
 62
     7
100
AcDbLine
 10
214.951247063
 20
330.6724769345
 30
0.0
 11
215.201247063
 21
330.8168145018
 31
0.0
  0
LINE
  5
15B
330
103
100
AcDbEntity
  8
1-1MH
  6
Continuous
 62
     7
100
AcDbLine
 10
215.201247063
 20
330.8168145018
 30
0.0
 11
215.201247063
 21
334.2809161169
 31
0.0
  0
LINE
  5
15C
330
103
100
AcDbEntity
  8
1-1MH
  6
Continuous
 62
     7
100
AcDbLine
 10
215.201247063
 20
334.2809161169
 30
0.0
 11
214.951247063
 21
334.4252536842
 31
0.0
  0
LINE
  5
15D
330
103
100
AcDbEntity
  8
1-1MH
  6
Continuous
 62
     7
100
AcDbLine
 10
214.951247063
 20
330.6724769345
 30
0.0
 11
218.201247063
 21
328.7960885596
 31
0.0
  0
LINE
  5
15E
330
103
100
AcDbEntity
  8
1-1MH
  6
Continuous
 62
     7
100
AcDbLine
 10
218.201247063
 20
328.7960885596
 30
0.0
 11
218.201247063
 21
329.0847636942
 31
0.0
  0
LINE
  5
15F
330
103
100
AcDbEntity
  8
1-1MH
  6
Continuous
 62
     7
100
AcDbLine
 10
218.201247063
 20
329.0847636942
 30
0.0
 11
215.201247063
 21
330.8168145018
 31
0.0
  0
LINE
  5
160
330
103
100
AcDbEntity
  8
1-1MH
  6
Continuous
 62
     7
100
AcDbLine
 10
270.201247063
 20
372.0476477051
 30
0.0
 11
283.202465409
 21
371.5936351561
 31
0.0
  0
LINE
  5
161
330
103
100
AcDbEntity
  8
1-1MH
  6
Continuous
 62
     7
100
AcDbLine
 10
284.2024646673
 20
372.5593232146
 30
0.0
 11
283.202465409
 21
373.5948527603
 31
0.0
  0
LINE
  5
162
330
103
100
AcDbEntity
  8
1-1MH
  6
Continuous
 62
     7
100
AcDbLine
 10
283.202465409
 20
373.5948527603
 30
0.0
 11
270.201247063
 21
374.0488653093
 31
0.0
  0
LINE
  5
163
330
103
100
AcDbEntity
  8
1-1MH
  6
Continuous
 62
     7
100
AcDbLine
 10
283.202465409
 20
291.5028778583
 30
0.0
 11
270.201247063
 21
291.0488653093
 31
0.0
  0
LINE
  5
164
330
103
100
AcDbEntity
  8
1-1MH
  6
Continuous
 62
     7
100
AcDbLine
 10
270.201247063
 20
293.0500829136
 30
0.0
 11
283.202465409
 21
293.5040954625
 31
0.0
  0
LINE
  5
165
330
103
100
AcDbEntity
  8
1-1MH
  6
Continuous
 62
     7
100
AcDbLine
 10
284.201247063
 20
311.0488653093
 30
0.0
 11
285.201247063
 21
310.0488653093
 31
0.0
  0
LINE
  5
166
330
103
100
AcDbEntity
  8
1-1MH
  6
Continuous
 62
     7
100
AcDbLine
 10
284.2024646673
 20
372.5593232146
 30
0.0
 11
285.201247063
 21
371.5250537669
 31
0.0
  0
LINE
  5
167
330
103
100
AcDbEntity
  8
1-1MH
  6
Continuous
 62
     7
100
AcDbLine
 10
284.2024646673
 20
292.538407404
 30
0.0
 11
283.202465409
 21
291.5028778583
 31
0.0
  0
LINE
  5
168
330
103
100
AcDbEntity
  8
1-1MH
  6
Continuous
 62
     7
100
AcDbLine
 10
285.201247063
 20
310.0488653093
 30
0.0
 11
285.201247063
 21
293.5726768517
 31
0.0
  0
LINE
  5
169
330
103
100
AcDbEntity
  8
1-1MH
  6
Continuous
 62
     7
100
AcDbLine
 10
284.2024646673
 20
292.538407404
 30
0.0
 11
285.201247063
 21
293.5726768517
 31
0.0
  0
LINE
  5
16A
330
103
100
AcDbEntity
  8
1-1MH
  6
Continuous
 62
     7
100
AcDbLine
 10
284.201247063
 20
311.0488653093
 30
0.0
 11
284.201247063
 21
354.0488653093
 31
0.0
  0
LINE
  5
16B
330
103
100
AcDbEntity
  8
1-1MH
  6
Continuous
 62
     7
100
AcDbLine
 10
284.201247063
 20
354.0488653093
 30
0.0
 11
285.201247063
 21
355.0488653093
 31
0.0
  0
LINE
  5
16C
330
103
100
AcDbEntity
  8
1-1MH
  6
Continuous
 62
     7
100
AcDbLine
 10
285.201247063
 20
355.0488653093
 30
0.0
 11
285.201247063
 21
371.5250537669
 31
0.0
  0
LINE
  5
16D
330
103
100
AcDbEntity
  8
1-1MH
  6
Continuous
 62
     7
100
AcDbLine
 10
284.2024646673
 20
372.5593232146
 30
0.0
 11
283.202465409
 21
371.5936351561
 31
0.0
  0
LINE
  5
16E
330
103
100
AcDbEntity
  8
1-1MH
  6
Continuous
 62
     7
100
AcDbLine
 10
283.202465409
 20
371.5936351561
 30
0.0
 11
283.202465409
 21
293.5040954625
 31
0.0
  0
LINE
  5
16F
330
103
100
AcDbEntity
  8
1-1MH
  6
Continuous
 62
     7
100
AcDbLine
 10
283.202465409
 20
293.5040954625
 30
0.0
 11
284.2024646673
 21
292.538407404
 31
0.0
  0
LINE
  5
170
330
103
100
AcDbEntity
  8
1-1MH
  6
Continuous
 62
     7
100
AcDbLine
 10
248.4569857252
 20
375.0488653093
 30
0.0
 11
248.4569857252
 21
383.0488653093
 31
0.0
  0
LINE
  5
171
330
103
100
AcDbEntity
  8
1-1MH
  6
Continuous
 62
     7
100
AcDbLine
 10
231.4569857252
 20
383.0488653093
 30
0.0
 11
231.4569857252
 21
375.0488653093
 31
0.0
  0
LINE
  5
172
330
103
100
AcDbEntity
  8
1-1MH
  6
Continuous
 62
     7
100
AcDbLine
 10
246.9569857252
 20
410.5598653093
 30
0.0
 11
246.9569857252
 21
411.7488653093
 31
0.0
  0
LINE
  5
173
330
103
100
AcDbEntity
  8
1-1MH
  6
Continuous
 62
     7
100
AcDbLine
 10
246.9569857252
 20
385.0488653093
 30
0.0
 11
246.9569857252
 21
390.5488653093
 31
0.0
  0
LINE
  5
174
330
103
100
AcDbEntity
  8
1-1MH
  6
Continuous
 62
     7
100
AcDbLine
 10
232.9569857252
 20
411.7488653093
 30
0.0
 11
232.9569857252
 21
385.0488653093
 31
0.0
  0
LINE
  5
175
330
103
100
AcDbEntity
  8
1-1MH
  6
Continuous
 62
     7
100
AcDbLine
 10
246.9569857252
 20
411.7488653093
 30
0.0
 11
246.1569857252
 21
412.5488653093
 31
0.0
  0
LINE
  5
176
330
103
100
AcDbEntity
  8
1-1MH
  6
Continuous
 62
     7
100
AcDbLine
 10
233.7569857252
 20
412.5488653093
 30
0.0
 11
232.9569857252
 21
411.7488653093
 31
0.0
  0
LINE
  5
177
330
103
100
AcDbEntity
  8
1-1MH
  6
Continuous
 62
     7
100
AcDbLine
 10
246.9569857252
 20
383.0488653093
 30
0.0
 11
246.9569857252
 21
383.2016517138
 31
0.0
  0
LINE
  5
178
330
103
100
AcDbEntity
  8
1-1MH
  6
Continuous
 62
     7
100
AcDbLine
 10
232.9569857252
 20
383.2016517138
 30
0.0
 11
232.9569857252
 21
383.0488653093
 31
0.0
  0
ARC
  5
179
330
103
100
AcDbEntity
  8
1-1MH
  6
Continuous
 62
     7
100
AcDbCircle
 10
247.3569857252
 20
383.6488653093
 30
0.0
 40
0.6000000000000203
100
AcDbArc
 50
180.0
 51
228.1896851042
  0
ARC
  5
17A
330
103
100
AcDbEntity
  8
1-1MH
  6
Continuous
 62
     7
100
AcDbCircle
 10
232.5569857252
 20
383.6488653093
 30
0.0
 40
0.6000000000000033
100
AcDbArc
 50
311.8103148958
 51
0.0
  0
LINE
  5
17B
330
103
100
AcDbEntity
  8
1-1MH
  6
Continuous
 62
     7
100
AcDbLine
 10
232.9569857252
 20
385.0488653093
 30
0.0
 11
233.1569857252
 21
384.3024551478
 31
0.0
  0
LINE
  5
17C
330
103
100
AcDbEntity
  8
1-1MH
  6
Continuous
 62
     7
100
AcDbLine
 10
246.7569857252
 20
384.3024551478
 30
0.0
 11
246.9569857252
 21
385.0488653093
 31
0.0
  0
LINE
  5
17D
330
103
100
AcDbEntity
  8
1-1MH
  6
Continuous
 62
     7
100
AcDbLine
 10
233.1569857252
 20
384.3024551478
 30
0.0
 11
233.1569857252
 21
383.6488653093
 31
0.0
  0
LINE
  5
17E
330
103
100
AcDbEntity
  8
1-1MH
  6
Continuous
 62
     7
100
AcDbLine
 10
246.7569857252
 20
383.6488653093
 30
0.0
 11
246.7569857252
 21
384.3024551478
 31
0.0
  0
ARC
  5
17F
330
103
100
AcDbEntity
  8
1-1MH
  6
Continuous
 62
     7
100
AcDbCircle
 10
286.201247063
 20
339.0488653093
 30
0.0
 40
1.000000000000001
100
AcDbArc
 50
0.0
 51
90.0
  0
ARC
  5
180
330
103
100
AcDbEntity
  8
1-1MH
  6
Continuous
 62
     7
100
AcDbCircle
 10
286.201247063
 20
326.0488653093
 30
0.0
 40
1.0
100
AcDbArc
 50
270.0
 51
0.0
  0
ENDBLK
  5
182
330
103
100
AcDbEntity
  8
0
100
AcDbBlockEnd
  0
BLOCK
  5
222
330
183
100
AcDbEntity
  8
0
100
AcDbBlockBegin
  2
SE2
 70
     0
 10
0.0
 20
0.0
 30
0.0
  3
SE2
  1

  0
LINE
  5
185
330
183
100
AcDbEntity
  8
1-1MH
  6
Continuous
 62
     7
100
AcDbLine
 10
270.201247063
 20
48.3316442112
 30
0.0
 11
202.201247063
 21
48.3316442112
 31
0.0
  0
LINE
  5
186
330
183
100
AcDbEntity
  8
1-1MH
  6
Continuous
 62
     7
100
AcDbLine
 10
270.201247063
 20
66.3316442112
 30
0.0
 11
270.201247063
 21
48.3316442112
 31
0.0
  0
LINE
  5
187
330
183
100
AcDbEntity
  8
1-1MH
  6
Continuous
 62
     7
100
AcDbLine
 10
202.201247063
 20
66.3316442112
 30
0.0
 11
270.201247063
 21
66.3316442112
 31
0.0
  0
LINE
  5
188
330
183
100
AcDbEntity
  8
1-1MH
  6
Continuous
 62
     7
100
AcDbLine
 10
202.201247063
 20
66.3316442112
 30
0.0
 11
202.201247063
 21
48.3316442112
 31
0.0
  0
CIRCLE
  5
189
330
183
100
AcDbEntity
  8
1-1MH
  6
Continuous
 62
     7
100
AcDbCircle
 10
216.201247063
 20
54.8316442112
 30
0.0
 40
2.96602540378444
  0
CIRCLE
  5
18A
330
183
100
AcDbEntity
  8
1-1MH
  6
Continuous
 62
     7
100
AcDbCircle
 10
254.201247063
 20
54.8316442112
 30
0.0
 40
2.96602540378445
  0
LINE
  5
18B
330
183
100
AcDbEntity
  8
1-1MH
  6
Continuous
 62
     7
100
AcDbLine
 10
202.201247063
 20
46.3316442112
 30
0.0
 11
270.201247063
 21
46.3316442112
 31
0.0
  0
CIRCLE
  5
18C
330
183
100
AcDbEntity
  8
1-1MH
  6
Continuous
 62
     7
100
AcDbCircle
 10
254.201247063
 20
122.8316442112
 30
0.0
 40
2.1
  0
CIRCLE
  5
18D
330
183
100
AcDbEntity
  8
1-1MH
  6
Continuous
 62
     7
100
AcDbCircle
 10
254.201247063
 20
122.8316442112
 30
0.0
 40
2.96602540378444
  0
CIRCLE
  5
18E
330
183
100
AcDbEntity
  8
1-1MH
  6
Continuous
 62
     7
100
AcDbCircle
 10
216.201247063
 20
122.8316442112
 30
0.0
 40
2.1
  0
CIRCLE
  5
18F
330
183
100
AcDbEntity
  8
1-1MH
  6
Continuous
 62
     7
100
AcDbCircle
 10
216.201247063
 20
122.8316442112
 30
0.0
 40
2.96602540378444
  0
CIRCLE
  5
190
330
183
100
AcDbEntity
  8
1-1MH
  6
Continuous
 62
     7
100
AcDbCircle
 10
254.201247063
 20
54.8316442112
 30
0.0
 40
2.1
  0
CIRCLE
  5
191
330
183
100
AcDbEntity
  8
1-1MH
  6
Continuous
 62
     7
100
AcDbCircle
 10
216.201247063
 20
54.8316442112
 30
0.0
 40
2.1
  0
LINE
  5
192
330
183
100
AcDbEntity
  8
1-1MH
  6
Continuous
 62
     7
100
AcDbLine
 10
270.201247063
 20
131.3316442112
 30
0.0
 11
202.201247063
 21
131.3316442112
 31
0.0
  0
LINE
  5
193
330
183
100
AcDbEntity
  8
1-1MH
  6
Continuous
 62
     7
100
AcDbLine
 10
201.201247063
 20
130.3316442112
 30
0.0
 11
202.201247063
 21
131.3316442112
 31
0.0
  0
LINE
  5
194
330
183
100
AcDbEntity
  8
1-1MH
  6
Continuous
 62
     7
100
AcDbLine
 10
202.201247063
 20
129.3316442112
 30
0.0
 11
201.201247063
 21
130.3316442112
 31
0.0
  0
LINE
  5
195
330
183
100
AcDbEntity
  8
1-1MH
  6
Continuous
 62
     7
100
AcDbLine
 10
202.201247063
 20
129.3316442112
 30
0.0
 11
270.201247063
 21
129.3316442112
 31
0.0
  0
LINE
  5
196
330
183
100
AcDbEntity
  8
1-1MH
  6
Continuous
 62
     7
100
AcDbLine
 10
270.201247063
 20
131.3316442112
 30
0.0
 11
270.201247063
 21
129.3316442112
 31
0.0
  0
LINE
  5
197
330
183
100
AcDbEntity
  8
1-1MH
  6
Continuous
 62
     7
100
AcDbLine
 10
201.201247063
 20
47.3316442112
 30
0.0
 11
202.201247063
 21
48.3316442112
 31
0.0
  0
LINE
  5
198
330
183
100
AcDbEntity
  8
1-1MH
  6
Continuous
 62
     7
100
AcDbLine
 10
202.201247063
 20
46.3316442112
 30
0.0
 11
201.201247063
 21
47.3316442112
 31
0.0
  0
LINE
  5
199
330
183
100
AcDbEntity
  8
1-1MH
  6
Continuous
 62
     7
100
AcDbLine
 10
270.201247063
 20
48.3316442112
 30
0.0
 11
270.201247063
 21
46.3316442112
 31
0.0
  0
LINE
  5
19A
330
183
100
AcDbEntity
  8
1-1MH
  6
Continuous
 62
     7
100
AcDbLine
 10
270.201247063
 20
111.3316442112
 30
0.0
 11
202.201247063
 21
111.3316442112
 31
0.0
  0
LINE
  5
19B
330
183
100
AcDbEntity
  8
1-1MH
  6
Continuous
 62
     7
100
AcDbLine
 10
270.201247063
 20
129.3316442112
 30
0.0
 11
270.201247063
 21
111.3316442112
 31
0.0
  0
LINE
  5
19C
330
183
100
AcDbEntity
  8
1-1MH
  6
Continuous
 62
     7
100
AcDbLine
 10
202.201247063
 20
129.3316442112
 30
0.0
 11
202.201247063
 21
111.3316442112
 31
0.0
  0
LINE
  5
19D
330
183
100
AcDbEntity
  8
1-1MH
  6
Continuous
 62
     7
100
AcDbLine
 10
200.201247063
 20
129.3316442112
 30
0.0
 11
200.201247063
 21
48.3316442112
 31
0.0
  0
LINE
  5
19E
330
183
100
AcDbEntity
  8
1-1MH
  6
Continuous
 62
     7
100
AcDbLine
 10
240.201247063
 20
77.8316442112
 30
0.0
 11
270.201247063
 21
77.8316442112
 31
0.0
  0
ARC
  5
19F
330
183
100
AcDbEntity
  8
1-1MH
  6
Continuous
 62
     7
100
AcDbCircle
 10
240.201247063
 20
88.8316442112
 30
0.0
 40
11.0
100
AcDbArc
 50
90.0
 51
270.0
  0
LINE
  5
1A0
330
183
100
AcDbEntity
  8
1-1MH
  6
Continuous
 62
     7
100
AcDbLine
 10
270.201247063
 20
99.8316442112
 30
0.0
 11
240.201247063
 21
99.8316442112
 31
0.0
  0
LINE
  5
1A1
330
183
100
AcDbEntity
  8
1-1MH
  6
Continuous
 62
     7
100
AcDbLine
 10
270.201247063
 20
110.3316442112
 30
0.0
 11
270.201247063
 21
111.3316442112
 31
0.0
  0
LINE
  5
1A2
330
183
100
AcDbEntity
  8
1-1MH
  6
Continuous
 62
     7
100
AcDbLine
 10
270.201247063
 20
99.8316442112
 30
0.0
 11
270.201247063
 21
110.3316442112
 31
0.0
  0
LINE
  5
1A3
330
183
100
AcDbEntity
  8
1-1MH
  6
Continuous
 62
     7
100
AcDbLine
 10
270.201247063
 20
67.3316442112
 30
0.0
 11
270.201247063
 21
77.8316442112
 31
0.0
  0
LINE
  5
1A4
330
183
100
AcDbEntity
  8
1-1MH
  6
Continuous
 62
     7
100
AcDbLine
 10
270.201247063
 20
66.3316442112
 30
0.0
 11
270.201247063
 21
67.3316442112
 31
0.0
  0
LINE
  5
1A5
330
183
100
AcDbEntity
  8
1-1MH
  6
Continuous
 62
     7
100
AcDbLine
 10
201.201247063
 20
47.3316442112
 30
0.0
 11
200.201247063
 21
48.3316442112
 31
0.0
  0
LINE
  5
1A6
330
183
100
AcDbEntity
  8
1-1MH
  6
Continuous
 62
     7
100
AcDbLine
 10
202.201247063
 20
66.3316442112
 30
0.0
 11
201.201247063
 21
67.3316442112
 31
0.0
  0
LINE
  5
1A7
330
183
100
AcDbEntity
  8
1-1MH
  6
Continuous
 62
     7
100
AcDbLine
 10
201.201247063
 20
67.3316442112
 30
0.0
 11
201.201247063
 21
110.3316442112
 31
0.0
  0
LINE
  5
1A8
330
183
100
AcDbEntity
  8
1-1MH
  6
Continuous
 62
     7
100
AcDbLine
 10
201.201247063
 20
110.3316442112
 30
0.0
 11
202.201247063
 21
111.3316442112
 31
0.0
  0
LINE
  5
1A9
330
183
100
AcDbEntity
  8
1-1MH
  6
Continuous
 62
     7
100
AcDbLine
 10
201.201247063
 20
130.3316442112
 30
0.0
 11
200.201247063
 21
129.3316442112
 31
0.0
  0
LINE
  5
1AA
330
183
100
AcDbEntity
  8
1-1MH
  6
Continuous
 62
     7
100
AcDbLine
 10
201.201247063
 20
110.3316442112
 30
0.0
 11
270.201247063
 21
110.3316442112
 31
0.0
  0
LINE
  5
1AB
330
183
100
AcDbEntity
  8
1-1MH
  6
Continuous
 62
     7
100
AcDbLine
 10
201.201247063
 20
67.3316442112
 30
0.0
 11
270.201247063
 21
67.3316442112
 31
0.0
  0
LINE
  5
1AC
330
183
100
AcDbEntity
  8
1-1MH
  6
Continuous
 62
     7
100
AcDbLine
 10
231.4569857252
 20
38.3316442112
 30
0.0
 11
248.4569857252
 21
38.3316442112
 31
0.0
  0
LINE
  5
1AD
330
183
100
AcDbEntity
  8
1-1MH
  6
Continuous
 62
     7
100
AcDbLine
 10
232.9569857252
 20
9.6316442112
 30
0.0
 11
246.9569857252
 21
9.6316442112
 31
0.0
  0
LINE
  5
1AE
330
183
100
AcDbEntity
  8
1-1MH
  6
Continuous
 62
     7
100
AcDbLine
 10
246.4953341405
 20
12.6834960631
 30
0.0
 11
246.4953341405
 21
28.9797923594
 31
0.0
  0
LINE
  5
1AF
330
183
100
AcDbEntity
  8
1-1MH
  6
Continuous
 62
     7
100
AcDbLine
 10
233.7569857252
 20
8.8316442112
 30
0.0
 11
246.1569857252
 21
8.8316442112
 31
0.0
  0
LINE
  5
1B0
330
183
100
AcDbEntity
  8
1-1MH
  6
Continuous
 62
     7
100
AcDbLine
 10
232.9569857252
 20
38.1788578067
 30
0.0
 11
246.9569857252
 21
38.1788578067
 31
0.0
  0
LINE
  5
1B1
330
183
100
AcDbEntity
  8
1-1MH
  6
Continuous
 62
     7
100
AcDbLine
 10
233.1569857252
 20
37.7316442112
 30
0.0
 11
246.7569857252
 21
37.7316442112
 31
0.0
  0
LINE
  5
1B2
330
183
100
AcDbEntity
  8
1-1MH
  6
Continuous
 62
     7
100
AcDbLine
 10
232.9569857252
 20
36.3316442112
 30
0.0
 11
246.9569857252
 21
36.3316442112
 31
0.0
  0
LINE
  5
1B3
330
183
100
AcDbEntity
  8
1-1MH
  6
Continuous
 62
     7
100
AcDbLine
 10
233.1569857252
 20
37.0780543727
 30
0.0
 11
246.7569857252
 21
37.0780543727
 31
0.0
  0
SPLINE
  5
1B4
330
183
100
AcDbEntity
  8
1-1MH
  6
Continuous
 62
     7
100
AcDbSpline
210
0.0
220
0.0
230
1.0
 70
     8
 71
     3
 72
    18
 73
    14
 74
     0
 42
0.0000000051651706
 43
0.0000000001
 40
0.0
 40
0.0
 40
0.0
 40
0.0
 40
0.1249999999999995
 40
0.1249999999999995
 40
0.249999999999999
 40
0.249999999999999
 40
0.4999999999999989
 40
0.4999999999999989
 40
0.7499999999999988
 40
0.7499999999999988
 40
0.8749999999999993
 40
0.8749999999999993
 40
1.0
 40
1.0
 40
1.0
 40
1.0
 10
246.495334140508
 20
12.68349606307038
 30
0.0
 10
246.495334140508
 20
12.55954083238585
 30
0.0
 10
246.5000837769342
 20
12.43779726883119
 30
0.0
 10
246.5181724605736
 20
12.19868158720218
 30
0.0
 10
246.5317409375678
 20
12.08005732851795
 30
0.0
 10
246.5821167664911
 20
11.74366634002949
 30
0.0
 10
246.6293584931273
 20
11.53936860659342
 30
0.0
 10
246.7280757324362
 20
11.20162648353658
 30
0.0
 10
246.780167237354
 20
11.0650511351801
 30
0.0
 10
246.846010675411
 20
10.92691053547377
 30
0.0
 10
246.866389331507
 20
10.89104104942093
 30
0.0
 10
246.9011274058889
 20
10.8435862521911
 30
0.0
 10
246.9155676456833
 20
10.8316442112185
 30
0.0
 10
246.9269142741889
 20
10.83164421121849
 30
0.0
  0
SPLINE
  5
1B5
330
183
100
AcDbEntity
  8
1-1MH
  6
Continuous
 62
     7
100
AcDbSpline
210
0.0
220
0.0
230
1.0
 70
     8
 71
     3
 72
    18
 73
    14
 74
     0
 42
0.0000000051536479
 43
0.0000000001
 40
0.0
 40
0.0
 40
0.0
 40
0.0
 40
0.2499999999999993
 40
0.2499999999999993
 40
0.4999999999999987
 40
0.4999999999999987
 40
0.624999999999999
 40
0.624999999999999
 40
0.7499999999999993
 40
0.7499999999999993
 40
0.8749999999999997
 40
0.8749999999999997
 40
1.0
 40
1.0
 40
1.0
 40
1.0
 10
246.926914274189
 20
30.83164421121849
 30
0.0
 10
246.9042354623554
 20
30.83164421121848
 30
0.0
 10
246.8678880093012
 20
30.78232829280302
 30
0.0
 10
246.7799886354296
 20
30.59781102671118
 30
0.0
 10
246.7279195887209
 20
30.46125723767271
 30
0.0
 10
246.6537704384064
 20
30.20737539926349
 30
0.0
 10
246.6293143404005
 20
30.11293520738757
 30
0.0
 10
246.5851620000346
 20
29.91304710346133
 30
0.0
 10
246.5652532369581
 20
29.80709973385046
 30
0.0
 10
246.5316531085805
 20
29.58255818655788
 30
0.0
 10
246.5181275685946
 20
29.46410915344787
 30
0.0
 10
246.5000845823083
 20
29.22540581706928
 30
0.0
 10
246.495334140508
 20
29.10379849058935
 30
0.0
 10
246.495334140508
 20
28.97979235936648
 30
0.0
  0
LINE
  5
1B6
330
183
100
AcDbEntity
  8
1-1MH
  6
Continuous
 62
     7
100
AcDbLine
 10
246.4953341405
 20
28.9797923594
 30
0.0
 11
249.0891163941
 21
28.9797923594
 31
0.0
  0
LINE
  5
1B7
330
183
100
AcDbEntity
  8
1-1MH
  6
Continuous
 62
     7
100
AcDbLine
 10
246.9569854395
 20
10.8206442112
 30
0.0
 11
249.0891163941
 21
10.8206442112
 31
0.0
  0
LINE
  5
1B8
330
183
100
AcDbEntity
  8
1-1MH
  6
Continuous
 62
     7
100
AcDbLine
 10
246.9569854395
 20
10.8206442112
 30
0.0
 11
246.9569857252
 21
10.8316442112
 31
0.0
  0
LINE
  5
1B9
330
183
100
AcDbEntity
  8
1-1MH
  6
Continuous
 62
     7
100
AcDbLine
 10
246.4953341405
 20
12.6834960631
 30
0.0
 11
249.0891163941
 21
12.6834960631
 31
0.0
  0
LINE
  5
1BA
330
183
100
AcDbEntity
  8
1-1MH
  6
Continuous
 62
     7
100
AcDbLine
 10
249.0891163941
 20
10.8316442112
 30
0.0
 11
246.9269142742
 21
10.8316442112
 31
0.0
  0
LINE
  5
1BB
330
183
100
AcDbEntity
  8
1-1MH
  6
Continuous
 62
     7
100
AcDbLine
 10
249.0891163941
 20
30.8316442112
 30
0.0
 11
246.9269142742
 21
30.8316442112
 31
0.0
  0
LINE
  5
1BC
330
183
100
AcDbEntity
  8
1-1MH
  6
Continuous
 62
     7
100
AcDbLine
 10
249.0891163941
 20
28.9797923594
 30
0.0
 11
249.0891163941
 21
30.8316442112
 31
0.0
  0
LINE
  5
1BD
330
183
100
AcDbEntity
  8
1-1MH
  6
Continuous
 62
     7
100
AcDbLine
 10
249.0891163941
 20
12.6834960631
 30
0.0
 11
249.0891163941
 21
28.9797923594
 31
0.0
  0
LINE
  5
1BE
330
183
100
AcDbEntity
  8
1-1MH
  6
Continuous
 62
     7
100
AcDbLine
 10
249.0891163941
 20
10.8316442112
 30
0.0
 11
249.0891163941
 21
12.6834960631
 31
0.0
  0
LINE
  5
1BF
330
183
100
AcDbEntity
  8
1-1MH
  6
Continuous
 62
     7
100
AcDbLine
 10
249.0891163941
 20
10.8206442112
 30
0.0
 11
249.0891163941
 21
10.8316442112
 31
0.0
  0
LINE
  5
1C0
330
183
100
AcDbEntity
  8
1-1MH
  6
Continuous
 62
     7
100
AcDbLine
 10
240.201247063
 20
79.016689635
 30
0.0
 11
231.701247063
 21
83.9241669231
 31
0.0
  0
LINE
  5
1C1
330
183
100
AcDbEntity
  8
1-1MH
  6
Continuous
 62
     7
100
AcDbLine
 10
248.701247063
 20
83.9241669231
 30
0.0
 11
240.201247063
 21
79.016689635
 31
0.0
  0
LINE
  5
1C2
330
183
100
AcDbEntity
  8
1-1MH
  6
Continuous
 62
     7
100
AcDbLine
 10
248.701247063
 20
93.7391214993
 30
0.0
 11
248.701247063
 21
83.9241669231
 31
0.0
  0
LINE
  5
1C3
330
183
100
AcDbEntity
  8
1-1MH
  6
Continuous
 62
     7
100
AcDbLine
 10
240.201247063
 20
98.6465987874
 30
0.0
 11
243.7875207855
 21
96.5760626884
 31
0.0
  0
LINE
  5
1C4
330
183
100
AcDbEntity
  8
1-1MH
  6
Continuous
 62
     7
100
AcDbLine
 10
245.0468423536
 20
95.8489930421
 30
0.0
 11
248.701247063
 21
93.7391214993
 31
0.0
  0
LINE
  5
1C5
330
183
100
AcDbEntity
  8
1-1MH
  6
Continuous
 62
     7
100
AcDbLine
 10
231.701247063
 20
93.7391214993
 30
0.0
 11
235.1631691566
 21
95.7378631519
 31
0.0
  0
LINE
  5
1C6
330
183
100
AcDbEntity
  8
1-1MH
  6
Continuous
 62
     7
100
AcDbLine
 10
236.7519889566
 20
96.6551686912
 30
0.0
 11
240.201247063
 21
98.6465987874
 31
0.0
  0
LINE
  5
1C7
330
183
100
AcDbEntity
  8
1-1MH
  6
Continuous
 62
     7
100
AcDbLine
 10
231.701247063
 20
83.9241669231
 30
0.0
 11
231.701247063
 21
88.3179599191
 31
0.0
  0
LINE
  5
1C8
330
183
100
AcDbEntity
  8
1-1MH
  6
Continuous
 62
     7
100
AcDbLine
 10
231.701247063
 20
89.4386225033
 30
0.0
 11
231.701247063
 21
93.7391214993
 31
0.0
  0
LINE
  5
1C9
330
183
100
AcDbEntity
  8
1-1MH
  6
Continuous
 62
     7
100
AcDbLine
 10
240.201247063
 20
98.0692485183
 30
0.0
 11
238.8116826641
 21
97.2669831385
 31
0.0
  0
LINE
  5
1CA
330
183
100
AcDbEntity
  8
1-1MH
  6
Continuous
 62
     7
100
AcDbLine
 10
233.603475449
 20
94.2600233008
 30
0.0
 11
232.201247063
 21
93.4504463647
 31
0.0
  0
LINE
  5
1CB
330
183
100
AcDbEntity
  8
1-1MH
  6
Continuous
 62
     7
100
AcDbLine
 10
232.201247063
 20
93.4504463647
 30
0.0
 11
232.201247063
 21
91.8015568777
 31
0.0
  0
LINE
  5
1CC
330
183
100
AcDbEntity
  8
1-1MH
  6
Continuous
 62
     7
100
AcDbLine
 10
232.201247063
 20
85.9550255447
 30
0.0
 11
232.201247063
 21
84.2128420577
 31
0.0
  0
LINE
  5
1CD
330
183
100
AcDbEntity
  8
1-1MH
  6
Continuous
 62
     7
100
AcDbLine
 10
232.201247063
 20
84.2128420577
 30
0.0
 11
233.7561784019
 21
83.3151020306
 31
0.0
  0
LINE
  5
1CE
330
183
100
AcDbEntity
  8
1-1MH
  6
Continuous
 62
     7
100
AcDbLine
 10
238.5781847372
 20
80.5311153749
 30
0.0
 11
240.201247063
 21
79.5940399042
 31
0.0
  0
LINE
  5
1CF
330
183
100
AcDbEntity
  8
1-1MH
  6
Continuous
 62
     7
100
AcDbLine
 10
240.201247063
 20
79.5940399042
 30
0.0
 11
241.8432719888
 21
80.5420634371
 31
0.0
  0
LINE
  5
1D0
330
183
100
AcDbEntity
  8
1-1MH
  6
Continuous
 62
     7
100
AcDbLine
 10
246.5718861243
 20
83.2721300811
 30
0.0
 11
248.201247063
 21
84.2128420577
 31
0.0
  0
LINE
  5
1D1
330
183
100
AcDbEntity
  8
1-1MH
  6
Continuous
 62
     7
100
AcDbLine
 10
248.201247063
 20
84.2128420577
 30
0.0
 11
248.201247063
 21
86.0580369395
 31
0.0
  0
LINE
  5
1D2
330
183
100
AcDbEntity
  8
1-1MH
  6
Continuous
 62
     7
100
AcDbLine
 10
248.201247063
 20
91.6985454829
 30
0.0
 11
248.201247063
 21
93.4504463647
 31
0.0
  0
LINE
  5
1D3
330
183
100
AcDbEntity
  8
1-1MH
  6
Continuous
 62
     7
100
AcDbLine
 10
248.201247063
 20
93.4504463647
 30
0.0
 11
246.7285499465
 21
94.3007084414
 31
0.0
  0
LINE
  5
1D4
330
183
100
AcDbEntity
  8
1-1MH
  6
Continuous
 62
     7
100
AcDbLine
 10
241.6058131925
 20
97.2583218853
 30
0.0
 11
240.201247063
 21
98.0692485183
 31
0.0
  0
CIRCLE
  5
1D5
330
183
100
AcDbEntity
  8
1-1MH
  6
Continuous
 62
     7
100
AcDbCircle
 10
240.182758063
 20
88.8782912112
 30
0.0
 40
7.0
  0
CIRCLE
  5
1D6
330
183
100
AcDbEntity
  8
1-1MH
  6
Continuous
 62
     7
100
AcDbCircle
 10
240.182758063
 20
88.8782912112
 30
0.0
 40
8.5
  0
LINE
  5
1D7
330
183
100
AcDbEntity
  8
1-1MH
  6
Continuous
 62
     7
100
AcDbLine
 10
240.201247063
 20
79.5940399042
 30
0.0
 11
240.201247063
 21
79.016689635
 31
0.0
  0
LINE
  5
1D8
330
183
100
AcDbEntity
  8
1-1MH
  6
Continuous
 62
     7
100
AcDbLine
 10
248.201247063
 20
84.2128420577
 30
0.0
 11
248.701247063
 21
83.9241669231
 31
0.0
  0
LINE
  5
1D9
330
183
100
AcDbEntity
  8
1-1MH
  6
Continuous
 62
     7
100
AcDbLine
 10
248.701247063
 20
93.7391214993
 30
0.0
 11
248.201247063
 21
93.4504463647
 31
0.0
  0
LINE
  5
1DA
330
183
100
AcDbEntity
  8
1-1MH
  6
Continuous
 62
     7
100
AcDbLine
 10
231.701247063
 20
83.9241669231
 30
0.0
 11
232.201247063
 21
84.2128420577
 31
0.0
  0
LINE
  5
1DB
330
183
100
AcDbEntity
  8
1-1MH
  6
Continuous
 62
     7
100
AcDbLine
 10
240.201247063
 20
98.0692485183
 30
0.0
 11
240.201247063
 21
98.6465987874
 31
0.0
  0
LINE
  5
1DC
330
183
100
AcDbEntity
  8
1-1MH
  6
Continuous
 62
     7
100
AcDbLine
 10
231.701247063
 20
93.7391214993
 30
0.0
 11
232.201247063
 21
93.4504463647
 31
0.0
  0
CIRCLE
  5
1DD
330
183
100
AcDbEntity
  8
1-1MH
  6
Continuous
 62
     7
100
AcDbCircle
 10
260.201247063
 20
88.8316442112
 30
0.0
 40
8.55
  0
CIRCLE
  5
1DE
330
183
100
AcDbEntity
  8
1-1MH
  6
Continuous
 62
     7
100
AcDbCircle
 10
260.201247063
 20
88.8316442112
 30
0.0
 40
9.5
  0
LINE
  5
1DF
330
183
100
AcDbEntity
  8
1-1MH
  6
Continuous
 62
     7
100
AcDbLine
 10
260.201247063
 20
92.584420961
 30
0.0
 11
256.951247063
 21
90.7080325861
 31
0.0
  0
LINE
  5
1E0
330
183
100
AcDbEntity
  8
1-1MH
  6
Continuous
 62
     7
100
AcDbLine
 10
257.201247063
 20
90.5636950188
 30
0.0
 11
260.201247063
 21
92.2957458264
 31
0.0
  0
LINE
  5
1E1
330
183
100
AcDbEntity
  8
1-1MH
  6
Continuous
 62
     7
100
AcDbLine
 10
256.951247063
 20
90.7080325861
 30
0.0
 11
256.951247063
 21
86.9552558364
 31
0.0
  0
LINE
  5
1E2
330
183
100
AcDbEntity
  8
1-1MH
  6
Continuous
 62
     7
100
AcDbLine
 10
257.201247063
 20
87.0995934036
 30
0.0
 11
257.201247063
 21
90.5636950188
 31
0.0
  0
LINE
  5
1E3
330
183
100
AcDbEntity
  8
1-1MH
  6
Continuous
 62
     7
100
AcDbLine
 10
257.201247063
 20
90.5636950188
 30
0.0
 11
256.951247063
 21
90.7080325861
 31
0.0
  0
LINE
  5
1E4
330
183
100
AcDbEntity
  8
1-1MH
  6
Continuous
 62
     7
100
AcDbLine
 10
256.951247063
 20
86.9552558364
 30
0.0
 11
260.201247063
 21
85.0788674615
 31
0.0
  0
LINE
  5
1E5
330
183
100
AcDbEntity
  8
1-1MH
  6
Continuous
 62
     7
100
AcDbLine
 10
260.201247063
 20
85.0788674615
 30
0.0
 11
260.201247063
 21
85.3675425961
 31
0.0
  0
LINE
  5
1E6
330
183
100
AcDbEntity
  8
1-1MH
  6
Continuous
 62
     7
100
AcDbLine
 10
260.201247063
 20
85.3675425961
 30
0.0
 11
257.201247063
 21
87.0995934036
 31
0.0
  0
LINE
  5
1E7
330
183
100
AcDbEntity
  8
1-1MH
  6
Continuous
 62
     7
100
AcDbLine
 10
257.201247063
 20
87.0995934036
 30
0.0
 11
256.951247063
 21
86.9552558364
 31
0.0
  0
LINE
  5
1E8
330
183
100
AcDbEntity
  8
1-1MH
  6
Continuous
 62
     7
100
AcDbLine
 10
260.201247063
 20
85.0788674615
 30
0.0
 11
263.451247063
 21
86.9552558364
 31
0.0
  0
LINE
  5
1E9
330
183
100
AcDbEntity
  8
1-1MH
  6
Continuous
 62
     7
100
AcDbLine
 10
263.201247063
 20
87.0995934036
 30
0.0
 11
260.201247063
 21
85.3675425961
 31
0.0
  0
LINE
  5
1EA
330
183
100
AcDbEntity
  8
1-1MH
  6
Continuous
 62
     7
100
AcDbLine
 10
263.451247063
 20
86.9552558364
 30
0.0
 11
263.451247063
 21
90.7080325861
 31
0.0
  0
LINE
  5
1EB
330
183
100
AcDbEntity
  8
1-1MH
  6
Continuous
 62
     7
100
AcDbLine
 10
263.451247063
 20
90.7080325861
 30
0.0
 11
263.201247063
 21
90.5636950188
 31
0.0
  0
LINE
  5
1EC
330
183
100
AcDbEntity
  8
1-1MH
  6
Continuous
 62
     7
100
AcDbLine
 10
263.201247063
 20
90.5636950188
 30
0.0
 11
263.201247063
 21
87.0995934036
 31
0.0
  0
LINE
  5
1ED
330
183
100
AcDbEntity
  8
1-1MH
  6
Continuous
 62
     7
100
AcDbLine
 10
263.201247063
 20
87.0995934036
 30
0.0
 11
263.451247063
 21
86.9552558364
 31
0.0
  0
LINE
  5
1EE
330
183
100
AcDbEntity
  8
1-1MH
  6
Continuous
 62
     7
100
AcDbLine
 10
263.451247063
 20
90.7080325861
 30
0.0
 11
260.201247063
 21
92.584420961
 31
0.0
  0
LINE
  5
1EF
330
183
100
AcDbEntity
  8
1-1MH
  6
Continuous
 62
     7
100
AcDbLine
 10
260.201247063
 20
92.584420961
 30
0.0
 11
260.201247063
 21
92.2957458264
 31
0.0
  0
LINE
  5
1F0
330
183
100
AcDbEntity
  8
1-1MH
  6
Continuous
 62
     7
100
AcDbLine
 10
260.201247063
 20
92.2957458264
 30
0.0
 11
263.201247063
 21
90.5636950188
 31
0.0
  0
LINE
  5
1F1
330
183
100
AcDbEntity
  8
1-1MH
  6
Continuous
 62
     7
100
AcDbLine
 10
284.201247063
 20
98.6465987874
 30
0.0
 11
285.701247063
 21
98.6465987874
 31
0.0
  0
LINE
  5
1F2
330
183
100
AcDbEntity
  8
1-1MH
  6
Continuous
 62
     7
100
AcDbLine
 10
284.201247063
 20
93.7391214993
 30
0.0
 11
285.701247063
 21
93.7391214993
 31
0.0
  0
LINE
  5
1F3
330
183
100
AcDbEntity
  8
1-1MH
  6
Continuous
 62
     7
100
AcDbLine
 10
285.701247063
 20
93.7391214993
 30
0.0
 11
285.701247063
 21
98.6465987874
 31
0.0
  0
LINE
  5
1F4
330
183
100
AcDbEntity
  8
1-1MH
  6
Continuous
 62
     7
100
AcDbLine
 10
284.201247063
 20
83.9241669231
 30
0.0
 11
285.701247063
 21
83.9241669231
 31
0.0
  0
LINE
  5
1F5
330
183
100
AcDbEntity
  8
1-1MH
  6
Continuous
 62
     7
100
AcDbLine
 10
285.701247063
 20
83.9241669231
 30
0.0
 11
285.701247063
 21
93.7391214993
 31
0.0
  0
LINE
  5
1F6
330
183
100
AcDbEntity
  8
1-1MH
  6
Continuous
 62
     7
100
AcDbLine
 10
284.201247063
 20
79.016689635
 30
0.0
 11
285.701247063
 21
79.016689635
 31
0.0
  0
LINE
  5
1F7
330
183
100
AcDbEntity
  8
1-1MH
  6
Continuous
 62
     7
100
AcDbLine
 10
285.701247063
 20
79.016689635
 30
0.0
 11
285.701247063
 21
83.9241669231
 31
0.0
  0
LINE
  5
1F8
330
183
100
AcDbEntity
  8
1-1MH
  6
Continuous
 62
     7
100
AcDbLine
 10
286.201247063
 20
93.4504463647
 30
0.0
 11
286.201247063
 21
84.2128420577
 31
0.0
  0
LINE
  5
1F9
330
183
100
AcDbEntity
  8
1-1MH
  6
Continuous
 62
     7
100
AcDbLine
 10
286.201247063
 20
84.2128420577
 30
0.0
 11
286.201247063
 21
79.5940399042
 31
0.0
  0
LINE
  5
1FA
330
183
100
AcDbEntity
  8
1-1MH
  6
Continuous
 62
     7
100
AcDbLine
 10
286.201247063
 20
98.0692485183
 30
0.0
 11
286.201247063
 21
93.4504463647
 31
0.0
  0
LINE
  5
1FB
330
183
100
AcDbEntity
  8
1-1MH
  6
Continuous
 62
     7
100
AcDbLine
 10
287.201247063
 20
82.3316442112
 30
0.0
 11
287.201247063
 21
95.3316442112
 31
0.0
  0
LINE
  5
1FC
330
183
100
AcDbEntity
  8
1-1MH
  6
Continuous
 62
     7
100
AcDbLine
 10
285.701247063
 20
98.6465987874
 30
0.0
 11
286.201247063
 21
98.0692485183
 31
0.0
  0
LINE
  5
1FD
330
183
100
AcDbEntity
  8
1-1MH
  6
Continuous
 62
     7
100
AcDbLine
 10
285.701247063
 20
79.016689635
 30
0.0
 11
286.201247063
 21
79.5940399042
 31
0.0
  0
LINE
  5
1FE
330
183
100
AcDbEntity
  8
1-1MH
  6
Continuous
 62
     7
100
AcDbLine
 10
286.201247063
 20
93.4504463647
 30
0.0
 11
285.701247063
 21
93.7391214993
 31
0.0
  0
LINE
  5
1FF
330
183
100
AcDbEntity
  8
1-1MH
  6
Continuous
 62
     7
100
AcDbLine
 10
285.701247063
 20
83.9241669231
 30
0.0
 11
286.201247063
 21
84.2128420577
 31
0.0
  0
LINE
  5
200
330
183
100
AcDbEntity
  8
1-1MH
  6
Continuous
 62
     7
100
AcDbLine
 10
284.2024646673
 20
128.8421021165
 30
0.0
 11
283.202465409
 21
129.8776316622
 31
0.0
  0
LINE
  5
201
330
183
100
AcDbEntity
  8
1-1MH
  6
Continuous
 62
     7
100
AcDbLine
 10
283.202465409
 20
47.7856567602
 30
0.0
 11
270.201247063
 21
47.3316442112
 31
0.0
  0
LINE
  5
202
330
183
100
AcDbEntity
  8
1-1MH
  6
Continuous
 62
     7
100
AcDbLine
 10
270.201247063
 20
130.3316442112
 30
0.0
 11
283.202465409
 21
129.8776316622
 31
0.0
  0
LINE
  5
203
330
183
100
AcDbEntity
  8
1-1MH
  6
Continuous
 62
     7
100
AcDbLine
 10
284.2024646673
 20
48.8211863059
 30
0.0
 11
283.202465409
 21
49.7868743644
 31
0.0
  0
LINE
  5
204
330
183
100
AcDbEntity
  8
1-1MH
  6
Continuous
 62
     7
100
AcDbLine
 10
283.202465409
 20
127.876414058
 30
0.0
 11
270.201247063
 21
128.330426607
 31
0.0
  0
LINE
  5
205
330
183
100
AcDbEntity
  8
1-1MH
  6
Continuous
 62
     7
100
AcDbLine
 10
270.201247063
 20
99.8316442112
 30
0.0
 11
270.201247063
 21
77.8316442112
 31
0.0
  0
LINE
  5
206
330
183
100
AcDbEntity
  8
1-1MH
  6
Continuous
 62
     7
100
AcDbLine
 10
270.201247063
 20
49.3328618154
 30
0.0
 11
283.202465409
 21
49.7868743644
 31
0.0
  0
LINE
  5
207
330
183
100
AcDbEntity
  8
1-1MH
  6
Continuous
 62
     7
100
AcDbLine
 10
285.201247063
 20
111.3316442112
 30
0.0
 11
284.201247063
 21
110.3316442112
 31
0.0
  0
LINE
  5
208
330
183
100
AcDbEntity
  8
1-1MH
  6
Continuous
 62
     7
100
AcDbLine
 10
285.201247063
 20
49.8554557536
 30
0.0
 11
284.2024646673
 21
48.8211863059
 31
0.0
  0
LINE
  5
209
330
183
100
AcDbEntity
  8
1-1MH
  6
Continuous
 62
     7
100
AcDbLine
 10
284.2024646673
 20
48.8211863059
 30
0.0
 11
283.202465409
 21
47.7856567602
 31
0.0
  0
LINE
  5
20A
330
183
100
AcDbEntity
  8
1-1MH
  6
Continuous
 62
     7
100
AcDbLine
 10
284.201247063
 20
67.3316442112
 30
0.0
 11
284.201247063
 21
110.3316442112
 31
0.0
  0
LINE
  5
20B
330
183
100
AcDbEntity
  8
1-1MH
  6
Continuous
 62
     7
100
AcDbLine
 10
285.201247063
 20
111.3316442112
 30
0.0
 11
285.201247063
 21
127.8078326688
 31
0.0
  0
LINE
  5
20C
330
183
100
AcDbEntity
  8
1-1MH
  6
Continuous
 62
     7
100
AcDbLine
 10
285.201247063
 20
127.8078326688
 30
0.0
 11
284.2024646673
 21
128.8421021165
 31
0.0
  0
LINE
  5
20D
330
183
100
AcDbEntity
  8
1-1MH
  6
Continuous
 62
     7
100
AcDbLine
 10
284.2024646673
 20
128.8421021165
 30
0.0
 11
283.202465409
 21
127.876414058
 31
0.0
  0
LINE
  5
20E
330
183
100
AcDbEntity
  8
1-1MH
  6
Continuous
 62
     7
100
AcDbLine
 10
283.202465409
 20
127.876414058
 30
0.0
 11
283.202465409
 21
49.7868743644
 31
0.0
  0
LINE
  5
20F
330
183
100
AcDbEntity
  8
1-1MH
  6
Continuous
 62
     7
100
AcDbLine
 10
285.201247063
 20
49.8554557536
 30
0.0
 11
285.201247063
 21
66.3316442112
 31
0.0
  0
LINE
  5
210
330
183
100
AcDbEntity
  8
1-1MH
  6
Continuous
 62
     7
100
AcDbLine
 10
285.201247063
 20
66.3316442112
 30
0.0
 11
284.201247063
 21
67.3316442112
 31
0.0
  0
LINE
  5
211
330
183
100
AcDbEntity
  8
1-1MH
  6
Continuous
 62
     7
100
AcDbLine
 10
231.4569857252
 20
46.3316442112
 30
0.0
 11
231.4569857252
 21
38.3316442112
 31
0.0
  0
LINE
  5
212
330
183
100
AcDbEntity
  8
1-1MH
  6
Continuous
 62
     7
100
AcDbLine
 10
248.4569857252
 20
38.3316442112
 30
0.0
 11
248.4569857252
 21
46.3316442112
 31
0.0
  0
LINE
  5
213
330
183
100
AcDbEntity
  8
1-1MH
  6
Continuous
 62
     7
100
AcDbLine
 10
232.9569857252
 20
36.3316442112
 30
0.0
 11
232.9569857252
 21
9.6316442112
 31
0.0
  0
LINE
  5
214
330
183
100
AcDbEntity
  8
1-1MH
  6
Continuous
 62
     7
100
AcDbLine
 10
246.9569857252
 20
30.8316442112
 30
0.0
 11
246.9569857252
 21
36.3316442112
 31
0.0
  0
LINE
  5
215
330
183
100
AcDbEntity
  8
1-1MH
  6
Continuous
 62
     7
100
AcDbLine
 10
246.9569857252
 20
9.6316442112
 30
0.0
 11
246.9569857252
 21
10.8206442112
 31
0.0
  0
LINE
  5
216
330
183
100
AcDbEntity
  8
1-1MH
  6
Continuous
 62
     7
100
AcDbLine
 10
232.9569857252
 20
9.6316442112
 30
0.0
 11
233.7569857252
 21
8.8316442112
 31
0.0
  0
LINE
  5
217
330
183
100
AcDbEntity
  8
1-1MH
  6
Continuous
 62
     7
100
AcDbLine
 10
246.1569857252
 20
8.8316442112
 30
0.0
 11
246.9569857252
 21
9.6316442112
 31
0.0
  0
LINE
  5
218
330
183
100
AcDbEntity
  8
1-1MH
  6
Continuous
 62
     7
100
AcDbLine
 10
232.9569857252
 20
38.3316442112
 30
0.0
 11
232.9569857252
 21
38.1788578067
 31
0.0
  0
LINE
  5
219
330
183
100
AcDbEntity
  8
1-1MH
  6
Continuous
 62
     7
100
AcDbLine
 10
246.9569857252
 20
38.1788578067
 30
0.0
 11
246.9569857252
 21
38.3316442112
 31
0.0
  0
ARC
  5
21A
330
183
100
AcDbEntity
  8
1-1MH
  6
Continuous
 62
     7
100
AcDbCircle
 10
232.5569857252
 20
37.7316442112
 30
0.0
 40
0.6000000000000204
100
AcDbArc
 50
0.0
 51
48.1896851042
  0
ARC
  5
21B
330
183
100
AcDbEntity
  8
1-1MH
  6
Continuous
 62
     7
100
AcDbCircle
 10
247.3569857252
 20
37.7316442112
 30
0.0
 40
0.6000000000000033
100
AcDbArc
 50
131.8103148958
 51
180.0
  0
LINE
  5
21C
330
183
100
AcDbEntity
  8
1-1MH
  6
Continuous
 62
     7
100
AcDbLine
 10
246.9569857252
 20
36.3316442112
 30
0.0
 11
246.7569857252
 21
37.0780543727
 31
0.0
  0
LINE
  5
21D
330
183
100
AcDbEntity
  8
1-1MH
  6
Continuous
 62
     7
100
AcDbLine
 10
233.1569857252
 20
37.0780543727
 30
0.0
 11
232.9569857252
 21
36.3316442112
 31
0.0
  0
LINE
  5
21E
330
183
100
AcDbEntity
  8
1-1MH
  6
Continuous
 62
     7
100
AcDbLine
 10
246.7569857252
 20
37.0780543727
 30
0.0
 11
246.7569857252
 21
37.7316442112
 31
0.0
  0
LINE
  5
21F
330
183
100
AcDbEntity
  8
1-1MH
  6
Continuous
 62
     7
100
AcDbLine
 10
233.1569857252
 20
37.7316442112
 30
0.0
 11
233.1569857252
 21
37.0780543727
 31
0.0
  0
ARC
  5
220
330
183
100
AcDbEntity
  8
1-1MH
  6
Continuous
 62
     7
100
AcDbCircle
 10
286.201247063
 20
95.3316442112
 30
0.0
 40
1.000000000000001
100
AcDbArc
 50
0.0
 51
90.0
  0
ARC
  5
221
330
183
100
AcDbEntity
  8
1-1MH
  6
Continuous
 62
     7
100
AcDbCircle
 10
286.201247063
 20
82.3316442112
 30
0.0
 40
1.0
100
AcDbArc
 50
270.0
 51
0.0
  0
ENDBLK
  5
223
330
183
100
AcDbEntity
  8
0
100
AcDbBlockEnd
  0
BLOCK
  5
29B
330
224
100
AcDbEntity
  8
0
100
AcDbBlockBegin
  2
SE3
 70
     0
 10
0.0
 20
0.0
 30
0.0
  3
SE3
  1

  0
LINE
  5
226
330
224
100
AcDbEntity
  8
1-1MH
  6
Continuous
 62
     7
100
AcDbLine
 10
400.3842096454
 20
264.7953194967
 30
0.0
 11
418.3842096454
 21
264.7953194967
 31
0.0
  0
LINE
  5
227
330
224
100
AcDbEntity
  8
1-1MH
  6
Continuous
 62
     7
100
AcDbLine
 10
420.3842096454
 20
262.7953194967
 30
0.0
 11
420.3842096454
 21
244.7953194967
 31
0.0
  0
LINE
  5
228
330
224
100
AcDbEntity
  8
1-1MH
  6
Continuous
 62
     7
100
AcDbLine
 10
335.3842096454
 20
151.7953194967
 30
0.0
 11
335.3842096454
 21
169.7953194967
 31
0.0
  0
LINE
  5
229
330
224
100
AcDbEntity
  8
1-1MH
  6
Continuous
 62
     7
100
AcDbLine
 10
336.3842096454
 20
243.7953194967
 30
0.0
 11
336.3842096454
 21
170.7953194967
 31
0.0
  0
LINE
  5
22A
330
224
100
AcDbEntity
  8
1-1MH
  6
Continuous
 62
     7
100
AcDbLine
 10
336.3842096454
 20
263.7953194967
 30
0.0
 11
335.3842096454
 21
262.7953194967
 31
0.0
  0
LINE
  5
22B
330
224
100
AcDbEntity
  8
1-1MH
  6
Continuous
 62
     7
100
AcDbLine
 10
337.3842096454
 20
264.7953194967
 30
0.0
 11
336.3842096454
 21
263.7953194967
 31
0.0
  0
LINE
  5
22C
330
224
100
AcDbEntity
  8
1-1MH
  6
Continuous
 62
     7
100
AcDbLine
 10
336.3842096454
 20
150.7953194967
 30
0.0
 11
337.3842096454
 21
149.7953194967
 31
0.0
  0
LINE
  5
22D
330
224
100
AcDbEntity
  8
1-1MH
  6
Continuous
 62
     7
100
AcDbLine
 10
335.3842096454
 20
151.7953194967
 30
0.0
 11
336.3842096454
 21
150.7953194967
 31
0.0
  0
LINE
  5
22E
330
224
100
AcDbEntity
  8
1-1MH
  6
Continuous
 62
     7
100
AcDbLine
 10
419.3842096454
 20
263.7953194967
 30
0.0
 11
418.3842096454
 21
264.7953194967
 31
0.0
  0
LINE
  5
22F
330
224
100
AcDbEntity
  8
1-1MH
  6
Continuous
 62
     7
100
AcDbLine
 10
420.3842096454
 20
262.7953194967
 30
0.0
 11
419.3842096454
 21
263.7953194967
 31
0.0
  0
LINE
  5
230
330
224
100
AcDbEntity
  8
1-1MH
  6
Continuous
 62
     7
100
AcDbLine
 10
419.3842096454
 20
150.7953194967
 30
0.0
 11
420.3842096454
 21
151.7953194967
 31
0.0
  0
LINE
  5
231
330
224
100
AcDbEntity
  8
1-1MH
  6
Continuous
 62
     7
100
AcDbLine
 10
418.3842096454
 20
149.7953194967
 30
0.0
 11
419.3842096454
 21
150.7953194967
 31
0.0
  0
LINE
  5
232
330
224
100
AcDbEntity
  8
1-1MH
  6
Continuous
 62
     7
100
AcDbLine
 10
335.3842096454
 20
244.7953194967
 30
0.0
 11
335.3842096454
 21
262.7953194967
 31
0.0
  0
LINE
  5
233
330
224
100
AcDbEntity
  8
1-1MH
  6
Continuous
 62
     7
100
AcDbLine
 10
419.3842096454
 20
170.7953194967
 30
0.0
 11
419.3842096454
 21
243.7953194967
 31
0.0
  0
LINE
  5
234
330
224
100
AcDbEntity
  8
1-1MH
  6
Continuous
 62
     7
100
AcDbLine
 10
356.6842096454
 20
150.7953194967
 30
0.0
 11
399.0842096454
 21
150.7953194967
 31
0.0
  0
LINE
  5
235
330
224
100
AcDbEntity
  8
1-1MH
  6
Continuous
 62
     7
100
AcDbLine
 10
355.6842096454
 20
149.7953194967
 30
0.0
 11
337.3842096454
 21
149.7953194967
 31
0.0
  0
LINE
  5
236
330
224
100
AcDbEntity
  8
1-1MH
  6
Continuous
 62
     7
100
AcDbLine
 10
355.6842096454
 20
149.7953194967
 30
0.0
 11
356.6842096454
 21
150.7953194967
 31
0.0
  0
LINE
  5
237
330
224
100
AcDbEntity
  8
1-1MH
  6
Continuous
 62
     7
100
AcDbLine
 10
420.3842096454
 20
169.7953194967
 30
0.0
 11
420.3842096454
 21
151.7953194967
 31
0.0
  0
LINE
  5
238
330
224
100
AcDbEntity
  8
1-1MH
  6
Continuous
 62
     7
100
AcDbLine
 10
337.3842096454
 20
264.7953194967
 30
0.0
 11
355.3842096454
 21
264.7953194967
 31
0.0
  0
LINE
  5
239
330
224
100
AcDbEntity
  8
1-1MH
  6
Continuous
 62
     7
100
AcDbLine
 10
336.3842096454
 20
170.7953194967
 30
0.0
 11
335.3842096454
 21
169.7953194967
 31
0.0
  0
LINE
  5
23A
330
224
100
AcDbEntity
  8
1-1MH
  6
Continuous
 62
     7
100
AcDbLine
 10
420.3842096454
 20
169.7953194967
 30
0.0
 11
419.3842096454
 21
170.7953194967
 31
0.0
  0
LINE
  5
23B
330
224
100
AcDbEntity
  8
1-1MH
  6
Continuous
 62
     7
100
AcDbLine
 10
418.3842096454
 20
149.7953194967
 30
0.0
 11
400.0842096454
 21
149.7953194967
 31
0.0
  0
LINE
  5
23C
330
224
100
AcDbEntity
  8
1-1MH
  6
Continuous
 62
     7
100
AcDbLine
 10
399.0842096454
 20
150.7953194967
 30
0.0
 11
400.0842096454
 21
149.7953194967
 31
0.0
  0
LINE
  5
23D
330
224
100
AcDbEntity
  8
1-1MH
  6
Continuous
 62
     7
100
AcDbLine
 10
418.3842096454
 20
151.7953194967
 30
0.0
 11
337.3842096454
 21
151.7953194967
 31
0.0
  0
LINE
  5
23E
330
224
100
AcDbEntity
  8
1-1MH
  6
Continuous
 62
     7
100
AcDbLine
 10
418.3842096454
 20
262.7953194967
 30
0.0
 11
418.3842096454
 21
151.7953194967
 31
0.0
  0
LINE
  5
23F
330
224
100
AcDbEntity
  8
1-1MH
  6
Continuous
 62
     7
100
AcDbLine
 10
337.3842096454
 20
262.7953194967
 30
0.0
 11
418.3842096454
 21
262.7953194967
 31
0.0
  0
LINE
  5
240
330
224
100
AcDbEntity
  8
1-1MH
  6
Continuous
 62
     7
100
AcDbLine
 10
337.3842096454
 20
151.7953194967
 30
0.0
 11
337.3842096454
 21
262.7953194967
 31
0.0
  0
CIRCLE
  5
241
330
224
100
AcDbEntity
  8
1-1MH
  6
Continuous
 62
     7
100
AcDbCircle
 10
364.3842096454
 20
167.2953194967
 30
0.0
 40
11.0
  0
LINE
  5
242
330
224
100
AcDbEntity
  8
1-1MH
  6
Continuous
 62
     7
100
AcDbLine
 10
419.3842096454
 20
263.7953194967
 30
0.0
 11
418.3842096454
 21
262.7953194967
 31
0.0
  0
LINE
  5
243
330
224
100
AcDbEntity
  8
1-1MH
  6
Continuous
 62
     7
100
AcDbLine
 10
400.3842096454
 20
264.7953194967
 30
0.0
 11
399.3842096454
 21
263.7953194967
 31
0.0
  0
LINE
  5
244
330
224
100
AcDbEntity
  8
1-1MH
  6
Continuous
 62
     7
100
AcDbLine
 10
399.3842096454
 20
263.7953194967
 30
0.0
 11
356.3842096454
 21
263.7953194967
 31
0.0
  0
LINE
  5
245
330
224
100
AcDbEntity
  8
1-1MH
  6
Continuous
 62
     7
100
AcDbLine
 10
356.3842096454
 20
263.7953194967
 30
0.0
 11
355.3842096454
 21
264.7953194967
 31
0.0
  0
LINE
  5
246
330
224
100
AcDbEntity
  8
1-1MH
  6
Continuous
 62
     7
100
AcDbLine
 10
336.3842096454
 20
263.7953194967
 30
0.0
 11
337.3842096454
 21
262.7953194967
 31
0.0
  0
LINE
  5
247
330
224
100
AcDbEntity
  8
1-1MH
  6
Continuous
 62
     7
100
AcDbLine
 10
419.3842096454
 20
150.7953194967
 30
0.0
 11
418.3842096454
 21
151.7953194967
 31
0.0
  0
LINE
  5
248
330
224
100
AcDbEntity
  8
1-1MH
  6
Continuous
 62
     7
100
AcDbLine
 10
419.3842096454
 20
243.7953194967
 30
0.0
 11
420.3842096454
 21
244.7953194967
 31
0.0
  0
LINE
  5
249
330
224
100
AcDbEntity
  8
1-1MH
  6
Continuous
 62
     7
100
AcDbLine
 10
335.3842096454
 20
244.7953194967
 30
0.0
 11
336.3842096454
 21
243.7953194967
 31
0.0
  0
LINE
  5
24A
330
224
100
AcDbEntity
  8
1-1MH
  6
Continuous
 62
     7
100
AcDbLine
 10
337.3842096454
 20
151.7953194967
 30
0.0
 11
336.3842096454
 21
150.7953194967
 31
0.0
  0
LINE
  5
24B
330
224
100
AcDbEntity
  8
1-1MH
  6
Continuous
 62
     7
100
AcDbLine
 10
419.8842096454
 20
218.6110181007
 30
0.0
 11
419.8842096454
 21
222.2953194967
 31
0.0
  0
LINE
  5
24C
330
224
100
AcDbEntity
  8
1-1MH
  6
Continuous
 62
     7
100
AcDbLine
 10
419.8842096454
 20
170.9796208926
 30
0.0
 11
419.8842096454
 21
170.2953194967
 31
0.0
  0
LINE
  5
24D
330
224
100
AcDbEntity
  8
1-1MH
  6
Continuous
 62
     7
100
AcDbLine
 10
419.8842096454
 20
170.9796208926
 30
0.0
 11
419.8842096454
 21
194.7953194967
 31
0.0
  0
LINE
  5
24E
330
224
100
AcDbEntity
  8
1-1MH
  6
Continuous
 62
     7
100
AcDbLine
 10
419.8842096454
 20
194.7953194967
 30
0.0
 11
419.8842096454
 21
218.6110181007
 31
0.0
  0
LINE
  5
24F
330
224
100
AcDbEntity
  8
1-1MH
  6
Continuous
 62
     7
100
AcDbLine
 10
428.3842096454
 20
203.2953194967
 30
0.0
 11
428.3842096454
 21
186.2953194967
 31
0.0
  0
LINE
  5
250
330
224
100
AcDbEntity
  8
1-1MH
  6
Continuous
 62
     7
100
AcDbLine
 10
457.0842096454
 20
201.7953194967
 30
0.0
 11
457.0842096454
 21
187.7953194967
 31
0.0
  0
LINE
  5
251
330
224
100
AcDbEntity
  8
1-1MH
  6
Continuous
 62
     7
100
AcDbLine
 10
457.8842096454
 20
200.9953194967
 30
0.0
 11
457.8842096454
 21
188.5953194967
 31
0.0
  0
LINE
  5
252
330
224
100
AcDbEntity
  8
1-1MH
  6
Continuous
 62
     7
100
AcDbLine
 10
428.5369960499
 20
201.7953194967
 30
0.0
 11
428.5369960499
 21
187.7953194967
 31
0.0
  0
LINE
  5
253
330
224
100
AcDbEntity
  8
1-1MH
  6
Continuous
 62
     7
100
AcDbLine
 10
428.9842096454
 20
201.5953194967
 30
0.0
 11
428.9842096454
 21
187.9953194967
 31
0.0
  0
LINE
  5
254
330
224
100
AcDbEntity
  8
1-1MH
  6
Continuous
 62
     7
100
AcDbLine
 10
430.3842096454
 20
201.7953194967
 30
0.0
 11
430.3842096454
 21
187.7953194967
 31
0.0
  0
LINE
  5
255
330
224
100
AcDbEntity
  8
1-1MH
  6
Continuous
 62
     7
100
AcDbLine
 10
429.6377994839
 20
201.5953194967
 30
0.0
 11
429.6377994839
 21
187.9953194967
 31
0.0
  0
LINE
  5
256
330
224
100
AcDbEntity
  8
1-1MH
  6
Continuous
 62
     7
100
AcDbLine
 10
387.6991642216
 20
265.2953194967
 30
0.0
 11
382.7916869335
 21
265.2953194967
 31
0.0
  0
LINE
  5
257
330
224
100
AcDbEntity
  8
1-1MH
  6
Continuous
 62
     7
100
AcDbLine
 10
387.6991642216
 20
265.2953194967
 30
0.0
 11
387.6991642216
 21
263.7953194967
 31
0.0
  0
LINE
  5
258
330
224
100
AcDbEntity
  8
1-1MH
  6
Continuous
 62
     7
100
AcDbLine
 10
372.9767323573
 20
265.2953194967
 30
0.0
 11
368.0692550692
 21
265.2953194967
 31
0.0
  0
LINE
  5
259
330
224
100
AcDbEntity
  8
1-1MH
  6
Continuous
 62
     7
100
AcDbLine
 10
368.0692550692
 20
265.2953194967
 30
0.0
 11
368.0692550692
 21
263.7953194967
 31
0.0
  0
LINE
  5
25A
330
224
100
AcDbEntity
  8
1-1MH
  6
Continuous
 62
     7
100
AcDbLine
 10
382.7916869335
 20
263.7953194967
 30
0.0
 11
382.7916869335
 21
265.2953194967
 31
0.0
  0
LINE
  5
25B
330
224
100
AcDbEntity
  8
1-1MH
  6
Continuous
 62
     7
100
AcDbLine
 10
382.7916869335
 20
265.2953194967
 30
0.0
 11
372.9767323573
 21
265.2953194967
 31
0.0
  0
LINE
  5
25C
330
224
100
AcDbEntity
  8
1-1MH
  6
Continuous
 62
     7
100
AcDbLine
 10
372.9767323573
 20
265.2953194967
 30
0.0
 11
372.9767323573
 21
263.7953194967
 31
0.0
  0
LINE
  5
25D
330
224
100
AcDbEntity
  8
1-1MH
  6
Continuous
 62
     7
100
AcDbLine
 10
368.6466053384
 20
265.7953194967
 30
0.0
 11
373.2654074919
 21
265.7953194967
 31
0.0
  0
LINE
  5
25E
330
224
100
AcDbEntity
  8
1-1MH
  6
Continuous
 62
     7
100
AcDbLine
 10
373.2654074919
 20
265.7953194967
 30
0.0
 11
382.5030117989
 21
265.7953194967
 31
0.0
  0
LINE
  5
25F
330
224
100
AcDbEntity
  8
1-1MH
  6
Continuous
 62
     7
100
AcDbLine
 10
382.5030117989
 20
265.7953194967
 30
0.0
 11
387.1218139524
 21
265.7953194967
 31
0.0
  0
LINE
  5
260
330
224
100
AcDbEntity
  8
1-1MH
  6
Continuous
 62
     7
100
AcDbLine
 10
386.3375626454
 20
267.7953194967
 30
0.0
 11
369.3375626454
 21
267.7953194967
 31
0.0
  0
LINE
  5
261
330
224
100
AcDbEntity
  8
1-1MH
  6
Continuous
 62
     7
100
AcDbLine
 10
384.8375626454
 20
277.7953194967
 30
0.0
 11
370.8375626454
 21
277.7953194967
 31
0.0
  0
LINE
  5
262
330
224
100
AcDbEntity
  8
1-1MH
  6
Continuous
 62
     7
100
AcDbLine
 10
386.3375626454
 20
276.2953194967
 30
0.0
 11
369.3375626454
 21
276.2953194967
 31
0.0
  0
LINE
  5
263
330
224
100
AcDbEntity
  8
1-1MH
  6
Continuous
 62
     7
100
AcDbLine
 10
387.1218139524
 20
265.7953194967
 30
0.0
 11
387.6991642216
 21
265.2953194967
 31
0.0
  0
LINE
  5
264
330
224
100
AcDbEntity
  8
1-1MH
  6
Continuous
 62
     7
100
AcDbLine
 10
382.7916869335
 20
265.2953194967
 30
0.0
 11
382.5030117989
 21
265.7953194967
 31
0.0
  0
LINE
  5
265
330
224
100
AcDbEntity
  8
1-1MH
  6
Continuous
 62
     7
100
AcDbLine
 10
368.6466053384
 20
265.7953194967
 30
0.0
 11
368.0692550692
 21
265.2953194967
 31
0.0
  0
LINE
  5
266
330
224
100
AcDbEntity
  8
1-1MH
  6
Continuous
 62
     7
100
AcDbLine
 10
372.9767323573
 20
265.2953194967
 30
0.0
 11
373.2654074919
 21
265.7953194967
 31
0.0
  0
LINE
  5
267
330
224
100
AcDbEntity
  8
1-1MH
  6
Continuous
 62
     7
100
AcDbLine
 10
335.8842096454
 20
222.2953194967
 30
0.0
 11
335.8842096454
 21
218.6110181007
 31
0.0
  0
LINE
  5
268
330
224
100
AcDbEntity
  8
1-1MH
  6
Continuous
 62
     7
100
AcDbLine
 10
335.8842096454
 20
218.6110181007
 30
0.0
 11
335.8842096454
 21
194.7953194967
 31
0.0
  0
LINE
  5
269
330
224
100
AcDbEntity
  8
1-1MH
  6
Continuous
 62
     7
100
AcDbLine
 10
335.8842096454
 20
194.7953194967
 30
0.0
 11
335.8842096454
 21
170.9796208926
 31
0.0
  0
LINE
  5
26A
330
224
100
AcDbEntity
  8
1-1MH
  6
Continuous
 62
     7
100
AcDbLine
 10
335.8842096454
 20
170.2953194967
 30
0.0
 11
335.8842096454
 21
170.9796208926
 31
0.0
  0
CIRCLE
  5
26B
330
224
100
AcDbEntity
  8
1-1MH
  6
Continuous
 62
     7
100
AcDbCircle
 10
364.3842096454
 20
167.2953194967
 30
0.0
 40
8.55
  0
CIRCLE
  5
26C
330
224
100
AcDbEntity
  8
1-1MH
  6
Continuous
 62
     7
100
AcDbCircle
 10
364.3842096454
 20
167.2953194967
 30
0.0
 40
9.5
  0
LINE
  5
26D
330
224
100
AcDbEntity
  8
1-1MH
  6
Continuous
 62
     7
100
AcDbLine
 10
360.6314328957
 20
167.2953194967
 30
0.0
 11
362.5078212705
 21
164.0453194967
 31
0.0
  0
LINE
  5
26E
330
224
100
AcDbEntity
  8
1-1MH
  6
Continuous
 62
     7
100
AcDbLine
 10
362.6521588378
 20
164.2953194967
 30
0.0
 11
360.9201080303
 21
167.2953194967
 31
0.0
  0
LINE
  5
26F
330
224
100
AcDbEntity
  8
1-1MH
  6
Continuous
 62
     7
100
AcDbLine
 10
362.5078212705
 20
164.0453194967
 30
0.0
 11
366.2605980203
 21
164.0453194967
 31
0.0
  0
LINE
  5
270
330
224
100
AcDbEntity
  8
1-1MH
  6
Continuous
 62
     7
100
AcDbLine
 10
366.116260453
 20
164.2953194967
 30
0.0
 11
362.6521588378
 21
164.2953194967
 31
0.0
  0
LINE
  5
271
330
224
100
AcDbEntity
  8
1-1MH
  6
Continuous
 62
     7
100
AcDbLine
 10
362.6521588378
 20
164.2953194967
 30
0.0
 11
362.5078212705
 21
164.0453194967
 31
0.0
  0
LINE
  5
272
330
224
100
AcDbEntity
  8
1-1MH
  6
Continuous
 62
     7
100
AcDbLine
 10
366.2605980203
 20
164.0453194967
 30
0.0
 11
368.1369863951
 21
167.2953194967
 31
0.0
  0
LINE
  5
273
330
224
100
AcDbEntity
  8
1-1MH
  6
Continuous
 62
     7
100
AcDbLine
 10
368.1369863951
 20
167.2953194967
 30
0.0
 11
367.8483112606
 21
167.2953194967
 31
0.0
  0
LINE
  5
274
330
224
100
AcDbEntity
  8
1-1MH
  6
Continuous
 62
     7
100
AcDbLine
 10
367.8483112606
 20
167.2953194967
 30
0.0
 11
366.116260453
 21
164.2953194967
 31
0.0
  0
LINE
  5
275
330
224
100
AcDbEntity
  8
1-1MH
  6
Continuous
 62
     7
100
AcDbLine
 10
366.116260453
 20
164.2953194967
 30
0.0
 11
366.2605980203
 21
164.0453194967
 31
0.0
  0
LINE
  5
276
330
224
100
AcDbEntity
  8
1-1MH
  6
Continuous
 62
     7
100
AcDbLine
 10
368.1369863951
 20
167.2953194967
 30
0.0
 11
366.2605980203
 21
170.5453194967
 31
0.0
  0
LINE
  5
277
330
224
100
AcDbEntity
  8
1-1MH
  6
Continuous
 62
     7
100
AcDbLine
 10
366.116260453
 20
170.2953194967
 30
0.0
 11
367.8483112606
 21
167.2953194967
 31
0.0
  0
LINE
  5
278
330
224
100
AcDbEntity
  8
1-1MH
  6
Continuous
 62
     7
100
AcDbLine
 10
366.2605980203
 20
170.5453194967
 30
0.0
 11
362.5078212705
 21
170.5453194967
 31
0.0
  0
LINE
  5
279
330
224
100
AcDbEntity
  8
1-1MH
  6
Continuous
 62
     7
100
AcDbLine
 10
362.5078212705
 20
170.5453194967
 30
0.0
 11
362.6521588378
 21
170.2953194967
 31
0.0
  0
LINE
  5
27A
330
224
100
AcDbEntity
  8
1-1MH
  6
Continuous
 62
     7
100
AcDbLine
 10
362.6521588378
 20
170.2953194967
 30
0.0
 11
366.116260453
 21
170.2953194967
 31
0.0
  0
LINE
  5
27B
330
224
100
AcDbEntity
  8
1-1MH
  6
Continuous
 62
     7
100
AcDbLine
 10
366.116260453
 20
170.2953194967
 30
0.0
 11
366.2605980203
 21
170.5453194967
 31
0.0
  0
LINE
  5
27C
330
224
100
AcDbEntity
  8
1-1MH
  6
Continuous
 62
     7
100
AcDbLine
 10
362.5078212705
 20
170.5453194967
 30
0.0
 11
360.6314328957
 21
167.2953194967
 31
0.0
  0
LINE
  5
27D
330
224
100
AcDbEntity
  8
1-1MH
  6
Continuous
 62
     7
100
AcDbLine
 10
360.6314328957
 20
167.2953194967
 30
0.0
 11
360.9201080303
 21
167.2953194967
 31
0.0
  0
LINE
  5
27E
330
224
100
AcDbEntity
  8
1-1MH
  6
Continuous
 62
     7
100
AcDbLine
 10
360.9201080303
 20
167.2953194967
 30
0.0
 11
362.6521588378
 21
170.2953194967
 31
0.0
  0
CIRCLE
  5
27F
330
224
100
AcDbEntity
  8
1-1MH
  6
Continuous
 62
     7
100
AcDbCircle
 10
377.8842096454
 20
230.8953194967
 30
0.0
 40
20.0
  0
CIRCLE
  5
280
330
224
100
AcDbEntity
  8
1-1MH
  6
Continuous
 62
     7
100
AcDbCircle
 10
360.322799213
 20
248.6884885124
 30
0.0
 40
2.75000000000011
  0
CIRCLE
  5
281
330
224
100
AcDbEntity
  8
1-1MH
  6
Continuous
 62
     7
100
AcDbCircle
 10
395.4456200778
 20
248.6884885124
 30
0.0
 40
2.749999999999489
  0
CIRCLE
  5
282
330
224
100
AcDbEntity
  8
1-1MH
  6
Continuous
 62
     7
100
AcDbCircle
 10
395.4456200778
 20
213.1021504809
 30
0.0
 40
2.749999999999291
  0
CIRCLE
  5
283
330
224
100
AcDbEntity
  8
1-1MH
  6
Continuous
 62
     7
100
AcDbCircle
 10
360.322799213
 20
213.1021504809
 30
0.0
 40
2.749999999999999
  0
CIRCLE
  5
284
330
224
100
AcDbEntity
  8
1-1MH
  6
Continuous
 62
     7
100
AcDbCircle
 10
377.8842096454
 20
230.8953194967
 30
0.0
 40
4.577350269189637
  0
ARC
  5
285
330
224
100
AcDbEntity
  8
1-1MH
  6
Continuous
 62
     7
100
AcDbCircle
 10
419.3842096454
 20
222.2953194967
 30
0.0
 40
0.5000000000000004
100
AcDbArc
 50
0.0
 51
90.0
  0
LINE
  5
286
330
224
100
AcDbEntity
  8
1-1MH
  6
Continuous
 62
     7
100
AcDbLine
 10
419.8842096454
 20
186.2953194967
 30
0.0
 11
428.3842096454
 21
186.2953194967
 31
0.0
  0
LINE
  5
287
330
224
100
AcDbEntity
  8
1-1MH
  6
Continuous
 62
     7
100
AcDbLine
 10
428.3842096454
 20
203.2953194967
 30
0.0
 11
419.8842096454
 21
203.2953194967
 31
0.0
  0
LINE
  5
288
330
224
100
AcDbEntity
  8
1-1MH
  6
Continuous
 62
     7
100
AcDbLine
 10
430.3842096454
 20
187.7953194967
 30
0.0
 11
457.0842096454
 21
187.7953194967
 31
0.0
  0
LINE
  5
289
330
224
100
AcDbEntity
  8
1-1MH
  6
Continuous
 62
     7
100
AcDbLine
 10
457.0842096454
 20
201.7953194967
 30
0.0
 11
430.3842096454
 21
201.7953194967
 31
0.0
  0
LINE
  5
28A
330
224
100
AcDbEntity
  8
1-1MH
  6
Continuous
 62
     7
100
AcDbLine
 10
457.0842096454
 20
187.7953194967
 30
0.0
 11
457.8842096454
 21
188.5953194967
 31
0.0
  0
LINE
  5
28B
330
224
100
AcDbEntity
  8
1-1MH
  6
Continuous
 62
     7
100
AcDbLine
 10
457.8842096454
 20
200.9953194967
 30
0.0
 11
457.0842096454
 21
201.7953194967
 31
0.0
  0
LINE
  5
28C
330
224
100
AcDbEntity
  8
1-1MH
  6
Continuous
 62
     7
100
AcDbLine
 10
428.3842096454
 20
187.7953194967
 30
0.0
 11
428.5369960499
 21
187.7953194967
 31
0.0
  0
LINE
  5
28D
330
224
100
AcDbEntity
  8
1-1MH
  6
Continuous
 62
     7
100
AcDbLine
 10
428.5369960499
 20
201.7953194967
 30
0.0
 11
428.3842096454
 21
201.7953194967
 31
0.0
  0
ARC
  5
28E
330
224
100
AcDbEntity
  8
1-1MH
  6
Continuous
 62
     7
100
AcDbCircle
 10
428.9842096454
 20
187.3953194967
 30
0.0
 40
0.6000000000000203
100
AcDbArc
 50
90.0
 51
138.1896851042
  0
ARC
  5
28F
330
224
100
AcDbEntity
  8
1-1MH
  6
Continuous
 62
     7
100
AcDbCircle
 10
428.9842096454
 20
202.1953194967
 30
0.0
 40
0.6000000000000033
100
AcDbArc
 50
221.8103148958
 51
270.0
  0
LINE
  5
290
330
224
100
AcDbEntity
  8
1-1MH
  6
Continuous
 62
     7
100
AcDbLine
 10
430.3842096454
 20
201.7953194967
 30
0.0
 11
429.6377994839
 21
201.5953194967
 31
0.0
  0
LINE
  5
291
330
224
100
AcDbEntity
  8
1-1MH
  6
Continuous
 62
     7
100
AcDbLine
 10
429.6377994839
 20
187.9953194967
 30
0.0
 11
430.3842096454
 21
187.7953194967
 31
0.0
  0
LINE
  5
292
330
224
100
AcDbEntity
  8
1-1MH
  6
Continuous
 62
     7
100
AcDbLine
 10
429.6377994839
 20
201.5953194967
 30
0.0
 11
428.9842096454
 21
201.5953194967
 31
0.0
  0
LINE
  5
293
330
224
100
AcDbEntity
  8
1-1MH
  6
Continuous
 62
     7
100
AcDbLine
 10
428.9842096454
 20
187.9953194967
 30
0.0
 11
429.6377994839
 21
187.9953194967
 31
0.0
  0
LINE
  5
294
330
224
100
AcDbEntity
  8
1-1MH
  6
Continuous
 62
     7
100
AcDbLine
 10
372.3842096454
 20
267.7953194967
 30
0.0
 11
372.3842096454
 21
265.7953194967
 31
0.0
  0
LINE
  5
295
330
224
100
AcDbEntity
  8
1-1MH
  6
Continuous
 62
     7
100
AcDbLine
 10
383.3842096454
 20
265.7953194967
 30
0.0
 11
383.3842096454
 21
267.7953194967
 31
0.0
  0
LINE
  5
296
330
224
100
AcDbEntity
  8
1-1MH
  6
Continuous
 62
     7
100
AcDbLine
 10
369.3375626454
 20
276.2953194967
 30
0.0
 11
369.3375626454
 21
267.7953194967
 31
0.0
  0
LINE
  5
297
330
224
100
AcDbEntity
  8
1-1MH
  6
Continuous
 62
     7
100
AcDbLine
 10
386.3375626454
 20
267.7953194967
 30
0.0
 11
386.3375626454
 21
276.2953194967
 31
0.0
  0
ARC
  5
298
330
224
100
AcDbEntity
  8
1-1MH
  6
Continuous
 62
     7
100
AcDbCircle
 10
370.8375626454
 20
276.2953194967
 30
0.0
 40
1.500000000000001
100
AcDbArc
 50
90.0
 51
180.0
  0
ARC
  5
299
330
224
100
AcDbEntity
  8
1-1MH
  6
Continuous
 62
     7
100
AcDbCircle
 10
384.8375626454
 20
276.2953194967
 30
0.0
 40
1.5
100
AcDbArc
 50
0.0
 51
90.0
  0
ARC
  5
29A
330
224
100
AcDbEntity
  8
1-1MH
  6
Continuous
 62
     7
100
AcDbCircle
 10
336.3842096454
 20
222.2953194967
 30
0.0
 40
0.5000000000000004
100
AcDbArc
 50
90.0
 51
180.0
  0
ENDBLK
  5
29C
330
224
100
AcDbEntity
  8
0
100
AcDbBlockEnd
  0
BLOCK
  5
426
330
29D
100
AcDbEntity
  8
0
100
AcDbBlockBegin
  2
SE4
 70
     0
 10
0.0
 20
0.0
 30
0.0
  3
SE4
  1

  0
LINE
  5
29F
330
29D
100
AcDbEntity
  8
1-1MH
  6
Continuous
 62
     7
100
AcDbLine
 10
87.9617668417
 20
264.7953194967
 30
0.0
 11
69.9617668417
 21
264.7953194967
 31
0.0
  0
LINE
  5
2A0
330
29D
100
AcDbEntity
  8
1-1MH
  6
Continuous
 62
     7
100
AcDbLine
 10
67.9617668417
 20
262.7953194967
 30
0.0
 11
67.9617668417
 21
244.7953194967
 31
0.0
  0
LINE
  5
2A1
330
29D
100
AcDbEntity
  8
1-1MH
  6
Continuous
 62
     7
100
AcDbLine
 10
152.9617668417
 20
151.7953194967
 30
0.0
 11
152.9617668417
 21
169.7953194967
 31
0.0
  0
LINE
  5
2A2
330
29D
100
AcDbEntity
  8
1-1MH
  6
Continuous
 62
     7
100
AcDbLine
 10
151.9617668417
 20
243.7953194967
 30
0.0
 11
151.9617668417
 21
170.7953194967
 31
0.0
  0
LINE
  5
2A3
330
29D
100
AcDbEntity
  8
1-1MH
  6
Continuous
 62
     7
100
AcDbLine
 10
152.9617668417
 20
262.7953194967
 30
0.0
 11
150.9617668417
 21
264.7953194967
 31
0.0
  0
LINE
  5
2A4
330
29D
100
AcDbEntity
  8
1-1MH
  6
Continuous
 62
     7
100
AcDbLine
 10
150.9617668417
 20
149.7953194967
 30
0.0
 11
152.9617668417
 21
151.7953194967
 31
0.0
  0
LINE
  5
2A5
330
29D
100
AcDbEntity
  8
1-1MH
  6
Continuous
 62
     7
100
AcDbLine
 10
69.9617668417
 20
264.7953194967
 30
0.0
 11
67.9617668417
 21
262.7953194967
 31
0.0
  0
LINE
  5
2A6
330
29D
100
AcDbEntity
  8
1-1MH
  6
Continuous
 62
     7
100
AcDbLine
 10
69.9617668417
 20
149.7953194967
 30
0.0
 11
67.9617668417
 21
151.7953194967
 31
0.0
  0
LINE
  5
2A7
330
29D
100
AcDbEntity
  8
1-1MH
  6
Continuous
 62
     7
100
AcDbLine
 10
152.9617668417
 20
244.7953194967
 30
0.0
 11
152.9617668417
 21
262.7953194967
 31
0.0
  0
LINE
  5
2A8
330
29D
100
AcDbEntity
  8
1-1MH
  6
Continuous
 62
     7
100
AcDbLine
 10
68.9617668417
 20
170.7953194967
 30
0.0
 11
68.9617668417
 21
243.7953194967
 31
0.0
  0
LINE
  5
2A9
330
29D
100
AcDbEntity
  8
1-1MH
  6
Continuous
 62
     7
100
AcDbLine
 10
131.6617668417
 20
150.7953194967
 30
0.0
 11
89.2617668417
 21
150.7953194967
 31
0.0
  0
LINE
  5
2AA
330
29D
100
AcDbEntity
  8
1-1MH
  6
Continuous
 62
     7
100
AcDbLine
 10
132.6617668417
 20
149.7953194967
 30
0.0
 11
150.9617668417
 21
149.7953194967
 31
0.0
  0
LINE
  5
2AB
330
29D
100
AcDbEntity
  8
1-1MH
  6
Continuous
 62
     7
100
AcDbLine
 10
132.6617668417
 20
149.7953194967
 30
0.0
 11
131.6617668417
 21
150.7953194967
 31
0.0
  0
LINE
  5
2AC
330
29D
100
AcDbEntity
  8
1-1MH
  6
Continuous
 62
     7
100
AcDbLine
 10
67.9617668417
 20
169.7953194967
 30
0.0
 11
67.9617668417
 21
151.7953194967
 31
0.0
  0
LINE
  5
2AD
330
29D
100
AcDbEntity
  8
1-1MH
  6
Continuous
 62
     7
100
AcDbLine
 10
150.9617668417
 20
264.7953194967
 30
0.0
 11
132.9617668417
 21
264.7953194967
 31
0.0
  0
LINE
  5
2AE
330
29D
100
AcDbEntity
  8
1-1MH
  6
Continuous
 62
     7
100
AcDbLine
 10
69.9617668417
 20
149.7953194967
 30
0.0
 11
88.2617668417
 21
149.7953194967
 31
0.0
  0
LINE
  5
2AF
330
29D
100
AcDbEntity
  8
1-1MH
  6
Continuous
 62
     7
100
AcDbLine
 10
67.9617668417
 20
169.7953194967
 30
0.0
 11
68.9617668417
 21
170.7953194967
 31
0.0
  0
LINE
  5
2B0
330
29D
100
AcDbEntity
  8
1-1MH
  6
Continuous
 62
     7
100
AcDbLine
 10
89.2617668417
 20
150.7953194967
 30
0.0
 11
88.2617668417
 21
149.7953194967
 31
0.0
  0
LINE
  5
2B1
330
29D
100
AcDbEntity
  8
1-1MH
  6
Continuous
 62
     7
100
AcDbLine
 10
151.9617668417
 20
170.7953194967
 30
0.0
 11
152.9617668417
 21
169.7953194967
 31
0.0
  0
LINE
  5
2B2
330
29D
100
AcDbEntity
  8
1-1MH
  6
Continuous
 62
     7
100
AcDbLine
 10
152.9617668417
 20
244.7953194967
 30
0.0
 11
151.9617668417
 21
243.7953194967
 31
0.0
  0
LINE
  5
2B3
330
29D
100
AcDbEntity
  8
1-1MH
  6
Continuous
 62
     7
100
AcDbLine
 10
131.9617668417
 20
263.7953194967
 30
0.0
 11
132.9617668417
 21
264.7953194967
 31
0.0
  0
LINE
  5
2B4
330
29D
100
AcDbEntity
  8
1-1MH
  6
Continuous
 62
     7
100
AcDbLine
 10
121.4617668417
 20
263.7953194967
 30
0.0
 11
131.9617668417
 21
263.7953194967
 31
0.0
  0
LINE
  5
2B5
330
29D
100
AcDbEntity
  8
1-1MH
  6
Continuous
 62
     7
100
AcDbLine
 10
88.9617668417
 20
263.7953194967
 30
0.0
 11
99.4617668417
 21
263.7953194967
 31
0.0
  0
LINE
  5
2B6
330
29D
100
AcDbEntity
  8
1-1MH
  6
Continuous
 62
     7
100
AcDbLine
 10
87.9617668417
 20
264.7953194967
 30
0.0
 11
88.9617668417
 21
263.7953194967
 31
0.0
  0
LINE
  5
2B7
330
29D
100
AcDbEntity
  8
1-1MH
  6
Continuous
 62
     7
100
AcDbLine
 10
68.9617668417
 20
243.7953194967
 30
0.0
 11
67.9617668417
 21
244.7953194967
 31
0.0
  0
LINE
  5
2B8
330
29D
100
AcDbEntity
  8
1-1MH
  6
Continuous
 62
     7
100
AcDbLine
 10
68.4617668417
 20
218.6110181007
 30
0.0
 11
68.4617668417
 21
222.2953194967
 31
0.0
  0
LINE
  5
2B9
330
29D
100
AcDbEntity
  8
1-1MH
  6
Continuous
 62
     7
100
AcDbLine
 10
68.4617668417
 20
218.6110181007
 30
0.0
 11
68.4617668417
 21
194.7953194967
 31
0.0
  0
LINE
  5
2BA
330
29D
100
AcDbEntity
  8
1-1MH
  6
Continuous
 62
     7
100
AcDbLine
 10
68.4617668417
 20
194.7953194967
 30
0.0
 11
68.4617668417
 21
170.9796208926
 31
0.0
  0
LINE
  5
2BB
330
29D
100
AcDbEntity
  8
1-1MH
  6
Continuous
 62
     7
100
AcDbLine
 10
68.4617668417
 20
170.9796208926
 30
0.0
 11
68.4617668417
 21
170.2953194967
 31
0.0
  0
LINE
  5
2BC
330
29D
100
AcDbEntity
  8
1-1MH
  6
Continuous
 62
     7
100
AcDbLine
 10
59.9617668417
 20
203.2953194967
 30
0.0
 11
59.9617668417
 21
186.2953194967
 31
0.0
  0
LINE
  5
2BD
330
29D
100
AcDbEntity
  8
1-1MH
  6
Continuous
 62
     7
100
AcDbLine
 10
31.2617668417
 20
201.7953194967
 30
0.0
 11
31.2617668417
 21
187.7953194967
 31
0.0
  0
LINE
  5
2BE
330
29D
100
AcDbEntity
  8
1-1MH
  6
Continuous
 62
     7
100
AcDbLine
 10
30.4617668417
 20
200.9953194967
 30
0.0
 11
30.4617668417
 21
188.5953194967
 31
0.0
  0
LINE
  5
2BF
330
29D
100
AcDbEntity
  8
1-1MH
  6
Continuous
 62
     7
100
AcDbLine
 10
59.8089804372
 20
201.7953194967
 30
0.0
 11
59.8089804372
 21
187.7953194967
 31
0.0
  0
LINE
  5
2C0
330
29D
100
AcDbEntity
  8
1-1MH
  6
Continuous
 62
     7
100
AcDbLine
 10
59.3617668417
 20
201.5953194967
 30
0.0
 11
59.3617668417
 21
187.9953194967
 31
0.0
  0
LINE
  5
2C1
330
29D
100
AcDbEntity
  8
1-1MH
  6
Continuous
 62
     7
100
AcDbLine
 10
57.9617668417
 20
201.7953194967
 30
0.0
 11
57.9617668417
 21
187.7953194967
 31
0.0
  0
LINE
  5
2C2
330
29D
100
AcDbEntity
  8
1-1MH
  6
Continuous
 62
     7
100
AcDbLine
 10
58.7081770032
 20
201.5953194967
 30
0.0
 11
58.7081770032
 21
187.9953194967
 31
0.0
  0
LINE
  5
2C3
330
29D
100
AcDbEntity
  8
1-1MH
  6
Continuous
 62
     7
100
AcDbLine
 10
32.4507668417
 20
194.7953194967
 30
0.0
 11
32.4507668417
 21
194.7973194967
 31
0.0
  0
ARC
  5
2C4
330
29D
100
AcDbEntity
  8
1-1MH
  6
Continuous
 62
     7
100
AcDbCircle
 10
34.3136186935
 20
194.1471713485
 30
0.0
 40
1.851851851851778
100
AcDbArc
 50
180.0
 51
270.0
  0
LINE
  5
2C5
330
29D
100
AcDbEntity
  8
1-1MH
  6
Continuous
 62
     7
100
AcDbLine
 10
50.6099149898
 20
192.2953194967
 30
0.0
 11
34.3136186935
 21
192.2953194967
 31
0.0
  0
LINE
  5
2C6
330
29D
100
AcDbEntity
  8
1-1MH
  6
Continuous
 62
     7
100
AcDbLine
 10
32.4617668417
 20
194.7953194967
 30
0.0
 11
32.4507668417
 21
194.7953194967
 31
0.0
  0
LINE
  5
2C7
330
29D
100
AcDbEntity
  8
1-1MH
  6
Continuous
 62
     7
100
AcDbLine
 10
32.4617668417
 20
194.7973194967
 30
0.0
 11
32.4617668417
 21
195.4434676448
 31
0.0
  0
ARC
  5
2C8
330
29D
100
AcDbEntity
  8
1-1MH
  6
Continuous
 62
     7
100
AcDbCircle
 10
50.6099149898
 20
194.1471713485
 30
0.0
 40
1.851851851852604
100
AcDbArc
 50
270.0
 51
0.0
  0
LINE
  5
2C9
330
29D
100
AcDbEntity
  8
1-1MH
  6
Continuous
 62
     7
100
AcDbLine
 10
52.4617668417
 20
195.4434676448
 30
0.0
 11
52.4617668417
 21
194.1471713485
 31
0.0
  0
ARC
  5
2CA
330
29D
100
AcDbEntity
  8
1-1MH
  6
Continuous
 62
     7
100
AcDbCircle
 10
50.6099149898
 20
195.4434676448
 30
0.0
 40
1.851851851852562
100
AcDbArc
 50
0.0
 51
90.0
  0
LINE
  5
2CB
330
29D
100
AcDbEntity
  8
1-1MH
  6
Continuous
 62
     7
100
AcDbLine
 10
34.3136186935
 20
197.2953194967
 30
0.0
 11
50.6099149898
 21
197.2953194967
 31
0.0
  0
ARC
  5
2CC
330
29D
100
AcDbEntity
  8
1-1MH
  6
Continuous
 62
     7
100
AcDbCircle
 10
34.3136186935
 20
195.4434676448
 30
0.0
 40
1.851851851851785
100
AcDbArc
 50
90.0
 51
180.0
  0
LINE
  5
2CD
330
29D
100
AcDbEntity
  8
1-1MH
  6
Continuous
 62
     7
100
AcDbLine
 10
32.4507668417
 20
194.7973194967
 30
0.0
 11
32.4617668417
 21
194.7973194967
 31
0.0
  0
LINE
  5
2CE
330
29D
100
AcDbEntity
  8
1-1MH
  6
Continuous
 62
     7
100
AcDbLine
 10
32.4617668417
 20
194.1471713485
 30
0.0
 11
32.4617668417
 21
194.7953194967
 31
0.0
  0
LINE
  5
2CF
330
29D
100
AcDbEntity
  8
1-1MH
  6
Continuous
 62
     7
100
AcDbLine
 10
105.5542895535
 20
263.7953194986
 30
0.0
 11
105.5542895535
 21
265.2953194967
 31
0.0
  0
LINE
  5
2D0
330
29D
100
AcDbEntity
  8
1-1MH
  6
Continuous
 62
     7
100
AcDbLine
 10
105.5542895535
 20
265.2953194967
 30
0.0
 11
100.6468122654
 21
265.2953194967
 31
0.0
  0
LINE
  5
2D1
330
29D
100
AcDbEntity
  8
1-1MH
  6
Continuous
 62
     7
100
AcDbLine
 10
100.6468122654
 20
265.2953194967
 30
0.0
 11
100.6468122654
 21
263.7953194967
 31
0.0
  0
LINE
  5
2D2
330
29D
100
AcDbEntity
  8
1-1MH
  6
Continuous
 62
     7
100
AcDbLine
 10
115.3692441298
 20
263.7953194986
 30
0.0
 11
115.3692441298
 21
265.2953194967
 31
0.0
  0
LINE
  5
2D3
330
29D
100
AcDbEntity
  8
1-1MH
  6
Continuous
 62
     7
100
AcDbLine
 10
115.3692441298
 20
265.2953194967
 30
0.0
 11
105.5542895535
 21
265.2953194967
 31
0.0
  0
LINE
  5
2D4
330
29D
100
AcDbEntity
  8
1-1MH
  6
Continuous
 62
     7
100
AcDbLine
 10
120.2767214179
 20
265.2953194967
 30
0.0
 11
115.3692441298
 21
265.2953194967
 31
0.0
  0
LINE
  5
2D5
330
29D
100
AcDbEntity
  8
1-1MH
  6
Continuous
 62
     7
100
AcDbLine
 10
120.2767214179
 20
265.2953194967
 30
0.0
 11
120.2767214179
 21
263.7953194967
 31
0.0
  0
LINE
  5
2D6
330
29D
100
AcDbEntity
  8
1-1MH
  6
Continuous
 62
     7
100
AcDbLine
 10
101.2241625346
 20
265.7953194967
 30
0.0
 11
105.8429646881
 21
265.7953194967
 31
0.0
  0
LINE
  5
2D7
330
29D
100
AcDbEntity
  8
1-1MH
  6
Continuous
 62
     7
100
AcDbLine
 10
105.8429646881
 20
265.7953194967
 30
0.0
 11
115.0805689952
 21
265.7953194967
 31
0.0
  0
LINE
  5
2D8
330
29D
100
AcDbEntity
  8
1-1MH
  6
Continuous
 62
     7
100
AcDbLine
 10
115.0805689952
 20
265.7953194967
 30
0.0
 11
119.6993711487
 21
265.7953194967
 31
0.0
  0
LINE
  5
2D9
330
29D
100
AcDbEntity
  8
1-1MH
  6
Continuous
 62
     7
100
AcDbLine
 10
102.0084138417
 20
267.7953194967
 30
0.0
 11
119.0084138417
 21
267.7953194967
 31
0.0
  0
LINE
  5
2DA
330
29D
100
AcDbEntity
  8
1-1MH
  6
Continuous
 62
     7
100
AcDbLine
 10
103.5084138417
 20
277.7953194967
 30
0.0
 11
117.5084138417
 21
277.7953194967
 31
0.0
  0
LINE
  5
2DB
330
29D
100
AcDbEntity
  8
1-1MH
  6
Continuous
 62
     7
100
AcDbLine
 10
102.0084138417
 20
276.2953194967
 30
0.0
 11
119.0084138417
 21
276.2953194967
 31
0.0
  0
LINE
  5
2DC
330
29D
100
AcDbEntity
  8
1-1MH
  6
Continuous
 62
     7
100
AcDbLine
 10
101.2241625346
 20
265.7953194967
 30
0.0
 11
100.6468122654
 21
265.2953194967
 31
0.0
  0
LINE
  5
2DD
330
29D
100
AcDbEntity
  8
1-1MH
  6
Continuous
 62
     7
100
AcDbLine
 10
105.8429646881
 20
265.7953194967
 30
0.0
 11
105.5542895535
 21
265.2953194967
 31
0.0
  0
LINE
  5
2DE
330
29D
100
AcDbEntity
  8
1-1MH
  6
Continuous
 62
     7
100
AcDbLine
 10
115.3692441298
 20
265.2953194967
 30
0.0
 11
115.0805689952
 21
265.7953194967
 31
0.0
  0
LINE
  5
2DF
330
29D
100
AcDbEntity
  8
1-1MH
  6
Continuous
 62
     7
100
AcDbLine
 10
119.6993711487
 20
265.7953194967
 30
0.0
 11
120.2767214179
 21
265.2953194967
 31
0.0
  0
LINE
  5
2E0
330
29D
100
AcDbEntity
  8
1-1MH
  6
Continuous
 62
     7
100
AcDbLine
 10
152.4617668417
 20
222.2953194967
 30
0.0
 11
152.4617668417
 21
218.6110181007
 31
0.0
  0
LINE
  5
2E1
330
29D
100
AcDbEntity
  8
1-1MH
  6
Continuous
 62
     7
100
AcDbLine
 10
152.4617668417
 20
170.2953194967
 30
0.0
 11
152.4617668417
 21
170.9796208926
 31
0.0
  0
LINE
  5
2E2
330
29D
100
AcDbEntity
  8
1-1MH
  6
Continuous
 62
     7
100
AcDbLine
 10
152.4617668417
 20
170.9796208926
 30
0.0
 11
152.4617668417
 21
194.7953194967
 31
0.0
  0
LINE
  5
2E3
330
29D
100
AcDbEntity
  8
1-1MH
  6
Continuous
 62
     7
100
AcDbLine
 10
152.4617668417
 20
194.7953194967
 30
0.0
 11
152.4617668417
 21
218.6110181007
 31
0.0
  0
LINE
  5
2E4
330
29D
100
AcDbEntity
  8
1-1MH
  6
Continuous
 62
     7
100
AcDbLine
 10
120.2767214179
 20
207.2953194967
 30
0.0
 11
115.3692441298
 21
198.7953194967
 31
0.0
  0
LINE
  5
2E5
330
29D
100
AcDbEntity
  8
1-1MH
  6
Continuous
 62
     7
100
AcDbLine
 10
115.3692441298
 20
215.7953194967
 30
0.0
 11
120.2767214179
 21
207.2953194967
 31
0.0
  0
LINE
  5
2E6
330
29D
100
AcDbEntity
  8
1-1MH
  6
Continuous
 62
     7
100
AcDbLine
 10
105.5542895535
 20
215.7953194967
 30
0.0
 11
115.3692441298
 21
215.7953194967
 31
0.0
  0
LINE
  5
2E7
330
29D
100
AcDbEntity
  8
1-1MH
  6
Continuous
 62
     7
100
AcDbLine
 10
100.6468122654
 20
207.2953194967
 30
0.0
 11
105.5542895535
 21
215.7953194967
 31
0.0
  0
LINE
  5
2E8
330
29D
100
AcDbEntity
  8
1-1MH
  6
Continuous
 62
     7
100
AcDbLine
 10
105.5542895535
 20
198.7953194967
 30
0.0
 11
100.6468122654
 21
207.2953194967
 31
0.0
  0
LINE
  5
2E9
330
29D
100
AcDbEntity
  8
1-1MH
  6
Continuous
 62
     7
100
AcDbLine
 10
115.3692441298
 20
198.7953194967
 30
0.0
 11
105.5542895535
 21
198.7953194967
 31
0.0
  0
LINE
  5
2EA
330
29D
100
AcDbEntity
  8
1-1MH
  6
Continuous
 62
     7
100
AcDbLine
 10
115.0805689952
 20
215.2953194967
 30
0.0
 11
105.8429646881
 21
215.2953194967
 31
0.0
  0
LINE
  5
2EB
330
29D
100
AcDbEntity
  8
1-1MH
  6
Continuous
 62
     7
100
AcDbLine
 10
105.8429646881
 20
215.2953194967
 30
0.0
 11
101.2241625346
 21
207.2953194967
 31
0.0
  0
LINE
  5
2EC
330
29D
100
AcDbEntity
  8
1-1MH
  6
Continuous
 62
     7
100
AcDbLine
 10
101.2241625346
 20
207.2953194967
 30
0.0
 11
105.8429646881
 21
199.2953194967
 31
0.0
  0
LINE
  5
2ED
330
29D
100
AcDbEntity
  8
1-1MH
  6
Continuous
 62
     7
100
AcDbLine
 10
105.8429646881
 20
199.2953194967
 30
0.0
 11
115.0805689952
 21
199.2953194967
 31
0.0
  0
LINE
  5
2EE
330
29D
100
AcDbEntity
  8
1-1MH
  6
Continuous
 62
     7
100
AcDbLine
 10
115.0805689952
 20
199.2953194967
 30
0.0
 11
119.6993711487
 21
207.2953194967
 31
0.0
  0
LINE
  5
2EF
330
29D
100
AcDbEntity
  8
1-1MH
  6
Continuous
 62
     7
100
AcDbLine
 10
119.6993711487
 20
207.2953194967
 30
0.0
 11
115.0805689952
 21
215.2953194967
 31
0.0
  0
CIRCLE
  5
2F0
330
29D
100
AcDbEntity
  8
1-1MH
  6
Continuous
 62
     7
100
AcDbCircle
 10
110.4617668417
 20
207.2953194967
 30
0.0
 40
7.5
  0
CIRCLE
  5
2F1
330
29D
100
AcDbEntity
  8
1-1MH
  6
Continuous
 62
     7
100
AcDbCircle
 10
110.4617668417
 20
207.2953194967
 30
0.0
 40
6.5
  0
ARC
  5
2F2
330
29D
100
AcDbEntity
  8
1-1MH
  6
Continuous
 62
     7
100
AcDbCircle
 10
110.4617668417
 20
207.2953194967
 30
0.0
 40
4.999999999999961
100
AcDbArc
 50
158.6269265587
 51
261.3730734413
  0
ARC
  5
2F3
330
29D
100
AcDbEntity
  8
1-1MH
  6
Continuous
 62
     7
100
AcDbCircle
 10
110.4617668417
 20
207.2953194967
 30
0.0
 40
4.9999999999997
100
AcDbArc
 50
278.6269265587
 51
21.3730734413
  0
CIRCLE
  5
2F4
330
29D
100
AcDbEntity
  8
1-1MH
  6
Continuous
 62
     7
100
AcDbCircle
 10
110.4617668417
 20
207.2953194967
 30
0.0
 40
5.5
  0
LINE
  5
2F5
330
29D
100
AcDbEntity
  8
1-1MH
  6
Continuous
 62
     7
100
AcDbLine
 10
112.9473154893
 20
209.5963770812
 30
0.0
 11
114.367902789
 21
210.4165535412
 31
0.0
  0
LINE
  5
2F6
330
29D
100
AcDbEntity
  8
1-1MH
  6
Continuous
 62
     7
100
AcDbLine
 10
115.0805689952
 20
199.2953194967
 30
0.0
 11
115.3692441298
 21
198.7953194967
 31
0.0
  0
LINE
  5
2F7
330
29D
100
AcDbEntity
  8
1-1MH
  6
Continuous
 62
     7
100
AcDbLine
 10
120.2767214179
 20
207.2953194967
 30
0.0
 11
119.6993711487
 21
207.2953194967
 31
0.0
  0
LINE
  5
2F8
330
29D
100
AcDbEntity
  8
1-1MH
  6
Continuous
 62
     7
100
AcDbLine
 10
105.8429646881
 20
199.2953194967
 30
0.0
 11
105.5542895535
 21
198.7953194967
 31
0.0
  0
LINE
  5
2F9
330
29D
100
AcDbEntity
  8
1-1MH
  6
Continuous
 62
     7
100
AcDbLine
 10
100.6468122654
 20
207.2953194967
 30
0.0
 11
101.2241625346
 21
207.2953194967
 31
0.0
  0
LINE
  5
2FA
330
29D
100
AcDbEntity
  8
1-1MH
  6
Continuous
 62
     7
100
AcDbLine
 10
115.0805689952
 20
215.2953194967
 30
0.0
 11
115.3692441298
 21
215.7953194967
 31
0.0
  0
LINE
  5
2FB
330
29D
100
AcDbEntity
  8
1-1MH
  6
Continuous
 62
     7
100
AcDbLine
 10
105.5542895535
 20
215.7953194967
 30
0.0
 11
105.8429646881
 21
215.2953194967
 31
0.0
  0
ARC
  5
2FC
330
29D
100
AcDbEntity
  8
1-1MH
  6
Continuous
 62
     7
100
AcDbCircle
 10
110.4617668417
 20
207.2953194967
 30
0.0
 40
5.00000000000009
100
AcDbArc
 50
38.6269265587
 51
141.3730734413
  0
ARC
  5
2FD
330
29D
100
AcDbEntity
  8
1-1MH
  6
Continuous
 62
     7
100
AcDbCircle
 10
110.4617668417
 20
213.7805438405
 30
0.0
 40
4.866744656203697
100
AcDbArc
 50
240.711866447
 51
300.711866447
  0
ARC
  5
2FE
330
29D
100
AcDbEntity
  8
1-1MH
  6
Continuous
 62
     7
100
AcDbCircle
 10
110.4617668417
 20
207.2953194967
 30
0.0
 40
5.000000000000078
100
AcDbArc
 50
141.3730734413
 51
158.6269265587
  0
LINE
  5
2FF
330
29D
100
AcDbEntity
  8
1-1MH
  6
Continuous
 62
     7
100
AcDbLine
 10
105.8056308943
 20
209.1175154355
 30
0.0
 11
107.226218194
 21
208.2973389755
 31
0.0
  0
LINE
  5
300
330
29D
100
AcDbEntity
  8
1-1MH
  6
Continuous
 62
     7
100
AcDbLine
 10
109.7117668417
 20
204.1131722163
 30
0.0
 11
109.7117668417
 21
202.3518895133
 31
0.0
  0
ARC
  5
301
330
29D
100
AcDbEntity
  8
1-1MH
  6
Continuous
 62
     7
100
AcDbCircle
 10
110.4617668417
 20
207.2953194967
 30
0.0
 40
4.9999999999997
100
AcDbArc
 50
261.3730734413
 51
278.6269265587
  0
LINE
  5
302
330
29D
100
AcDbEntity
  8
1-1MH
  6
Continuous
 62
     7
100
AcDbLine
 10
113.592587225
 20
208.236874084
 30
0.0
 11
115.117902789
 21
209.1175154355
 31
0.0
  0
ARC
  5
303
330
29D
100
AcDbEntity
  8
1-1MH
  6
Continuous
 62
     7
100
AcDbCircle
 10
110.4617668417
 20
207.2953194967
 30
0.0
 40
4.999999999999974
100
AcDbArc
 50
21.3730734413
 51
38.6269265587
  0
ARC
  5
304
330
29D
100
AcDbEntity
  8
1-1MH
  6
Continuous
 62
     7
100
AcDbCircle
 10
104.8453978107
 20
204.0527073248
 30
0.0
 40
4.86674465620341
100
AcDbArc
 50
0.711866447
 51
60.711866447
  0
LINE
  5
305
330
29D
100
AcDbEntity
  8
1-1MH
  6
Continuous
 62
     7
100
AcDbLine
 10
106.5556308943
 20
210.4165535412
 30
0.0
 11
108.0809464583
 21
209.5359121897
 31
0.0
  0
ARC
  5
306
330
29D
100
AcDbEntity
  8
1-1MH
  6
Continuous
 62
     7
100
AcDbCircle
 10
116.0781358726
 20
204.0527073248
 30
0.0
 40
4.8667446562031
100
AcDbArc
 50
120.711866447
 51
180.711866447
  0
LINE
  5
307
330
29D
100
AcDbEntity
  8
1-1MH
  6
Continuous
 62
     7
100
AcDbLine
 10
111.2117668417
 20
203.9922424332
 30
0.0
 11
111.2117668417
 21
202.3518895133
 31
0.0
  0
CIRCLE
  5
308
330
29D
100
AcDbEntity
  8
1-1MH
  6
Continuous
 62
     7
100
AcDbCircle
 10
80.9617668417
 20
250.2953194967
 30
0.0
 40
3.5
  0
CIRCLE
  5
309
330
29D
100
AcDbEntity
  8
1-1MH
  6
Continuous
 62
     7
100
AcDbCircle
 10
80.9617668417
 20
250.2953194967
 30
0.0
 40
3.15
  0
LINE
  5
30A
330
29D
100
AcDbEntity
  8
1-1MH
  6
Continuous
 62
     7
100
AcDbLine
 10
80.9615448411
 20
252.0278194824
 30
0.0
 11
80.9617668417
 21
252.0279476545
 31
0.0
  0
LINE
  5
30B
330
29D
100
AcDbEntity
  8
1-1MH
  6
Continuous
 62
     7
100
AcDbLine
 10
80.9617668417
 20
252.0279476545
 30
0.0
 11
80.9619888422
 21
252.0278194824
 31
0.0
  0
ARC
  5
30C
330
29D
100
AcDbEntity
  8
1-1MH
  6
Continuous
 62
     7
100
AcDbCircle
 10
80.9617668417
 20
250.2953194967
 30
0.0
 40
1.7325
100
AcDbArc
 50
30.0073418142
 51
89.9926581858
  0
LINE
  5
30D
330
29D
100
AcDbEntity
  8
1-1MH
  6
Continuous
 62
     7
100
AcDbLine
 10
82.4620448411
 20
251.1617617476
 30
0.0
 11
82.4622668417
 21
251.1616335756
 31
0.0
  0
LINE
  5
30E
330
29D
100
AcDbEntity
  8
1-1MH
  6
Continuous
 62
     7
100
AcDbLine
 10
82.4622668417
 20
251.1616335756
 30
0.0
 11
82.4622668417
 21
251.1613772315
 31
0.0
  0
ARC
  5
30F
330
29D
100
AcDbEntity
  8
1-1MH
  6
Continuous
 62
     7
100
AcDbCircle
 10
80.9617668417
 20
250.2953194967
 30
0.0
 40
1.732499999999995
100
AcDbArc
 50
330.0073418142
 51
29.9926581858
  0
LINE
  5
310
330
29D
100
AcDbEntity
  8
1-1MH
  6
Continuous
 62
     7
100
AcDbLine
 10
82.4622668417
 20
249.4292617619
 30
0.0
 11
82.4622668417
 21
249.4290054177
 31
0.0
  0
LINE
  5
311
330
29D
100
AcDbEntity
  8
1-1MH
  6
Continuous
 62
     7
100
AcDbLine
 10
82.4622668417
 20
249.4290054177
 30
0.0
 11
82.4620448411
 21
249.4288772457
 31
0.0
  0
ARC
  5
312
330
29D
100
AcDbEntity
  8
1-1MH
  6
Continuous
 62
     7
100
AcDbCircle
 10
80.9617668417
 20
250.2953194967
 30
0.0
 40
1.732500000000003
100
AcDbArc
 50
270.0073418142
 51
329.9926581858
  0
LINE
  5
313
330
29D
100
AcDbEntity
  8
1-1MH
  6
Continuous
 62
     7
100
AcDbLine
 10
80.9619888422
 20
248.5628195109
 30
0.0
 11
80.9617668417
 21
248.5626913388
 31
0.0
  0
LINE
  5
314
330
29D
100
AcDbEntity
  8
1-1MH
  6
Continuous
 62
     7
100
AcDbLine
 10
80.9617668417
 20
248.5626913388
 30
0.0
 11
80.9615448411
 21
248.5628195109
 31
0.0
  0
ARC
  5
315
330
29D
100
AcDbEntity
  8
1-1MH
  6
Continuous
 62
     7
100
AcDbCircle
 10
80.9617668417
 20
250.2953194967
 30
0.0
 40
1.7325
100
AcDbArc
 50
210.0073418142
 51
269.9926581858
  0
LINE
  5
316
330
29D
100
AcDbEntity
  8
1-1MH
  6
Continuous
 62
     7
100
AcDbLine
 10
79.4614888422
 20
249.4288772457
 30
0.0
 11
79.4612668417
 21
249.4290054177
 31
0.0
  0
LINE
  5
317
330
29D
100
AcDbEntity
  8
1-1MH
  6
Continuous
 62
     7
100
AcDbLine
 10
79.4612668417
 20
249.4290054177
 30
0.0
 11
79.4612668417
 21
249.4292617619
 31
0.0
  0
ARC
  5
318
330
29D
100
AcDbEntity
  8
1-1MH
  6
Continuous
 62
     7
100
AcDbCircle
 10
80.9617668417
 20
250.2953194967
 30
0.0
 40
1.732500000000002
100
AcDbArc
 50
150.0073418142
 51
209.9926581858
  0
LINE
  5
319
330
29D
100
AcDbEntity
  8
1-1MH
  6
Continuous
 62
     7
100
AcDbLine
 10
79.4612668417
 20
251.1613772315
 30
0.0
 11
79.4612668417
 21
251.1616335756
 31
0.0
  0
LINE
  5
31A
330
29D
100
AcDbEntity
  8
1-1MH
  6
Continuous
 62
     7
100
AcDbLine
 10
79.4612668417
 20
251.1616335756
 30
0.0
 11
79.4614888422
 21
251.1617617476
 31
0.0
  0
ARC
  5
31B
330
29D
100
AcDbEntity
  8
1-1MH
  6
Continuous
 62
     7
100
AcDbCircle
 10
80.9617668417
 20
250.2953194967
 30
0.0
 40
1.732500000000003
100
AcDbArc
 50
90.0073418142
 51
149.9926581858
  0
LINE
  5
31C
330
29D
100
AcDbEntity
  8
1-1MH
  6
Continuous
 62
     7
100
AcDbLine
 10
82.4620448411
 20
249.4288772457
 30
0.0
 11
80.9619888422
 21
248.5628195109
 31
0.0
  0
LINE
  5
31D
330
29D
100
AcDbEntity
  8
1-1MH
  6
Continuous
 62
     7
100
AcDbLine
 10
80.9615448411
 20
248.5628195109
 30
0.0
 11
79.4614888422
 21
249.4288772457
 31
0.0
  0
LINE
  5
31E
330
29D
100
AcDbEntity
  8
1-1MH
  6
Continuous
 62
     7
100
AcDbLine
 10
82.4622668417
 20
251.1613772315
 30
0.0
 11
82.4622668417
 21
249.4292617619
 31
0.0
  0
LINE
  5
31F
330
29D
100
AcDbEntity
  8
1-1MH
  6
Continuous
 62
     7
100
AcDbLine
 10
80.9619888422
 20
252.0278194824
 30
0.0
 11
82.4620448411
 21
251.1617617476
 31
0.0
  0
LINE
  5
320
330
29D
100
AcDbEntity
  8
1-1MH
  6
Continuous
 62
     7
100
AcDbLine
 10
79.4612668417
 20
249.4292617619
 30
0.0
 11
79.4612668417
 21
251.1613772315
 31
0.0
  0
LINE
  5
321
330
29D
100
AcDbEntity
  8
1-1MH
  6
Continuous
 62
     7
100
AcDbLine
 10
79.4614888422
 20
251.1617617476
 30
0.0
 11
80.9615448411
 21
252.0278194824
 31
0.0
  0
CIRCLE
  5
322
330
29D
100
AcDbEntity
  8
1-1MH
  6
Continuous
 62
     7
100
AcDbCircle
 10
78.4617668417
 20
240.7953194967
 30
0.0
 40
1.8265927272727
  0
LINE
  5
323
330
29D
100
AcDbEntity
  8
1-1MH
  6
Continuous
 62
     7
100
AcDbLine
 10
79.7112668417
 20
240.0739203353
 30
0.0
 11
78.4617668417
 21
239.352521174
 31
0.0
  0
LINE
  5
324
330
29D
100
AcDbEntity
  8
1-1MH
  6
Continuous
 62
     7
100
AcDbLine
 10
78.4617668417
 20
239.352521174
 30
0.0
 11
77.2122668417
 21
240.0739203353
 31
0.0
  0
LINE
  5
325
330
29D
100
AcDbEntity
  8
1-1MH
  6
Continuous
 62
     7
100
AcDbLine
 10
77.2122668417
 20
240.0739203353
 30
0.0
 11
77.2122668417
 21
241.516718658
 31
0.0
  0
LINE
  5
326
330
29D
100
AcDbEntity
  8
1-1MH
  6
Continuous
 62
     7
100
AcDbLine
 10
77.2122668417
 20
241.516718658
 30
0.0
 11
78.4617668417
 21
242.2381178194
 31
0.0
  0
LINE
  5
327
330
29D
100
AcDbEntity
  8
1-1MH
  6
Continuous
 62
     7
100
AcDbLine
 10
78.4617668417
 20
242.2381178194
 30
0.0
 11
79.7112668417
 21
241.516718658
 31
0.0
  0
LINE
  5
328
330
29D
100
AcDbEntity
  8
1-1MH
  6
Continuous
 62
     7
100
AcDbLine
 10
79.7112668417
 20
241.516718658
 30
0.0
 11
79.7112668417
 21
240.0739203353
 31
0.0
  0
CIRCLE
  5
329
330
29D
100
AcDbEntity
  8
1-1MH
  6
Continuous
 62
     7
100
AcDbCircle
 10
78.4617668417
 20
240.7953194967
 30
0.0
 40
2.1
  0
CIRCLE
  5
32A
330
29D
100
AcDbEntity
  8
1-1MH
  6
Continuous
 62
     7
100
AcDbCircle
 10
78.4617668417
 20
173.7953194967
 30
0.0
 40
2.1
  0
CIRCLE
  5
32B
330
29D
100
AcDbEntity
  8
1-1MH
  6
Continuous
 62
     7
100
AcDbCircle
 10
142.4617668417
 20
173.7953194967
 30
0.0
 40
2.1
  0
CIRCLE
  5
32C
330
29D
100
AcDbEntity
  8
1-1MH
  6
Continuous
 62
     7
100
AcDbCircle
 10
142.4617668417
 20
240.7953194967
 30
0.0
 40
2.1
  0
LINE
  5
32D
330
29D
100
AcDbEntity
  8
1-1MH
  6
Continuous
 62
     7
100
AcDbLine
 10
150.472224747
 20
262.305777402
 30
0.0
 11
151.5077542927
 21
261.3400893435
 31
0.0
  0
LINE
  5
32E
330
29D
100
AcDbEntity
  8
1-1MH
  6
Continuous
 62
     7
100
AcDbLine
 10
151.9617668417
 20
261.7941018924
 30
0.0
 11
149.9605492374
 21
263.7953194967
 31
0.0
  0
LINE
  5
32F
330
29D
100
AcDbEntity
  8
1-1MH
  6
Continuous
 62
     7
100
AcDbLine
 10
69.4157793906
 20
153.2505496499
 30
0.0
 11
69.4157793906
 21
261.3400893435
 31
0.0
  0
LINE
  5
330
330
29D
100
AcDbEntity
  8
1-1MH
  6
Continuous
 62
     7
100
AcDbLine
 10
69.4157793906
 20
261.3400893435
 30
0.0
 11
68.9617668417
 21
261.7941018924
 31
0.0
  0
LINE
  5
331
330
29D
100
AcDbEntity
  8
1-1MH
  6
Continuous
 62
     7
100
AcDbLine
 10
70.9629844459
 20
150.7953194967
 30
0.0
 11
71.4169969949
 21
151.2493320456
 31
0.0
  0
LINE
  5
332
330
29D
100
AcDbEntity
  8
1-1MH
  6
Continuous
 62
     7
100
AcDbLine
 10
70.4513089363
 20
152.2848615913
 30
0.0
 11
69.4157793906
 21
153.2505496499
 31
0.0
  0
LINE
  5
333
330
29D
100
AcDbEntity
  8
1-1MH
  6
Continuous
 62
     7
100
AcDbLine
 10
69.4157793906
 20
153.2505496499
 30
0.0
 11
68.9617668417
 21
152.7965371009
 31
0.0
  0
LINE
  5
334
330
29D
100
AcDbEntity
  8
1-1MH
  6
Continuous
 62
     7
100
AcDbLine
 10
151.9617668417
 20
261.7941018924
 30
0.0
 11
151.5077542927
 21
261.3400893435
 31
0.0
  0
LINE
  5
335
330
29D
100
AcDbEntity
  8
1-1MH
  6
Continuous
 62
     7
100
AcDbLine
 10
151.5077542927
 20
261.3400893435
 30
0.0
 11
151.5077542927
 21
153.2505496499
 31
0.0
  0
LINE
  5
336
330
29D
100
AcDbEntity
  8
1-1MH
  6
Continuous
 62
     7
100
AcDbLine
 10
151.5077542927
 20
153.2505496499
 30
0.0
 11
151.9617668417
 21
152.7965371009
 31
0.0
  0
LINE
  5
337
330
29D
100
AcDbEntity
  8
1-1MH
  6
Continuous
 62
     7
100
AcDbLine
 10
149.9605492374
 20
150.7953194967
 30
0.0
 11
151.9617668417
 21
152.7965371009
 31
0.0
  0
LINE
  5
338
330
29D
100
AcDbEntity
  8
1-1MH
  6
Continuous
 62
     7
100
AcDbLine
 10
70.9629844459
 20
150.7953194967
 30
0.0
 11
89.2617668417
 21
150.7953194967
 31
0.0
  0
LINE
  5
339
330
29D
100
AcDbEntity
  8
1-1MH
  6
Continuous
 62
     7
100
AcDbLine
 10
131.6617668417
 20
150.7953194967
 30
0.0
 11
149.9605492374
 21
150.7953194967
 31
0.0
  0
LINE
  5
33A
330
29D
100
AcDbEntity
  8
1-1MH
  6
Continuous
 62
     7
100
AcDbLine
 10
149.9605492374
 20
150.7953194967
 30
0.0
 11
149.5065366885
 21
151.2493320456
 31
0.0
  0
LINE
  5
33B
330
29D
100
AcDbEntity
  8
1-1MH
  6
Continuous
 62
     7
100
AcDbLine
 10
70.4513089363
 20
262.305777402
 30
0.0
 11
71.4169969949
 21
263.3413069477
 31
0.0
  0
LINE
  5
33C
330
29D
100
AcDbEntity
  8
1-1MH
  6
Continuous
 62
     7
100
AcDbLine
 10
70.9629844459
 20
263.7953194967
 30
0.0
 11
68.9617668417
 21
261.7941018924
 31
0.0
  0
LINE
  5
33D
330
29D
100
AcDbEntity
  8
1-1MH
  6
Continuous
 62
     7
100
AcDbLine
 10
149.5065366885
 20
263.3413069477
 30
0.0
 11
149.9605492374
 21
263.7953194967
 31
0.0
  0
LINE
  5
33E
330
29D
100
AcDbEntity
  8
1-1MH
  6
Continuous
 62
     7
100
AcDbLine
 10
149.9605492374
 20
263.7953194967
 30
0.0
 11
131.9617668417
 21
263.7953194967
 31
0.0
  0
LINE
  5
33F
330
29D
100
AcDbEntity
  8
1-1MH
  6
Continuous
 62
     7
100
AcDbLine
 10
121.4617668417
 20
263.7953194967
 30
0.0
 11
99.4617668417
 21
263.7953194967
 31
0.0
  0
LINE
  5
340
330
29D
100
AcDbEntity
  8
1-1MH
  6
Continuous
 62
     7
100
AcDbLine
 10
88.9617668417
 20
263.7953194967
 30
0.0
 11
70.9629844459
 21
263.7953194967
 31
0.0
  0
LINE
  5
341
330
29D
100
AcDbEntity
  8
1-1MH
  6
Continuous
 62
     7
100
AcDbLine
 10
70.9629844459
 20
263.7953194967
 30
0.0
 11
71.4169969949
 21
263.3413069477
 31
0.0
  0
CIRCLE
  5
342
330
29D
100
AcDbEntity
  8
1-1MH
  6
Continuous
 62
     7
100
AcDbCircle
 10
139.9617668417
 20
207.2953194967
 30
0.0
 40
4.5
  0
CIRCLE
  5
343
330
29D
100
AcDbEntity
  8
1-1MH
  6
Continuous
 62
     7
100
AcDbCircle
 10
80.9617668417
 20
250.2953194967
 30
0.0
 40
4.6752132060986
  0
CIRCLE
  5
344
330
29D
100
AcDbEntity
  8
1-1MH
  6
Continuous
 62
     7
100
AcDbCircle
 10
139.9617668417
 20
250.2953194967
 30
0.0
 40
4.5
  0
CIRCLE
  5
345
330
29D
100
AcDbEntity
  8
1-1MH
  6
Continuous
 62
     7
100
AcDbCircle
 10
80.9617668417
 20
164.2953194967
 30
0.0
 40
4.6752132060986
  0
CIRCLE
  5
346
330
29D
100
AcDbEntity
  8
1-1MH
  6
Continuous
 62
     7
100
AcDbCircle
 10
139.9617668417
 20
250.2953194967
 30
0.0
 40
4.675213206098591
  0
CIRCLE
  5
347
330
29D
100
AcDbEntity
  8
1-1MH
  6
Continuous
 62
     7
100
AcDbCircle
 10
80.9617668417
 20
250.2953194967
 30
0.0
 40
4.5
  0
CIRCLE
  5
348
330
29D
100
AcDbEntity
  8
1-1MH
  6
Continuous
 62
     7
100
AcDbCircle
 10
139.9617668417
 20
164.2953194967
 30
0.0
 40
4.675213206098591
  0
CIRCLE
  5
349
330
29D
100
AcDbEntity
  8
1-1MH
  6
Continuous
 62
     7
100
AcDbCircle
 10
139.9617668417
 20
164.2953194967
 30
0.0
 40
4.5
  0
CIRCLE
  5
34A
330
29D
100
AcDbEntity
  8
1-1MH
  6
Continuous
 62
     7
100
AcDbCircle
 10
80.9617668417
 20
207.2953194967
 30
0.0
 40
4.6752132060986
  0
CIRCLE
  5
34B
330
29D
100
AcDbEntity
  8
1-1MH
  6
Continuous
 62
     7
100
AcDbCircle
 10
80.9617668417
 20
164.2953194967
 30
0.0
 40
4.5
  0
CIRCLE
  5
34C
330
29D
100
AcDbEntity
  8
1-1MH
  6
Continuous
 62
     7
100
AcDbCircle
 10
139.9617668417
 20
207.2953194967
 30
0.0
 40
4.675213206098591
  0
CIRCLE
  5
34D
330
29D
100
AcDbEntity
  8
1-1MH
  6
Continuous
 62
     7
100
AcDbCircle
 10
80.9617668417
 20
207.2953194967
 30
0.0
 40
4.5
  0
CIRCLE
  5
34E
330
29D
100
AcDbEntity
  8
1-1MH
  6
Continuous
 62
     7
100
AcDbCircle
 10
78.4617668417
 20
240.7953194967
 30
0.0
 40
2.96602540378444
  0
CIRCLE
  5
34F
330
29D
100
AcDbEntity
  8
1-1MH
  6
Continuous
 62
     7
100
AcDbCircle
 10
78.4617668417
 20
173.7953194967
 30
0.0
 40
2.96602540378443
  0
CIRCLE
  5
350
330
29D
100
AcDbEntity
  8
1-1MH
  6
Continuous
 62
     7
100
AcDbCircle
 10
142.4617668417
 20
173.7953194967
 30
0.0
 40
2.96602540378443
  0
CIRCLE
  5
351
330
29D
100
AcDbEntity
  8
1-1MH
  6
Continuous
 62
     7
100
AcDbCircle
 10
142.4617668417
 20
240.7953194967
 30
0.0
 40
2.96602540378444
  0
CIRCLE
  5
352
330
29D
100
AcDbEntity
  8
1-1MH
  6
Continuous
 62
     7
100
AcDbCircle
 10
80.9617668417
 20
250.2953194967
 30
0.0
 40
5.17490861960815
  0
CIRCLE
  5
353
330
29D
100
AcDbEntity
  8
1-1MH
  6
Continuous
 62
     7
100
AcDbCircle
 10
80.9617668417
 20
207.2953194967
 30
0.0
 40
5.17490861960815
  0
CIRCLE
  5
354
330
29D
100
AcDbEntity
  8
1-1MH
  6
Continuous
 62
     7
100
AcDbCircle
 10
80.9617668417
 20
164.2953194967
 30
0.0
 40
5.17490861960815
  0
CIRCLE
  5
355
330
29D
100
AcDbEntity
  8
1-1MH
  6
Continuous
 62
     7
100
AcDbCircle
 10
139.9617668417
 20
207.2953194967
 30
0.0
 40
5.17490861960815
  0
CIRCLE
  5
356
330
29D
100
AcDbEntity
  8
1-1MH
  6
Continuous
 62
     7
100
AcDbCircle
 10
139.9617668417
 20
164.2953194967
 30
0.0
 40
5.17490861960815
  0
CIRCLE
  5
357
330
29D
100
AcDbEntity
  8
1-1MH
  6
Continuous
 62
     7
100
AcDbCircle
 10
139.9617668417
 20
250.2953194967
 30
0.0
 40
5.17490861960815
  0
CIRCLE
  5
358
330
29D
100
AcDbEntity
  8
1-1MH
  6
Continuous
 62
     7
100
AcDbCircle
 10
110.4617668417
 20
207.2953194967
 30
0.0
 40
11.0
  0
LINE
  5
359
330
29D
100
AcDbEntity
  8
1-1MH
  6
Continuous
 62
     7
100
AcDbLine
 10
131.9617668417
 20
262.3070382681
 30
0.0
 11
131.9617668417
 21
152.2836007252
 31
0.0
  0
LINE
  5
35A
330
29D
100
AcDbEntity
  8
1-1MH
  6
Continuous
 62
     7
100
AcDbLine
 10
131.9617668417
 20
152.2836007252
 30
0.0
 11
132.9617668417
 21
153.319131039
 31
0.0
  0
LINE
  5
35B
330
29D
100
AcDbEntity
  8
1-1MH
  6
Continuous
 62
     7
100
AcDbLine
 10
132.9617668417
 20
261.2715079543
 30
0.0
 11
131.9617668417
 21
262.3070382681
 31
0.0
  0
LINE
  5
35C
330
29D
100
AcDbEntity
  8
1-1MH
  6
Continuous
 62
     7
100
AcDbLine
 10
70.4513089363
 20
152.2848615913
 30
0.0
 11
71.485578384
 21
153.319131039
 31
0.0
  0
LINE
  5
35D
330
29D
100
AcDbEntity
  8
1-1MH
  6
Continuous
 62
     7
100
AcDbLine
 10
71.485578384
 20
153.319131039
 30
0.0
 11
71.485578384
 21
261.2715079543
 31
0.0
  0
LINE
  5
35E
330
29D
100
AcDbEntity
  8
1-1MH
  6
Continuous
 62
     7
100
AcDbLine
 10
71.485578384
 20
261.2715079543
 30
0.0
 11
70.4513089363
 21
262.305777402
 31
0.0
  0
LINE
  5
35F
330
29D
100
AcDbEntity
  8
1-1MH
  6
Continuous
 62
     7
100
AcDbLine
 10
70.4513089363
 20
262.305777402
 30
0.0
 11
69.4157793906
 21
261.3400893435
 31
0.0
  0
LINE
  5
360
330
29D
100
AcDbEntity
  8
1-1MH
  6
Continuous
 62
     7
100
AcDbLine
 10
150.472224747
 20
152.2848615913
 30
0.0
 11
151.5077542927
 21
153.2505496499
 31
0.0
  0
LINE
  5
361
330
29D
100
AcDbEntity
  8
1-1MH
  6
Continuous
 62
     7
100
AcDbLine
 10
88.9617668417
 20
152.2836007252
 30
0.0
 11
88.9617668417
 21
262.3070382681
 31
0.0
  0
LINE
  5
362
330
29D
100
AcDbEntity
  8
1-1MH
  6
Continuous
 62
     7
100
AcDbLine
 10
87.9617668417
 20
153.319131039
 30
0.0
 11
87.9617668417
 21
261.2715079543
 31
0.0
  0
LINE
  5
363
330
29D
100
AcDbEntity
  8
1-1MH
  6
Continuous
 62
     7
100
AcDbLine
 10
132.9617668417
 20
153.319131039
 30
0.0
 11
149.4379552993
 21
153.319131039
 31
0.0
  0
LINE
  5
364
330
29D
100
AcDbEntity
  8
1-1MH
  6
Continuous
 62
     7
100
AcDbLine
 10
149.4379552993
 20
153.319131039
 30
0.0
 11
149.4379552993
 21
261.2715079543
 31
0.0
  0
LINE
  5
365
330
29D
100
AcDbEntity
  8
1-1MH
  6
Continuous
 62
     7
100
AcDbLine
 10
132.9617668417
 20
261.2715079543
 30
0.0
 11
132.9617668417
 21
153.319131039
 31
0.0
  0
LINE
  5
366
330
29D
100
AcDbEntity
  8
1-1MH
  6
Continuous
 62
     7
100
AcDbLine
 10
88.9617668417
 20
262.3070382681
 30
0.0
 11
131.9617668417
 21
262.3070382681
 31
0.0
  0
LINE
  5
367
330
29D
100
AcDbEntity
  8
1-1MH
  6
Continuous
 62
     7
100
AcDbLine
 10
132.9617668417
 20
261.2715079543
 30
0.0
 11
149.4379552993
 21
261.2715079543
 31
0.0
  0
LINE
  5
368
330
29D
100
AcDbEntity
  8
1-1MH
  6
Continuous
 62
     7
100
AcDbLine
 10
149.4379552993
 20
261.2715079543
 30
0.0
 11
150.472224747
 21
262.305777402
 31
0.0
  0
LINE
  5
369
330
29D
100
AcDbEntity
  8
1-1MH
  6
Continuous
 62
     7
100
AcDbLine
 10
150.472224747
 20
262.305777402
 30
0.0
 11
149.5065366885
 21
263.3413069477
 31
0.0
  0
LINE
  5
36A
330
29D
100
AcDbEntity
  8
1-1MH
  6
Continuous
 62
     7
100
AcDbLine
 10
149.5065366885
 20
263.3413069477
 30
0.0
 11
71.4169969949
 21
263.3413069477
 31
0.0
  0
LINE
  5
36B
330
29D
100
AcDbEntity
  8
1-1MH
  6
Continuous
 62
     7
100
AcDbLine
 10
71.485578384
 20
261.2715079543
 30
0.0
 11
87.9617668417
 21
261.2715079543
 31
0.0
  0
LINE
  5
36C
330
29D
100
AcDbEntity
  8
1-1MH
  6
Continuous
 62
     7
100
AcDbLine
 10
87.9617668417
 20
261.2715079543
 30
0.0
 11
88.9617668417
 21
262.3070382681
 31
0.0
  0
LINE
  5
36D
330
29D
100
AcDbEntity
  8
1-1MH
  6
Continuous
 62
     7
100
AcDbLine
 10
150.472224747
 20
152.2848615913
 30
0.0
 11
149.4379552993
 21
153.319131039
 31
0.0
  0
LINE
  5
36E
330
29D
100
AcDbEntity
  8
1-1MH
  6
Continuous
 62
     7
100
AcDbLine
 10
131.9617668417
 20
152.2836007252
 30
0.0
 11
88.9617668417
 21
152.2836007252
 31
0.0
  0
LINE
  5
36F
330
29D
100
AcDbEntity
  8
1-1MH
  6
Continuous
 62
     7
100
AcDbLine
 10
88.9617668417
 20
152.2836007252
 30
0.0
 11
87.9617668417
 21
153.319131039
 31
0.0
  0
LINE
  5
370
330
29D
100
AcDbEntity
  8
1-1MH
  6
Continuous
 62
     7
100
AcDbLine
 10
87.9617668417
 20
153.319131039
 30
0.0
 11
71.485578384
 21
153.319131039
 31
0.0
  0
LINE
  5
371
330
29D
100
AcDbEntity
  8
1-1MH
  6
Continuous
 62
     7
100
AcDbLine
 10
70.4513089363
 20
152.2848615913
 30
0.0
 11
71.4169969949
 21
151.2493320456
 31
0.0
  0
LINE
  5
372
330
29D
100
AcDbEntity
  8
1-1MH
  6
Continuous
 62
     7
100
AcDbLine
 10
71.4169969949
 20
151.2493320456
 30
0.0
 11
149.5065366885
 21
151.2493320456
 31
0.0
  0
LINE
  5
373
330
29D
100
AcDbEntity
  8
1-1MH
  6
Continuous
 62
     7
100
AcDbLine
 10
149.5065366885
 20
151.2493320456
 30
0.0
 11
150.472224747
 21
152.2848615913
 31
0.0
  0
LINE
  5
374
330
29D
100
AcDbEntity
  8
1-1MH
  6
Continuous
 62
     7
100
AcDbLine
 10
151.9617668417
 20
261.7941018924
 30
0.0
 11
151.9617668417
 21
243.7953194967
 31
0.0
  0
LINE
  5
375
330
29D
100
AcDbEntity
  8
1-1MH
  6
Continuous
 62
     7
100
AcDbLine
 10
151.9617668417
 20
170.7953194967
 30
0.0
 11
151.9617668417
 21
152.7965371009
 31
0.0
  0
LINE
  5
376
330
29D
100
AcDbEntity
  8
1-1MH
  6
Continuous
 62
     7
100
AcDbLine
 10
70.9629844459
 20
150.7953194967
 30
0.0
 11
68.9617668417
 21
152.7965371009
 31
0.0
  0
LINE
  5
377
330
29D
100
AcDbEntity
  8
1-1MH
  6
Continuous
 62
     7
100
AcDbLine
 10
68.9617668417
 20
152.7965371009
 30
0.0
 11
68.9617668417
 21
170.7953194967
 31
0.0
  0
LINE
  5
378
330
29D
100
AcDbEntity
  8
1-1MH
  6
Continuous
 62
     7
100
AcDbLine
 10
68.9617668417
 20
243.7953194967
 30
0.0
 11
68.9617668417
 21
261.7941018924
 31
0.0
  0
CIRCLE
  5
379
330
29D
100
AcDbEntity
  8
1-1MH
  6
Continuous
 62
     7
100
AcDbCircle
 10
80.9617668417
 20
207.2953194967
 30
0.0
 40
3.5
  0
CIRCLE
  5
37A
330
29D
100
AcDbEntity
  8
1-1MH
  6
Continuous
 62
     7
100
AcDbCircle
 10
80.9617668417
 20
207.2953194967
 30
0.0
 40
3.15
  0
ARC
  5
37B
330
29D
100
AcDbEntity
  8
1-1MH
  6
Continuous
 62
     7
100
AcDbCircle
 10
80.9617668417
 20
207.2953194967
 30
0.0
 40
1.732500000000003
100
AcDbArc
 50
270.0073418142
 51
329.9926581858
  0
ARC
  5
37C
330
29D
100
AcDbEntity
  8
1-1MH
  6
Continuous
 62
     7
100
AcDbCircle
 10
80.9617668417
 20
207.2953194967
 30
0.0
 40
1.7325
100
AcDbArc
 50
210.0073418142
 51
269.9926581858
  0
ARC
  5
37D
330
29D
100
AcDbEntity
  8
1-1MH
  6
Continuous
 62
     7
100
AcDbCircle
 10
80.9617668417
 20
207.2953194967
 30
0.0
 40
1.732499999999995
100
AcDbArc
 50
330.0073418142
 51
29.9926581858
  0
ARC
  5
37E
330
29D
100
AcDbEntity
  8
1-1MH
  6
Continuous
 62
     7
100
AcDbCircle
 10
80.9617668417
 20
207.2953194967
 30
0.0
 40
1.7325
100
AcDbArc
 50
30.0073418142
 51
89.9926581858
  0
ARC
  5
37F
330
29D
100
AcDbEntity
  8
1-1MH
  6
Continuous
 62
     7
100
AcDbCircle
 10
80.9617668417
 20
207.2953194967
 30
0.0
 40
1.732500000000002
100
AcDbArc
 50
150.0073418142
 51
209.9926581858
  0
ARC
  5
380
330
29D
100
AcDbEntity
  8
1-1MH
  6
Continuous
 62
     7
100
AcDbCircle
 10
80.9617668417
 20
207.2953194967
 30
0.0
 40
1.732500000000003
100
AcDbArc
 50
90.0073418142
 51
149.9926581858
  0
LINE
  5
381
330
29D
100
AcDbEntity
  8
1-1MH
  6
Continuous
 62
     7
100
AcDbLine
 10
79.4612668417
 20
208.1616335756
 30
0.0
 11
79.4614888422
 21
208.1617617476
 31
0.0
  0
LINE
  5
382
330
29D
100
AcDbEntity
  8
1-1MH
  6
Continuous
 62
     7
100
AcDbLine
 10
79.4614888422
 20
208.1617617476
 30
0.0
 11
80.9615448411
 21
209.0278194824
 31
0.0
  0
LINE
  5
383
330
29D
100
AcDbEntity
  8
1-1MH
  6
Continuous
 62
     7
100
AcDbLine
 10
80.9615448411
 20
209.0278194824
 30
0.0
 11
80.9617668417
 21
209.0279476545
 31
0.0
  0
LINE
  5
384
330
29D
100
AcDbEntity
  8
1-1MH
  6
Continuous
 62
     7
100
AcDbLine
 10
82.4622668417
 20
208.1616335756
 30
0.0
 11
82.4622668417
 21
208.1613772315
 31
0.0
  0
LINE
  5
385
330
29D
100
AcDbEntity
  8
1-1MH
  6
Continuous
 62
     7
100
AcDbLine
 10
82.4622668417
 20
208.1613772315
 30
0.0
 11
82.4622668417
 21
206.4292617619
 31
0.0
  0
LINE
  5
386
330
29D
100
AcDbEntity
  8
1-1MH
  6
Continuous
 62
     7
100
AcDbLine
 10
82.4622668417
 20
206.4292617619
 30
0.0
 11
82.4622668417
 21
206.4290054177
 31
0.0
  0
LINE
  5
387
330
29D
100
AcDbEntity
  8
1-1MH
  6
Continuous
 62
     7
100
AcDbLine
 10
82.4622668417
 20
206.4290054177
 30
0.0
 11
82.4620448411
 21
206.4288772457
 31
0.0
  0
LINE
  5
388
330
29D
100
AcDbEntity
  8
1-1MH
  6
Continuous
 62
     7
100
AcDbLine
 10
82.4620448411
 20
206.4288772457
 30
0.0
 11
80.9619888422
 21
205.5628195109
 31
0.0
  0
LINE
  5
389
330
29D
100
AcDbEntity
  8
1-1MH
  6
Continuous
 62
     7
100
AcDbLine
 10
80.9619888422
 20
205.5628195109
 30
0.0
 11
80.9617668417
 21
205.5626913388
 31
0.0
  0
LINE
  5
38A
330
29D
100
AcDbEntity
  8
1-1MH
  6
Continuous
 62
     7
100
AcDbLine
 10
80.9617668417
 20
205.5626913388
 30
0.0
 11
80.9615448411
 21
205.5628195109
 31
0.0
  0
LINE
  5
38B
330
29D
100
AcDbEntity
  8
1-1MH
  6
Continuous
 62
     7
100
AcDbLine
 10
80.9615448411
 20
205.5628195109
 30
0.0
 11
79.4614888422
 21
206.4288772457
 31
0.0
  0
LINE
  5
38C
330
29D
100
AcDbEntity
  8
1-1MH
  6
Continuous
 62
     7
100
AcDbLine
 10
79.4614888422
 20
206.4288772457
 30
0.0
 11
79.4612668417
 21
206.4290054177
 31
0.0
  0
LINE
  5
38D
330
29D
100
AcDbEntity
  8
1-1MH
  6
Continuous
 62
     7
100
AcDbLine
 10
79.4612668417
 20
206.4290054177
 30
0.0
 11
79.4612668417
 21
206.4292617619
 31
0.0
  0
LINE
  5
38E
330
29D
100
AcDbEntity
  8
1-1MH
  6
Continuous
 62
     7
100
AcDbLine
 10
79.4612668417
 20
206.4292617619
 30
0.0
 11
79.4612668417
 21
208.1613772315
 31
0.0
  0
LINE
  5
38F
330
29D
100
AcDbEntity
  8
1-1MH
  6
Continuous
 62
     7
100
AcDbLine
 10
79.4612668417
 20
208.1613772315
 30
0.0
 11
79.4612668417
 21
208.1616335756
 31
0.0
  0
LINE
  5
390
330
29D
100
AcDbEntity
  8
1-1MH
  6
Continuous
 62
     7
100
AcDbLine
 10
80.9617668417
 20
209.0279476545
 30
0.0
 11
80.9619888422
 21
209.0278194824
 31
0.0
  0
LINE
  5
391
330
29D
100
AcDbEntity
  8
1-1MH
  6
Continuous
 62
     7
100
AcDbLine
 10
80.9619888422
 20
209.0278194824
 30
0.0
 11
82.4620448411
 21
208.1617617476
 31
0.0
  0
LINE
  5
392
330
29D
100
AcDbEntity
  8
1-1MH
  6
Continuous
 62
     7
100
AcDbLine
 10
82.4620448411
 20
208.1617617476
 30
0.0
 11
82.4622668417
 21
208.1616335756
 31
0.0
  0
CIRCLE
  5
393
330
29D
100
AcDbEntity
  8
1-1MH
  6
Continuous
 62
     7
100
AcDbCircle
 10
80.9617668417
 20
164.2953194967
 30
0.0
 40
3.5
  0
CIRCLE
  5
394
330
29D
100
AcDbEntity
  8
1-1MH
  6
Continuous
 62
     7
100
AcDbCircle
 10
80.9617668417
 20
164.2953194967
 30
0.0
 40
3.15
  0
ARC
  5
395
330
29D
100
AcDbEntity
  8
1-1MH
  6
Continuous
 62
     7
100
AcDbCircle
 10
80.9617668417
 20
164.2953194967
 30
0.0
 40
1.732500000000003
100
AcDbArc
 50
270.0073418142
 51
329.9926581858
  0
ARC
  5
396
330
29D
100
AcDbEntity
  8
1-1MH
  6
Continuous
 62
     7
100
AcDbCircle
 10
80.9617668417
 20
164.2953194967
 30
0.0
 40
1.7325
100
AcDbArc
 50
210.0073418142
 51
269.9926581858
  0
ARC
  5
397
330
29D
100
AcDbEntity
  8
1-1MH
  6
Continuous
 62
     7
100
AcDbCircle
 10
80.9617668417
 20
164.2953194967
 30
0.0
 40
1.732499999999995
100
AcDbArc
 50
330.0073418142
 51
29.9926581858
  0
ARC
  5
398
330
29D
100
AcDbEntity
  8
1-1MH
  6
Continuous
 62
     7
100
AcDbCircle
 10
80.9617668417
 20
164.2953194967
 30
0.0
 40
1.7325
100
AcDbArc
 50
30.0073418142
 51
89.9926581858
  0
ARC
  5
399
330
29D
100
AcDbEntity
  8
1-1MH
  6
Continuous
 62
     7
100
AcDbCircle
 10
80.9617668417
 20
164.2953194967
 30
0.0
 40
1.732500000000002
100
AcDbArc
 50
150.0073418142
 51
209.9926581858
  0
ARC
  5
39A
330
29D
100
AcDbEntity
  8
1-1MH
  6
Continuous
 62
     7
100
AcDbCircle
 10
80.9617668417
 20
164.2953194967
 30
0.0
 40
1.732500000000003
100
AcDbArc
 50
90.0073418142
 51
149.9926581858
  0
LINE
  5
39B
330
29D
100
AcDbEntity
  8
1-1MH
  6
Continuous
 62
     7
100
AcDbLine
 10
79.4612668417
 20
165.1616335756
 30
0.0
 11
79.4614888422
 21
165.1617617476
 31
0.0
  0
LINE
  5
39C
330
29D
100
AcDbEntity
  8
1-1MH
  6
Continuous
 62
     7
100
AcDbLine
 10
79.4614888422
 20
165.1617617476
 30
0.0
 11
80.9615448411
 21
166.0278194824
 31
0.0
  0
LINE
  5
39D
330
29D
100
AcDbEntity
  8
1-1MH
  6
Continuous
 62
     7
100
AcDbLine
 10
80.9615448411
 20
166.0278194824
 30
0.0
 11
80.9617668417
 21
166.0279476545
 31
0.0
  0
LINE
  5
39E
330
29D
100
AcDbEntity
  8
1-1MH
  6
Continuous
 62
     7
100
AcDbLine
 10
82.4622668417
 20
165.1616335756
 30
0.0
 11
82.4622668417
 21
165.1613772315
 31
0.0
  0
LINE
  5
39F
330
29D
100
AcDbEntity
  8
1-1MH
  6
Continuous
 62
     7
100
AcDbLine
 10
82.4622668417
 20
165.1613772315
 30
0.0
 11
82.4622668417
 21
163.4292617619
 31
0.0
  0
LINE
  5
3A0
330
29D
100
AcDbEntity
  8
1-1MH
  6
Continuous
 62
     7
100
AcDbLine
 10
82.4622668417
 20
163.4292617619
 30
0.0
 11
82.4622668417
 21
163.4290054177
 31
0.0
  0
LINE
  5
3A1
330
29D
100
AcDbEntity
  8
1-1MH
  6
Continuous
 62
     7
100
AcDbLine
 10
82.4622668417
 20
163.4290054177
 30
0.0
 11
82.4620448411
 21
163.4288772457
 31
0.0
  0
LINE
  5
3A2
330
29D
100
AcDbEntity
  8
1-1MH
  6
Continuous
 62
     7
100
AcDbLine
 10
82.4620448411
 20
163.4288772457
 30
0.0
 11
80.9619888422
 21
162.5628195109
 31
0.0
  0
LINE
  5
3A3
330
29D
100
AcDbEntity
  8
1-1MH
  6
Continuous
 62
     7
100
AcDbLine
 10
80.9619888422
 20
162.5628195109
 30
0.0
 11
80.9617668417
 21
162.5626913388
 31
0.0
  0
LINE
  5
3A4
330
29D
100
AcDbEntity
  8
1-1MH
  6
Continuous
 62
     7
100
AcDbLine
 10
80.9617668417
 20
162.5626913388
 30
0.0
 11
80.9615448411
 21
162.5628195109
 31
0.0
  0
LINE
  5
3A5
330
29D
100
AcDbEntity
  8
1-1MH
  6
Continuous
 62
     7
100
AcDbLine
 10
80.9615448411
 20
162.5628195109
 30
0.0
 11
79.4614888422
 21
163.4288772457
 31
0.0
  0
LINE
  5
3A6
330
29D
100
AcDbEntity
  8
1-1MH
  6
Continuous
 62
     7
100
AcDbLine
 10
79.4614888422
 20
163.4288772457
 30
0.0
 11
79.4612668417
 21
163.4290054177
 31
0.0
  0
LINE
  5
3A7
330
29D
100
AcDbEntity
  8
1-1MH
  6
Continuous
 62
     7
100
AcDbLine
 10
79.4612668417
 20
163.4290054177
 30
0.0
 11
79.4612668417
 21
163.4292617619
 31
0.0
  0
LINE
  5
3A8
330
29D
100
AcDbEntity
  8
1-1MH
  6
Continuous
 62
     7
100
AcDbLine
 10
79.4612668417
 20
163.4292617619
 30
0.0
 11
79.4612668417
 21
165.1613772315
 31
0.0
  0
LINE
  5
3A9
330
29D
100
AcDbEntity
  8
1-1MH
  6
Continuous
 62
     7
100
AcDbLine
 10
79.4612668417
 20
165.1613772315
 30
0.0
 11
79.4612668417
 21
165.1616335756
 31
0.0
  0
LINE
  5
3AA
330
29D
100
AcDbEntity
  8
1-1MH
  6
Continuous
 62
     7
100
AcDbLine
 10
80.9617668417
 20
166.0279476545
 30
0.0
 11
80.9619888422
 21
166.0278194824
 31
0.0
  0
LINE
  5
3AB
330
29D
100
AcDbEntity
  8
1-1MH
  6
Continuous
 62
     7
100
AcDbLine
 10
80.9619888422
 20
166.0278194824
 30
0.0
 11
82.4620448411
 21
165.1617617476
 31
0.0
  0
LINE
  5
3AC
330
29D
100
AcDbEntity
  8
1-1MH
  6
Continuous
 62
     7
100
AcDbLine
 10
82.4620448411
 20
165.1617617476
 30
0.0
 11
82.4622668417
 21
165.1616335756
 31
0.0
  0
CIRCLE
  5
3AD
330
29D
100
AcDbEntity
  8
1-1MH
  6
Continuous
 62
     7
100
AcDbCircle
 10
139.9617668417
 20
250.2953194967
 30
0.0
 40
3.5
  0
CIRCLE
  5
3AE
330
29D
100
AcDbEntity
  8
1-1MH
  6
Continuous
 62
     7
100
AcDbCircle
 10
139.9617668417
 20
250.2953194967
 30
0.0
 40
3.15
  0
ARC
  5
3AF
330
29D
100
AcDbEntity
  8
1-1MH
  6
Continuous
 62
     7
100
AcDbCircle
 10
139.9617668417
 20
250.2953194967
 30
0.0
 40
1.732500000000003
100
AcDbArc
 50
270.0073418142
 51
329.9926581858
  0
ARC
  5
3B0
330
29D
100
AcDbEntity
  8
1-1MH
  6
Continuous
 62
     7
100
AcDbCircle
 10
139.9617668417
 20
250.2953194967
 30
0.0
 40
1.7325
100
AcDbArc
 50
210.0073418142
 51
269.9926581858
  0
ARC
  5
3B1
330
29D
100
AcDbEntity
  8
1-1MH
  6
Continuous
 62
     7
100
AcDbCircle
 10
139.9617668417
 20
250.2953194967
 30
0.0
 40
1.732499999999995
100
AcDbArc
 50
330.0073418142
 51
29.9926581858
  0
ARC
  5
3B2
330
29D
100
AcDbEntity
  8
1-1MH
  6
Continuous
 62
     7
100
AcDbCircle
 10
139.9617668417
 20
250.2953194967
 30
0.0
 40
1.7325
100
AcDbArc
 50
30.0073418142
 51
89.9926581858
  0
ARC
  5
3B3
330
29D
100
AcDbEntity
  8
1-1MH
  6
Continuous
 62
     7
100
AcDbCircle
 10
139.9617668417
 20
250.2953194967
 30
0.0
 40
1.732500000000002
100
AcDbArc
 50
150.0073418142
 51
209.9926581858
  0
ARC
  5
3B4
330
29D
100
AcDbEntity
  8
1-1MH
  6
Continuous
 62
     7
100
AcDbCircle
 10
139.9617668417
 20
250.2953194967
 30
0.0
 40
1.732500000000003
100
AcDbArc
 50
90.0073418142
 51
149.9926581858
  0
LINE
  5
3B5
330
29D
100
AcDbEntity
  8
1-1MH
  6
Continuous
 62
     7
100
AcDbLine
 10
138.4612668417
 20
251.1616335756
 30
0.0
 11
138.4614888422
 21
251.1617617476
 31
0.0
  0
LINE
  5
3B6
330
29D
100
AcDbEntity
  8
1-1MH
  6
Continuous
 62
     7
100
AcDbLine
 10
138.4614888422
 20
251.1617617476
 30
0.0
 11
139.9615448411
 21
252.0278194824
 31
0.0
  0
LINE
  5
3B7
330
29D
100
AcDbEntity
  8
1-1MH
  6
Continuous
 62
     7
100
AcDbLine
 10
139.9615448411
 20
252.0278194824
 30
0.0
 11
139.9617668417
 21
252.0279476545
 31
0.0
  0
LINE
  5
3B8
330
29D
100
AcDbEntity
  8
1-1MH
  6
Continuous
 62
     7
100
AcDbLine
 10
141.4622668417
 20
251.1616335756
 30
0.0
 11
141.4622668417
 21
251.1613772315
 31
0.0
  0
LINE
  5
3B9
330
29D
100
AcDbEntity
  8
1-1MH
  6
Continuous
 62
     7
100
AcDbLine
 10
141.4622668417
 20
251.1613772315
 30
0.0
 11
141.4622668417
 21
249.4292617619
 31
0.0
  0
LINE
  5
3BA
330
29D
100
AcDbEntity
  8
1-1MH
  6
Continuous
 62
     7
100
AcDbLine
 10
141.4622668417
 20
249.4292617619
 30
0.0
 11
141.4622668417
 21
249.4290054177
 31
0.0
  0
LINE
  5
3BB
330
29D
100
AcDbEntity
  8
1-1MH
  6
Continuous
 62
     7
100
AcDbLine
 10
141.4622668417
 20
249.4290054177
 30
0.0
 11
141.4620448411
 21
249.4288772457
 31
0.0
  0
LINE
  5
3BC
330
29D
100
AcDbEntity
  8
1-1MH
  6
Continuous
 62
     7
100
AcDbLine
 10
141.4620448411
 20
249.4288772457
 30
0.0
 11
139.9619888422
 21
248.5628195109
 31
0.0
  0
LINE
  5
3BD
330
29D
100
AcDbEntity
  8
1-1MH
  6
Continuous
 62
     7
100
AcDbLine
 10
139.9619888422
 20
248.5628195109
 30
0.0
 11
139.9617668417
 21
248.5626913388
 31
0.0
  0
LINE
  5
3BE
330
29D
100
AcDbEntity
  8
1-1MH
  6
Continuous
 62
     7
100
AcDbLine
 10
139.9617668417
 20
248.5626913388
 30
0.0
 11
139.9615448411
 21
248.5628195109
 31
0.0
  0
LINE
  5
3BF
330
29D
100
AcDbEntity
  8
1-1MH
  6
Continuous
 62
     7
100
AcDbLine
 10
139.9615448411
 20
248.5628195109
 30
0.0
 11
138.4614888422
 21
249.4288772457
 31
0.0
  0
LINE
  5
3C0
330
29D
100
AcDbEntity
  8
1-1MH
  6
Continuous
 62
     7
100
AcDbLine
 10
138.4614888422
 20
249.4288772457
 30
0.0
 11
138.4612668417
 21
249.4290054177
 31
0.0
  0
LINE
  5
3C1
330
29D
100
AcDbEntity
  8
1-1MH
  6
Continuous
 62
     7
100
AcDbLine
 10
138.4612668417
 20
249.4290054177
 30
0.0
 11
138.4612668417
 21
249.4292617619
 31
0.0
  0
LINE
  5
3C2
330
29D
100
AcDbEntity
  8
1-1MH
  6
Continuous
 62
     7
100
AcDbLine
 10
138.4612668417
 20
249.4292617619
 30
0.0
 11
138.4612668417
 21
251.1613772315
 31
0.0
  0
LINE
  5
3C3
330
29D
100
AcDbEntity
  8
1-1MH
  6
Continuous
 62
     7
100
AcDbLine
 10
138.4612668417
 20
251.1613772315
 30
0.0
 11
138.4612668417
 21
251.1616335756
 31
0.0
  0
LINE
  5
3C4
330
29D
100
AcDbEntity
  8
1-1MH
  6
Continuous
 62
     7
100
AcDbLine
 10
139.9617668417
 20
252.0279476545
 30
0.0
 11
139.9619888422
 21
252.0278194824
 31
0.0
  0
LINE
  5
3C5
330
29D
100
AcDbEntity
  8
1-1MH
  6
Continuous
 62
     7
100
AcDbLine
 10
139.9619888422
 20
252.0278194824
 30
0.0
 11
141.4620448411
 21
251.1617617476
 31
0.0
  0
LINE
  5
3C6
330
29D
100
AcDbEntity
  8
1-1MH
  6
Continuous
 62
     7
100
AcDbLine
 10
141.4620448411
 20
251.1617617476
 30
0.0
 11
141.4622668417
 21
251.1616335756
 31
0.0
  0
CIRCLE
  5
3C7
330
29D
100
AcDbEntity
  8
1-1MH
  6
Continuous
 62
     7
100
AcDbCircle
 10
139.9617668417
 20
207.2953194967
 30
0.0
 40
3.5
  0
CIRCLE
  5
3C8
330
29D
100
AcDbEntity
  8
1-1MH
  6
Continuous
 62
     7
100
AcDbCircle
 10
139.9617668417
 20
207.2953194967
 30
0.0
 40
3.15
  0
ARC
  5
3C9
330
29D
100
AcDbEntity
  8
1-1MH
  6
Continuous
 62
     7
100
AcDbCircle
 10
139.9617668417
 20
207.2953194967
 30
0.0
 40
1.732500000000003
100
AcDbArc
 50
270.0073418142
 51
329.9926581858
  0
ARC
  5
3CA
330
29D
100
AcDbEntity
  8
1-1MH
  6
Continuous
 62
     7
100
AcDbCircle
 10
139.9617668417
 20
207.2953194967
 30
0.0
 40
1.7325
100
AcDbArc
 50
210.0073418142
 51
269.9926581858
  0
ARC
  5
3CB
330
29D
100
AcDbEntity
  8
1-1MH
  6
Continuous
 62
     7
100
AcDbCircle
 10
139.9617668417
 20
207.2953194967
 30
0.0
 40
1.732499999999995
100
AcDbArc
 50
330.0073418142
 51
29.9926581858
  0
ARC
  5
3CC
330
29D
100
AcDbEntity
  8
1-1MH
  6
Continuous
 62
     7
100
AcDbCircle
 10
139.9617668417
 20
207.2953194967
 30
0.0
 40
1.7325
100
AcDbArc
 50
30.0073418142
 51
89.9926581858
  0
ARC
  5
3CD
330
29D
100
AcDbEntity
  8
1-1MH
  6
Continuous
 62
     7
100
AcDbCircle
 10
139.9617668417
 20
207.2953194967
 30
0.0
 40
1.732500000000002
100
AcDbArc
 50
150.0073418142
 51
209.9926581858
  0
ARC
  5
3CE
330
29D
100
AcDbEntity
  8
1-1MH
  6
Continuous
 62
     7
100
AcDbCircle
 10
139.9617668417
 20
207.2953194967
 30
0.0
 40
1.732500000000003
100
AcDbArc
 50
90.0073418142
 51
149.9926581858
  0
LINE
  5
3CF
330
29D
100
AcDbEntity
  8
1-1MH
  6
Continuous
 62
     7
100
AcDbLine
 10
138.4612668417
 20
208.1616335756
 30
0.0
 11
138.4614888422
 21
208.1617617476
 31
0.0
  0
LINE
  5
3D0
330
29D
100
AcDbEntity
  8
1-1MH
  6
Continuous
 62
     7
100
AcDbLine
 10
138.4614888422
 20
208.1617617476
 30
0.0
 11
139.9615448411
 21
209.0278194824
 31
0.0
  0
LINE
  5
3D1
330
29D
100
AcDbEntity
  8
1-1MH
  6
Continuous
 62
     7
100
AcDbLine
 10
139.9615448411
 20
209.0278194824
 30
0.0
 11
139.9617668417
 21
209.0279476545
 31
0.0
  0
LINE
  5
3D2
330
29D
100
AcDbEntity
  8
1-1MH
  6
Continuous
 62
     7
100
AcDbLine
 10
141.4622668417
 20
208.1616335756
 30
0.0
 11
141.4622668417
 21
208.1613772315
 31
0.0
  0
LINE
  5
3D3
330
29D
100
AcDbEntity
  8
1-1MH
  6
Continuous
 62
     7
100
AcDbLine
 10
141.4622668417
 20
208.1613772315
 30
0.0
 11
141.4622668417
 21
206.4292617619
 31
0.0
  0
LINE
  5
3D4
330
29D
100
AcDbEntity
  8
1-1MH
  6
Continuous
 62
     7
100
AcDbLine
 10
141.4622668417
 20
206.4292617619
 30
0.0
 11
141.4622668417
 21
206.4290054177
 31
0.0
  0
LINE
  5
3D5
330
29D
100
AcDbEntity
  8
1-1MH
  6
Continuous
 62
     7
100
AcDbLine
 10
141.4622668417
 20
206.4290054177
 30
0.0
 11
141.4620448411
 21
206.4288772457
 31
0.0
  0
LINE
  5
3D6
330
29D
100
AcDbEntity
  8
1-1MH
  6
Continuous
 62
     7
100
AcDbLine
 10
141.4620448411
 20
206.4288772457
 30
0.0
 11
139.9619888422
 21
205.5628195109
 31
0.0
  0
LINE
  5
3D7
330
29D
100
AcDbEntity
  8
1-1MH
  6
Continuous
 62
     7
100
AcDbLine
 10
139.9619888422
 20
205.5628195109
 30
0.0
 11
139.9617668417
 21
205.5626913388
 31
0.0
  0
LINE
  5
3D8
330
29D
100
AcDbEntity
  8
1-1MH
  6
Continuous
 62
     7
100
AcDbLine
 10
139.9617668417
 20
205.5626913388
 30
0.0
 11
139.9615448411
 21
205.5628195109
 31
0.0
  0
LINE
  5
3D9
330
29D
100
AcDbEntity
  8
1-1MH
  6
Continuous
 62
     7
100
AcDbLine
 10
139.9615448411
 20
205.5628195109
 30
0.0
 11
138.4614888422
 21
206.4288772457
 31
0.0
  0
LINE
  5
3DA
330
29D
100
AcDbEntity
  8
1-1MH
  6
Continuous
 62
     7
100
AcDbLine
 10
138.4614888422
 20
206.4288772457
 30
0.0
 11
138.4612668417
 21
206.4290054177
 31
0.0
  0
LINE
  5
3DB
330
29D
100
AcDbEntity
  8
1-1MH
  6
Continuous
 62
     7
100
AcDbLine
 10
138.4612668417
 20
206.4290054177
 30
0.0
 11
138.4612668417
 21
206.4292617619
 31
0.0
  0
LINE
  5
3DC
330
29D
100
AcDbEntity
  8
1-1MH
  6
Continuous
 62
     7
100
AcDbLine
 10
138.4612668417
 20
206.4292617619
 30
0.0
 11
138.4612668417
 21
208.1613772315
 31
0.0
  0
LINE
  5
3DD
330
29D
100
AcDbEntity
  8
1-1MH
  6
Continuous
 62
     7
100
AcDbLine
 10
138.4612668417
 20
208.1613772315
 30
0.0
 11
138.4612668417
 21
208.1616335756
 31
0.0
  0
LINE
  5
3DE
330
29D
100
AcDbEntity
  8
1-1MH
  6
Continuous
 62
     7
100
AcDbLine
 10
139.9617668417
 20
209.0279476545
 30
0.0
 11
139.9619888422
 21
209.0278194824
 31
0.0
  0
LINE
  5
3DF
330
29D
100
AcDbEntity
  8
1-1MH
  6
Continuous
 62
     7
100
AcDbLine
 10
139.9619888422
 20
209.0278194824
 30
0.0
 11
141.4620448411
 21
208.1617617476
 31
0.0
  0
LINE
  5
3E0
330
29D
100
AcDbEntity
  8
1-1MH
  6
Continuous
 62
     7
100
AcDbLine
 10
141.4620448411
 20
208.1617617476
 30
0.0
 11
141.4622668417
 21
208.1616335756
 31
0.0
  0
CIRCLE
  5
3E1
330
29D
100
AcDbEntity
  8
1-1MH
  6
Continuous
 62
     7
100
AcDbCircle
 10
139.9617668417
 20
164.2953194967
 30
0.0
 40
3.5
  0
CIRCLE
  5
3E2
330
29D
100
AcDbEntity
  8
1-1MH
  6
Continuous
 62
     7
100
AcDbCircle
 10
139.9617668417
 20
164.2953194967
 30
0.0
 40
3.15
  0
ARC
  5
3E3
330
29D
100
AcDbEntity
  8
1-1MH
  6
Continuous
 62
     7
100
AcDbCircle
 10
139.9617668417
 20
164.2953194967
 30
0.0
 40
1.732500000000003
100
AcDbArc
 50
270.0073418142
 51
329.9926581858
  0
ARC
  5
3E4
330
29D
100
AcDbEntity
  8
1-1MH
  6
Continuous
 62
     7
100
AcDbCircle
 10
139.9617668417
 20
164.2953194967
 30
0.0
 40
1.7325
100
AcDbArc
 50
210.0073418142
 51
269.9926581858
  0
ARC
  5
3E5
330
29D
100
AcDbEntity
  8
1-1MH
  6
Continuous
 62
     7
100
AcDbCircle
 10
139.9617668417
 20
164.2953194967
 30
0.0
 40
1.732499999999995
100
AcDbArc
 50
330.0073418142
 51
29.9926581858
  0
ARC
  5
3E6
330
29D
100
AcDbEntity
  8
1-1MH
  6
Continuous
 62
     7
100
AcDbCircle
 10
139.9617668417
 20
164.2953194967
 30
0.0
 40
1.7325
100
AcDbArc
 50
30.0073418142
 51
89.9926581858
  0
ARC
  5
3E7
330
29D
100
AcDbEntity
  8
1-1MH
  6
Continuous
 62
     7
100
AcDbCircle
 10
139.9617668417
 20
164.2953194967
 30
0.0
 40
1.732500000000002
100
AcDbArc
 50
150.0073418142
 51
209.9926581858
  0
ARC
  5
3E8
330
29D
100
AcDbEntity
  8
1-1MH
  6
Continuous
 62
     7
100
AcDbCircle
 10
139.9617668417
 20
164.2953194967
 30
0.0
 40
1.732500000000003
100
AcDbArc
 50
90.0073418142
 51
149.9926581858
  0
LINE
  5
3E9
330
29D
100
AcDbEntity
  8
1-1MH
  6
Continuous
 62
     7
100
AcDbLine
 10
138.4612668417
 20
165.1616335756
 30
0.0
 11
138.4614888422
 21
165.1617617476
 31
0.0
  0
LINE
  5
3EA
330
29D
100
AcDbEntity
  8
1-1MH
  6
Continuous
 62
     7
100
AcDbLine
 10
138.4614888422
 20
165.1617617476
 30
0.0
 11
139.9615448411
 21
166.0278194824
 31
0.0
  0
LINE
  5
3EB
330
29D
100
AcDbEntity
  8
1-1MH
  6
Continuous
 62
     7
100
AcDbLine
 10
139.9615448411
 20
166.0278194824
 30
0.0
 11
139.9617668417
 21
166.0279476545
 31
0.0
  0
LINE
  5
3EC
330
29D
100
AcDbEntity
  8
1-1MH
  6
Continuous
 62
     7
100
AcDbLine
 10
141.4622668417
 20
165.1616335756
 30
0.0
 11
141.4622668417
 21
165.1613772315
 31
0.0
  0
LINE
  5
3ED
330
29D
100
AcDbEntity
  8
1-1MH
  6
Continuous
 62
     7
100
AcDbLine
 10
141.4622668417
 20
165.1613772315
 30
0.0
 11
141.4622668417
 21
163.4292617619
 31
0.0
  0
LINE
  5
3EE
330
29D
100
AcDbEntity
  8
1-1MH
  6
Continuous
 62
     7
100
AcDbLine
 10
141.4622668417
 20
163.4292617619
 30
0.0
 11
141.4622668417
 21
163.4290054177
 31
0.0
  0
LINE
  5
3EF
330
29D
100
AcDbEntity
  8
1-1MH
  6
Continuous
 62
     7
100
AcDbLine
 10
141.4622668417
 20
163.4290054177
 30
0.0
 11
141.4620448411
 21
163.4288772457
 31
0.0
  0
LINE
  5
3F0
330
29D
100
AcDbEntity
  8
1-1MH
  6
Continuous
 62
     7
100
AcDbLine
 10
141.4620448411
 20
163.4288772457
 30
0.0
 11
139.9619888422
 21
162.5628195109
 31
0.0
  0
LINE
  5
3F1
330
29D
100
AcDbEntity
  8
1-1MH
  6
Continuous
 62
     7
100
AcDbLine
 10
139.9619888422
 20
162.5628195109
 30
0.0
 11
139.9617668417
 21
162.5626913388
 31
0.0
  0
LINE
  5
3F2
330
29D
100
AcDbEntity
  8
1-1MH
  6
Continuous
 62
     7
100
AcDbLine
 10
139.9617668417
 20
162.5626913388
 30
0.0
 11
139.9615448411
 21
162.5628195109
 31
0.0
  0
LINE
  5
3F3
330
29D
100
AcDbEntity
  8
1-1MH
  6
Continuous
 62
     7
100
AcDbLine
 10
139.9615448411
 20
162.5628195109
 30
0.0
 11
138.4614888422
 21
163.4288772457
 31
0.0
  0
LINE
  5
3F4
330
29D
100
AcDbEntity
  8
1-1MH
  6
Continuous
 62
     7
100
AcDbLine
 10
138.4614888422
 20
163.4288772457
 30
0.0
 11
138.4612668417
 21
163.4290054177
 31
0.0
  0
LINE
  5
3F5
330
29D
100
AcDbEntity
  8
1-1MH
  6
Continuous
 62
     7
100
AcDbLine
 10
138.4612668417
 20
163.4290054177
 30
0.0
 11
138.4612668417
 21
163.4292617619
 31
0.0
  0
LINE
  5
3F6
330
29D
100
AcDbEntity
  8
1-1MH
  6
Continuous
 62
     7
100
AcDbLine
 10
138.4612668417
 20
163.4292617619
 30
0.0
 11
138.4612668417
 21
165.1613772315
 31
0.0
  0
LINE
  5
3F7
330
29D
100
AcDbEntity
  8
1-1MH
  6
Continuous
 62
     7
100
AcDbLine
 10
138.4612668417
 20
165.1613772315
 30
0.0
 11
138.4612668417
 21
165.1616335756
 31
0.0
  0
LINE
  5
3F8
330
29D
100
AcDbEntity
  8
1-1MH
  6
Continuous
 62
     7
100
AcDbLine
 10
139.9617668417
 20
166.0279476545
 30
0.0
 11
139.9619888422
 21
166.0278194824
 31
0.0
  0
LINE
  5
3F9
330
29D
100
AcDbEntity
  8
1-1MH
  6
Continuous
 62
     7
100
AcDbLine
 10
139.9619888422
 20
166.0278194824
 30
0.0
 11
141.4620448411
 21
165.1617617476
 31
0.0
  0
LINE
  5
3FA
330
29D
100
AcDbEntity
  8
1-1MH
  6
Continuous
 62
     7
100
AcDbLine
 10
141.4620448411
 20
165.1617617476
 30
0.0
 11
141.4622668417
 21
165.1616335756
 31
0.0
  0
LINE
  5
3FB
330
29D
100
AcDbEntity
  8
1-1MH
  6
Continuous
 62
     7
100
AcDbLine
 10
78.4617668417
 20
175.2381178194
 30
0.0
 11
79.7112668417
 21
174.516718658
 31
0.0
  0
LINE
  5
3FC
330
29D
100
AcDbEntity
  8
1-1MH
  6
Continuous
 62
     7
100
AcDbLine
 10
79.7112668417
 20
173.0739203353
 30
0.0
 11
78.4617668417
 21
172.352521174
 31
0.0
  0
LINE
  5
3FD
330
29D
100
AcDbEntity
  8
1-1MH
  6
Continuous
 62
     7
100
AcDbLine
 10
77.2122668417
 20
173.0739203353
 30
0.0
 11
77.2122668417
 21
174.516718658
 31
0.0
  0
LINE
  5
3FE
330
29D
100
AcDbEntity
  8
1-1MH
  6
Continuous
 62
     7
100
AcDbLine
 10
78.4617668417
 20
172.352521174
 30
0.0
 11
77.2122668417
 21
173.0739203353
 31
0.0
  0
LINE
  5
3FF
330
29D
100
AcDbEntity
  8
1-1MH
  6
Continuous
 62
     7
100
AcDbLine
 10
79.7112668417
 20
174.516718658
 30
0.0
 11
79.7112668417
 21
173.0739203353
 31
0.0
  0
LINE
  5
400
330
29D
100
AcDbEntity
  8
1-1MH
  6
Continuous
 62
     7
100
AcDbLine
 10
77.2122668417
 20
174.516718658
 30
0.0
 11
78.4617668417
 21
175.2381178194
 31
0.0
  0
CIRCLE
  5
401
330
29D
100
AcDbEntity
  8
1-1MH
  6
Continuous
 62
     7
100
AcDbCircle
 10
78.4617668417
 20
173.7953194967
 30
0.0
 40
1.8265927272727
  0
LINE
  5
402
330
29D
100
AcDbEntity
  8
1-1MH
  6
Continuous
 62
     7
100
AcDbLine
 10
142.4617668417
 20
242.2381178194
 30
0.0
 11
143.7112668417
 21
241.516718658
 31
0.0
  0
LINE
  5
403
330
29D
100
AcDbEntity
  8
1-1MH
  6
Continuous
 62
     7
100
AcDbLine
 10
143.7112668417
 20
240.0739203353
 30
0.0
 11
142.4617668417
 21
239.352521174
 31
0.0
  0
LINE
  5
404
330
29D
100
AcDbEntity
  8
1-1MH
  6
Continuous
 62
     7
100
AcDbLine
 10
141.2122668417
 20
240.0739203353
 30
0.0
 11
141.2122668417
 21
241.516718658
 31
0.0
  0
LINE
  5
405
330
29D
100
AcDbEntity
  8
1-1MH
  6
Continuous
 62
     7
100
AcDbLine
 10
142.4617668417
 20
239.352521174
 30
0.0
 11
141.2122668417
 21
240.0739203353
 31
0.0
  0
LINE
  5
406
330
29D
100
AcDbEntity
  8
1-1MH
  6
Continuous
 62
     7
100
AcDbLine
 10
143.7112668417
 20
241.516718658
 30
0.0
 11
143.7112668417
 21
240.0739203353
 31
0.0
  0
LINE
  5
407
330
29D
100
AcDbEntity
  8
1-1MH
  6
Continuous
 62
     7
100
AcDbLine
 10
141.2122668417
 20
241.516718658
 30
0.0
 11
142.4617668417
 21
242.2381178194
 31
0.0
  0
CIRCLE
  5
408
330
29D
100
AcDbEntity
  8
1-1MH
  6
Continuous
 62
     7
100
AcDbCircle
 10
142.4617668417
 20
240.7953194967
 30
0.0
 40
1.8265927272727
  0
LINE
  5
409
330
29D
100
AcDbEntity
  8
1-1MH
  6
Continuous
 62
     7
100
AcDbLine
 10
142.4617668417
 20
175.2381178194
 30
0.0
 11
143.7112668417
 21
174.516718658
 31
0.0
  0
LINE
  5
40A
330
29D
100
AcDbEntity
  8
1-1MH
  6
Continuous
 62
     7
100
AcDbLine
 10
143.7112668417
 20
173.0739203353
 30
0.0
 11
142.4617668417
 21
172.352521174
 31
0.0
  0
LINE
  5
40B
330
29D
100
AcDbEntity
  8
1-1MH
  6
Continuous
 62
     7
100
AcDbLine
 10
141.2122668417
 20
173.0739203353
 30
0.0
 11
141.2122668417
 21
174.516718658
 31
0.0
  0
LINE
  5
40C
330
29D
100
AcDbEntity
  8
1-1MH
  6
Continuous
 62
     7
100
AcDbLine
 10
142.4617668417
 20
172.352521174
 30
0.0
 11
141.2122668417
 21
173.0739203353
 31
0.0
  0
LINE
  5
40D
330
29D
100
AcDbEntity
  8
1-1MH
  6
Continuous
 62
     7
100
AcDbLine
 10
143.7112668417
 20
174.516718658
 30
0.0
 11
143.7112668417
 21
173.0739203353
 31
0.0
  0
LINE
  5
40E
330
29D
100
AcDbEntity
  8
1-1MH
  6
Continuous
 62
     7
100
AcDbLine
 10
141.2122668417
 20
174.516718658
 30
0.0
 11
142.4617668417
 21
175.2381178194
 31
0.0
  0
CIRCLE
  5
40F
330
29D
100
AcDbEntity
  8
1-1MH
  6
Continuous
 62
     7
100
AcDbCircle
 10
142.4617668417
 20
173.7953194967
 30
0.0
 40
1.8265927272727
  0
ARC
  5
410
330
29D
100
AcDbEntity
  8
1-1MH
  6
Continuous
 62
     7
100
AcDbCircle
 10
68.9617668417
 20
222.2953194967
 30
0.0
 40
0.5000000000000004
100
AcDbArc
 50
90.0
 51
180.0
  0
LINE
  5
411
330
29D
100
AcDbEntity
  8
1-1MH
  6
Continuous
 62
     7
100
AcDbLine
 10
68.4617668417
 20
203.2953194967
 30
0.0
 11
59.9617668417
 21
203.2953194967
 31
0.0
  0
LINE
  5
412
330
29D
100
AcDbEntity
  8
1-1MH
  6
Continuous
 62
     7
100
AcDbLine
 10
59.9617668417
 20
186.2953194967
 30
0.0
 11
68.4617668417
 21
186.2953194967
 31
0.0
  0
LINE
  5
413
330
29D
100
AcDbEntity
  8
1-1MH
  6
Continuous
 62
     7
100
AcDbLine
 10
57.9617668417
 20
201.7953194967
 30
0.0
 11
31.2617668417
 21
201.7953194967
 31
0.0
  0
LINE
  5
414
330
29D
100
AcDbEntity
  8
1-1MH
  6
Continuous
 62
     7
100
AcDbLine
 10
31.2617668417
 20
187.7953194967
 30
0.0
 11
57.9617668417
 21
187.7953194967
 31
0.0
  0
LINE
  5
415
330
29D
100
AcDbEntity
  8
1-1MH
  6
Continuous
 62
     7
100
AcDbLine
 10
31.2617668417
 20
201.7953194967
 30
0.0
 11
30.4617668417
 21
200.9953194967
 31
0.0
  0
LINE
  5
416
330
29D
100
AcDbEntity
  8
1-1MH
  6
Continuous
 62
     7
100
AcDbLine
 10
30.4617668417
 20
188.5953194967
 30
0.0
 11
31.2617668417
 21
187.7953194967
 31
0.0
  0
LINE
  5
417
330
29D
100
AcDbEntity
  8
1-1MH
  6
Continuous
 62
     7
100
AcDbLine
 10
59.9617668417
 20
201.7953194967
 30
0.0
 11
59.8089804372
 21
201.7953194967
 31
0.0
  0
LINE
  5
418
330
29D
100
AcDbEntity
  8
1-1MH
  6
Continuous
 62
     7
100
AcDbLine
 10
59.8089804372
 20
187.7953194967
 30
0.0
 11
59.9617668417
 21
187.7953194967
 31
0.0
  0
ARC
  5
419
330
29D
100
AcDbEntity
  8
1-1MH
  6
Continuous
 62
     7
100
AcDbCircle
 10
59.3617668417
 20
202.1953194967
 30
0.0
 40
0.6000000000000203
100
AcDbArc
 50
270.0
 51
318.1896851042
  0
ARC
  5
41A
330
29D
100
AcDbEntity
  8
1-1MH
  6
Continuous
 62
     7
100
AcDbCircle
 10
59.3617668417
 20
187.3953194967
 30
0.0
 40
0.6000000000000033
100
AcDbArc
 50
41.8103148958
 51
90.0
  0
LINE
  5
41B
330
29D
100
AcDbEntity
  8
1-1MH
  6
Continuous
 62
     7
100
AcDbLine
 10
57.9617668417
 20
187.7953194967
 30
0.0
 11
58.7081770032
 21
187.9953194967
 31
0.0
  0
LINE
  5
41C
330
29D
100
AcDbEntity
  8
1-1MH
  6
Continuous
 62
     7
100
AcDbLine
 10
58.7081770032
 20
201.5953194967
 30
0.0
 11
57.9617668417
 21
201.7953194967
 31
0.0
  0
LINE
  5
41D
330
29D
100
AcDbEntity
  8
1-1MH
  6
Continuous
 62
     7
100
AcDbLine
 10
58.7081770032
 20
187.9953194967
 30
0.0
 11
59.3617668417
 21
187.9953194967
 31
0.0
  0
LINE
  5
41E
330
29D
100
AcDbEntity
  8
1-1MH
  6
Continuous
 62
     7
100
AcDbLine
 10
59.3617668417
 20
201.5953194967
 30
0.0
 11
58.7081770032
 21
201.5953194967
 31
0.0
  0
LINE
  5
41F
330
29D
100
AcDbEntity
  8
1-1MH
  6
Continuous
 62
     7
100
AcDbLine
 10
104.9617668417
 20
267.7953194967
 30
0.0
 11
104.9617668417
 21
265.7953194967
 31
0.0
  0
LINE
  5
420
330
29D
100
AcDbEntity
  8
1-1MH
  6
Continuous
 62
     7
100
AcDbLine
 10
115.9617668417
 20
265.7953194967
 30
0.0
 11
115.9617668417
 21
267.7953194967
 31
0.0
  0
LINE
  5
421
330
29D
100
AcDbEntity
  8
1-1MH
  6
Continuous
 62
     7
100
AcDbLine
 10
102.0084138417
 20
276.2953194967
 30
0.0
 11
102.0084138417
 21
267.7953194967
 31
0.0
  0
LINE
  5
422
330
29D
100
AcDbEntity
  8
1-1MH
  6
Continuous
 62
     7
100
AcDbLine
 10
119.0084138417
 20
267.7953194967
 30
0.0
 11
119.0084138417
 21
276.2953194967
 31
0.0
  0
ARC
  5
423
330
29D
100
AcDbEntity
  8
1-1MH
  6
Continuous
 62
     7
100
AcDbCircle
 10
103.5084138417
 20
276.2953194967
 30
0.0
 40
1.500000000000001
100
AcDbArc
 50
90.0
 51
180.0
  0
ARC
  5
424
330
29D
100
AcDbEntity
  8
1-1MH
  6
Continuous
 62
     7
100
AcDbCircle
 10
117.5084138417
 20
276.2953194967
 30
0.0
 40
1.500000000000001
100
AcDbArc
 50
0.0
 51
90.0
  0
ARC
  5
425
330
29D
100
AcDbEntity
  8
1-1MH
  6
Continuous
 62
     7
100
AcDbCircle
 10
151.9617668417
 20
222.2953194967
 30
0.0
 40
0.5000000000000004
100
AcDbArc
 50
0.0
 51
90.0
  0
ENDBLK
  5
427
330
29D
100
AcDbEntity
  8
0
100
AcDbBlockEnd
  0
BLOCK
  5
5A1
330
428
100
AcDbEntity
  8
0
100
AcDbBlockBegin
  2
SE5
 70
     0
 10
0.0
 20
0.0
 30
0.0
  3
SE5
  1

  0
LINE
  5
42A
330
428
100
AcDbEntity
  8
1-1MH
  6
Continuous
 62
     7
100
AcDbLine
 10
557.4569855709
 20
142.7237758661
 30
0.0
 11
509.3737244502
 21
114.9628921145
 31
0.0
  0
LINE
  5
42B
330
428
100
AcDbEntity
  8
1-1MH
  6
Continuous
 62
     7
100
AcDbLine
 10
544.7290635096
 20
150.0722450944
 30
0.0
 11
557.4569855709
 21
142.7237758661
 31
0.0
  0
LINE
  5
42C
330
428
100
AcDbEntity
  8
1-1MH
  6
Continuous
 62
     7
100
AcDbLine
 10
496.6458023889
 20
122.3113613429
 30
0.0
 11
544.7290635096
 21
150.0722450944
 31
0.0
  0
LINE
  5
42D
330
428
100
AcDbEntity
  8
1-1MH
  6
Continuous
 62
     7
100
AcDbLine
 10
496.6458023889
 20
122.3113613429
 30
0.0
 11
509.3737244502
 21
114.9628921145
 31
0.0
  0
ELLIPSE
  5
42E
330
428
100
AcDbEntity
  8
1-1MH
  6
Continuous
 62
     7
100
AcDbEllipse
 10
514.6770253091
 20
123.331982069
 30
0.0
 11
-2.966025403784444
 21
0.0
 31
0.0
210
0.0
220
0.0
230
1.0
 40
0.5773502692
 41
0.0
 42
6.283185307179586
  0
ELLIPSE
  5
42F
330
428
100
AcDbEntity
  8
1-1MH
  6
Continuous
 62
     7
100
AcDbEllipse
 10
541.5470829942
 20
138.8454171067
 30
0.0
 11
-2.966025403784447
 21
2.059984127722458E-15
 31
0.0
210
0.0
220
0.0
230
1.0
 40
0.5773502692
 41
0.0
 42
6.283185307179586
  0
LINE
  5
430
330
428
100
AcDbEntity
  8
1-1MH
  6
Continuous
 62
     7
100
AcDbLine
 10
558.8711991333
 20
125.5773476666
 30
0.0
 11
510.7879380126
 21
97.816463915
 31
0.0
  0
LINE
  5
431
330
428
100
AcDbEntity
  8
1-1MH
  6
Continuous
 62
     7
100
AcDbLine
 10
558.8711991333
 20
140.2742861233
 30
0.0
 11
558.8711991333
 21
125.5773476666
 31
0.0
  0
LINE
  5
432
330
428
100
AcDbEntity
  8
1-1MH
  6
Continuous
 62
     7
100
AcDbLine
 10
510.7879380126
 20
112.5134023717
 30
0.0
 11
558.8711991333
 21
140.2742861233
 31
0.0
  0
LINE
  5
433
330
428
100
AcDbEntity
  8
1-1MH
  6
Continuous
 62
     7
100
AcDbLine
 10
510.7879380126
 20
112.5134023717
 30
0.0
 11
510.7879380126
 21
97.816463915
 31
0.0
  0
ELLIPSE
  5
434
330
428
100
AcDbEntity
  8
1-1MH
  6
Continuous
 62
     7
100
AcDbEllipse
 10
552.5072381026
 20
131.2928237331
 30
0.0
 11
-1.483012701892098
 21
-2.568653347947399
 31
0.0
210
0.0
220
0.0
230
0.9999999999999998
 40
0.5773502692
 41
0.0
 42
6.283185307179586
  0
ELLIPSE
  5
435
330
428
100
AcDbEntity
  8
1-1MH
  6
Continuous
 62
     7
100
AcDbEllipse
 10
515.7376854809
 20
110.063912629
 30
0.0
 11
-1.483012701892087
 21
-2.5686533479474
 31
0.0
210
0.0
220
0.0
230
0.9999999999999998
 40
0.5773502692
 41
0.0
 42
6.283185307179586
  0
ELLIPSE
  5
436
330
428
100
AcDbEntity
  8
1-1MH
  6
Continuous
 62
     7
100
AcDbEllipse
 10
537.6579956977
 20
72.5050699063
 30
0.0
 11
-14.24999999999877
 21
-24.68172400785717
 31
0.0
210
0.0
220
0.0
230
1.0
 40
0.5773502692
 41
0.2845861704260035
 42
1.286210156368724
  0
ELLIPSE
  5
437
330
428
100
AcDbEntity
  8
1-1MH
  6
Continuous
 62
     7
100
AcDbEllipse
 10
519.9803261725
 20
82.711277164
 30
0.0
 11
20.15254325886116
 21
-34.90522883099877
 31
0.0
210
0.0
220
0.0
230
1.0
 40
0.5773502692
 41
0.5008119930391509
 42
0.530988264585304
  0
ELLIPSE
  5
438
330
428
100
AcDbEntity
  8
1-1MH
  6
Continuous
 62
     7
100
AcDbEllipse
 10
536.9508889165
 20
72.9133181967
 30
0.0
 11
-14.24999999999875
 21
-24.68172400785718
 31
0.0
210
0.0
220
0.0
230
1.0
 40
0.5773502692
 41
1.812702492519639
 42
6.498962151504018
  0
ELLIPSE
  5
439
330
428
100
AcDbEntity
  8
1-1MH
  6
Continuous
 62
     7
100
AcDbEllipse
 10
493.4638218735
 20
166.1980525677
 30
0.0
 11
-2.099999999999998
 21
-9.757819552369540E-16
 31
0.0
210
0.0
220
0.0
230
1.0
 40
0.5773502692
 41
0.0
 42
6.283185307179586
  0
ELLIPSE
  5
43A
330
428
100
AcDbEntity
  8
1-1MH
  6
Continuous
 62
     7
100
AcDbEllipse
 10
493.4638218735
 20
166.6063008582
 30
0.0
 11
-2.96602540378444
 21
-1.355252715606881E-14
 31
0.0
210
0.0
220
0.0
230
1.0
 40
0.5773502692
 41
0.0
 42
6.283185307179586
  0
ELLIPSE
  5
43B
330
428
100
AcDbEntity
  8
1-1MH
  6
Continuous
 62
     7
100
AcDbEllipse
 10
466.5937641884
 20
150.6846175301
 30
0.0
 11
-2.099999999999998
 21
-1.517883041479706E-14
 31
0.0
210
0.0
220
0.0
230
1.0
 40
0.5773502692
 41
0.0
 42
6.283185307179586
  0
ELLIPSE
  5
43C
330
428
100
AcDbEntity
  8
1-1MH
  6
Continuous
 62
     7
100
AcDbEllipse
 10
466.5937641884
 20
151.0928658206
 30
0.0
 11
-2.966025403784443
 21
2.059984127722458E-15
 31
0.0
210
0.0
220
0.0
230
1.0
 40
0.5773502692
 41
0.0
 42
6.283185307179586
  0
ELLIPSE
  5
43D
330
428
100
AcDbEntity
  8
1-1MH
  6
Continuous
 62
     7
100
AcDbEllipse
 10
541.5470829942
 20
138.4371688162
 30
0.0
 11
-2.1
 21
4.336808689942018E-16
 31
0.0
210
0.0
220
0.0
230
1.0
 40
0.5773502692
 41
0.0
 42
6.283185307179586
  0
ELLIPSE
  5
43E
330
428
100
AcDbEntity
  8
1-1MH
  6
Continuous
 62
     7
100
AcDbEllipse
 10
514.6770253091
 20
122.9237337786
 30
0.0
 11
-2.100000000000007
 21
-1.279358563532895E-14
 31
0.0
210
0.0
220
0.0
230
1.0
 40
0.5773502692
 41
0.0
 42
6.283185307179586
  0
ELLIPSE
  5
43F
330
428
100
AcDbEntity
  8
1-1MH
  6
Continuous
 62
     7
100
AcDbEllipse
 10
521.3945397304
 20
94.1422293009
 30
0.0
 11
-5.499999999999524
 21
-9.526279441629102
 31
0.0
210
0.0
220
0.0
230
1.0
 40
0.5773502692
 41
0.0
 42
6.283185307179586
  0
ELLIPSE
  5
440
330
428
100
AcDbEntity
  8
1-1MH
  6
Continuous
 62
     7
100
AcDbEllipse
 10
518.9196659963
 20
95.5710983175
 30
0.0
 11
-5.499999999999527
 21
-9.526279441629093
 31
0.0
210
0.0
220
0.0
230
0.9999999999999999
 40
0.5773502692
 41
0.2269312554071926
 42
0.5640311925101503
  0
ELLIPSE
  5
441
330
428
100
AcDbEntity
  8
1-1MH
  6
Continuous
 62
     7
100
AcDbEllipse
 10
518.9196659963
 20
95.5710983175
 30
0.0
 11
-5.499999999999527
 21
-9.526279441629093
 31
0.0
210
0.0
220
0.0
230
0.9999999999999999
 40
0.5773502692
 41
2.580276442373378
 42
2.914661398182595
  0
LINE
  5
442
330
428
100
AcDbEntity
  8
1-1MH
  6
Continuous
 62
     7
100
AcDbLine
 10
452.0980751741
 20
148.0310036421
 30
0.0
 11
450.6838616117
 21
147.2145070612
 31
0.0
  0
LINE
  5
443
330
428
100
AcDbEntity
  8
1-1MH
  6
Continuous
 62
     7
100
AcDbLine
 10
452.0980751741
 20
148.0310036421
 30
0.0
 11
500.1813362948
 21
175.7918873936
 31
0.0
  0
LINE
  5
444
330
428
100
AcDbEntity
  8
1-1MH
  6
Continuous
 62
     7
100
AcDbLine
 10
509.3737244502
 20
113.3298989527
 30
0.0
 11
509.3737244502
 21
114.9628921145
 31
0.0
  0
LINE
  5
445
330
428
100
AcDbEntity
  8
1-1MH
  6
Continuous
 62
     7
100
AcDbLine
 10
510.7879380126
 20
112.5134023717
 30
0.0
 11
509.3737244502
 21
113.3298989527
 31
0.0
  0
LINE
  5
446
330
428
100
AcDbEntity
  8
1-1MH
  6
Continuous
 62
     7
100
AcDbLine
 10
557.4569855709
 20
142.7237758661
 30
0.0
 11
558.8711991333
 21
140.2742861233
 31
0.0
  0
LINE
  5
447
330
428
100
AcDbEntity
  8
1-1MH
  6
Continuous
 62
     7
100
AcDbLine
 10
510.7879380126
 20
21.8822818888
 30
0.0
 11
558.8711991333
 21
49.6431656403
 31
0.0
  0
LINE
  5
448
330
428
100
AcDbEntity
  8
1-1MH
  6
Continuous
 62
     7
100
AcDbLine
 10
509.3737244502
 20
21.0657853078
 30
0.0
 11
510.7879380126
 21
21.8822818888
 31
0.0
  0
LINE
  5
449
330
428
100
AcDbEntity
  8
1-1MH
  6
Continuous
 62
     7
100
AcDbLine
 10
558.1640923521
 20
69.9640258557
 30
0.0
 11
558.1640923521
 21
125.1690993761
 31
0.0
  0
LINE
  5
44A
330
428
100
AcDbEntity
  8
1-1MH
  6
Continuous
 62
     7
100
AcDbLine
 10
509.3737244502
 20
37.3957169264
 30
0.0
 11
509.3737244502
 21
96.9999673341
 31
0.0
  0
LINE
  5
44B
330
428
100
AcDbEntity
  8
1-1MH
  6
Continuous
 62
     7
100
AcDbLine
 10
509.3737244502
 20
37.3957169264
 30
0.0
 11
526.0823563569
 21
47.0424500555
 31
0.0
  0
LINE
  5
44C
330
428
100
AcDbEntity
  8
1-1MH
  6
Continuous
 62
     7
100
AcDbLine
 10
510.7879380126
 20
36.5792203455
 30
0.0
 11
510.7879380126
 21
21.8822818888
 31
0.0
  0
LINE
  5
44D
330
428
100
AcDbEntity
  8
1-1MH
  6
Continuous
 62
     7
100
AcDbLine
 10
558.8711991333
 20
51.9752788765
 30
0.0
 11
558.8711991333
 21
49.6431656403
 31
0.0
  0
LINE
  5
44E
330
428
100
AcDbEntity
  8
1-1MH
  6
Continuous
 62
     7
100
AcDbLine
 10
547.3339969379
 20
57.6790973038
 30
0.0
 11
548.162946379
 21
58.1576914867
 31
0.0
  0
LINE
  5
44F
330
428
100
AcDbEntity
  8
1-1MH
  6
Continuous
 62
     7
100
AcDbLine
 10
510.7879380126
 20
36.5792203455
 30
0.0
 11
527.9819944575
 21
46.5062134624
 31
0.0
  0
ELLIPSE
  5
450
330
428
100
AcDbEntity
  8
1-1MH
  6
Continuous
 62
     7
100
AcDbEllipse
 10
552.5072381026
 20
51.2761588022
 30
0.0
 11
-1.483012701892086
 21
-2.568653347947397
 31
0.0
210
0.0
220
0.0
230
1.0
 40
0.5773502692
 41
0.0
 42
6.283185307179586
  0
ELLIPSE
  5
451
330
428
100
AcDbEntity
  8
1-1MH
  6
Continuous
 62
     7
100
AcDbEllipse
 10
515.7376854809
 20
30.047247698
 30
0.0
 11
-1.48301270189209
 21
-2.568653347947398
 31
0.0
210
0.0
220
0.0
230
1.0
 40
0.5773502692
 41
0.0
 42
6.283185307179586
  0
LINE
  5
452
330
428
100
AcDbEntity
  8
1-1MH
  6
Continuous
 62
     7
100
AcDbLine
 10
512.9092583562
 20
168.4434181653
 30
0.0
 11
464.8259972355
 21
140.6825344137
 31
0.0
  0
LINE
  5
453
330
428
100
AcDbEntity
  8
1-1MH
  6
Continuous
 62
     7
100
AcDbLine
 10
500.1813362948
 20
175.7918873936
 30
0.0
 11
512.9092583562
 21
168.4434181653
 31
0.0
  0
LINE
  5
454
330
428
100
AcDbEntity
  8
1-1MH
  6
Continuous
 62
     7
100
AcDbLine
 10
452.0980751741
 20
148.0310036421
 30
0.0
 11
464.8259972355
 21
140.6825344137
 31
0.0
  0
ELLIPSE
  5
455
330
428
100
AcDbEntity
  8
1-1MH
  6
Continuous
 62
     7
100
AcDbEllipse
 10
519.9803261681
 20
82.7112771676
 30
0.0
 11
20.1525432637968
 21
-34.90522883441045
 31
0.0
210
0.0
220
0.0
230
0.9999999999999998
 40
0.5773502692
 41
-0.5696213190760027
 42
-0.5008119929741985
  0
LINE
  5
456
330
428
100
AcDbEntity
  8
1-1MH
  6
Continuous
 62
     7
100
AcDbLine
 10
510.7879380126
 20
36.5792203455
 30
0.0
 11
509.3737244502
 21
37.3957169264
 31
0.0
  0
ELLIPSE
  5
457
330
428
100
AcDbEntity
  8
1-1MH
  6
Continuous
 62
     7
100
AcDbEllipse
 10
552.153684712
 20
131.4969478783
 30
0.0
 11
-1.049999999999905
 21
-1.818653347947365
 31
0.0
210
0.0
220
0.0
230
0.9999999999999998
 40
0.5773502692
 41
0.0
 42
6.283185307179586
  0
ELLIPSE
  5
458
330
428
100
AcDbEntity
  8
1-1MH
  6
Continuous
 62
     7
100
AcDbEllipse
 10
515.3841320903
 20
110.2680367742
 30
0.0
 11
-1.049999999999909
 21
-1.818653347947375
 31
0.0
210
0.0
220
0.0
230
1.0
 40
0.5773502692
 41
0.0
 42
6.283185307179586
  0
ELLIPSE
  5
459
330
428
100
AcDbEntity
  8
1-1MH
  6
Continuous
 62
     7
100
AcDbEllipse
 10
552.153684712
 20
51.4802829474
 30
0.0
 11
-1.049999999999912
 21
-1.818653347947375
 31
0.0
210
0.0
220
0.0
230
1.0
 40
0.5773502692
 41
0.0
 42
6.283185307179586
  0
ELLIPSE
  5
45A
330
428
100
AcDbEntity
  8
1-1MH
  6
Continuous
 62
     7
100
AcDbEllipse
 10
515.3841320903
 20
30.2513718433
 30
0.0
 11
-1.04999999999991
 21
-1.818653347947374
 31
0.0
210
0.0
220
0.0
230
1.0
 40
0.5773502692
 41
0.0
 42
6.283185307179586
  0
LINE
  5
45B
330
428
100
AcDbEntity
  8
1-1MH
  6
Continuous
 62
     7
100
AcDbLine
 10
507.9595108879
 20
21.8822818888
 30
0.0
 11
450.6838616117
 21
54.9503934163
 31
0.0
  0
LINE
  5
45C
330
428
100
AcDbEntity
  8
1-1MH
  6
Continuous
 62
     7
100
AcDbLine
 10
507.9595108879
 20
112.5134023717
 30
0.0
 11
507.9595108879
 21
21.8822818888
 31
0.0
  0
LINE
  5
45D
330
428
100
AcDbEntity
  8
1-1MH
  6
Continuous
 62
     7
100
AcDbLine
 10
450.6838616117
 20
145.5815138993
 30
0.0
 11
507.9595108879
 21
112.5134023717
 31
0.0
  0
LINE
  5
45E
330
428
100
AcDbEntity
  8
1-1MH
  6
Continuous
 62
     7
100
AcDbLine
 10
450.6838616117
 20
54.9503934163
 30
0.0
 11
450.6838616117
 21
145.5815138993
 31
0.0
  0
ELLIPSE
  5
45F
330
428
100
AcDbEntity
  8
1-1MH
  6
Continuous
 62
     7
100
AcDbEllipse
 10
469.7757447038
 20
56.5833865782
 30
0.0
 11
5.499999999999519
 21
-9.526279441629102
 31
0.0
210
0.0
220
0.0
230
1.0
 40
0.5773502692
 41
0.0
 42
6.283185307179586
  0
LINE
  5
460
330
428
100
AcDbEntity
  8
1-1MH
  6
Continuous
 62
     7
100
AcDbLine
 10
519.7764850348
 20
159.344268042
 30
0.0
 11
521.0409863398
 21
160.0743282108
 31
0.0
  0
ELLIPSE
  5
461
330
428
100
AcDbEntity
  8
1-1MH
  6
Continuous
 62
     7
100
AcDbEllipse
 10
507.6059574973
 20
143.3361483018
 30
0.0
 11
11.0
 21
4.336808689942018E-16
 31
0.0
210
0.0
220
0.0
230
1.0
 40
0.5773502692
 41
2.529005959869423
 42
2.914661398182578
  0
LINE
  5
462
330
428
100
AcDbEntity
  8
1-1MH
  6
Continuous
 62
     7
100
AcDbLine
 10
515.3841320903
 20
141.7031551399
 30
0.0
 11
536.5973355259
 21
153.9506038538
 31
0.0
  0
ELLIPSE
  5
463
330
428
100
AcDbEntity
  8
1-1MH
  6
Continuous
 62
     7
100
AcDbEllipse
 10
507.6059574973
 20
146.193886335
 30
0.0
 11
11.0
 21
2.081668171172169E-14
 31
0.0
210
0.0
220
0.0
230
1.0
 40
0.5773502692
 41
2.460546331802038
 42
5.49778714378213
  0
LINE
  5
464
330
428
100
AcDbEntity
  8
1-1MH
  6
Continuous
 62
     7
100
AcDbLine
 10
521.0409863398
 20
162.932066244
 30
0.0
 11
514.8229782704
 21
159.3420976113
 31
0.0
  0
LINE
  5
465
330
428
100
AcDbEntity
  8
1-1MH
  6
Continuous
 62
     7
100
AcDbLine
 10
513.6163651374
 20
167.2186732939
 30
0.0
 11
512.9092583562
 21
168.4434181653
 31
0.0
  0
LINE
  5
466
330
428
100
AcDbEntity
  8
1-1MH
  6
Continuous
 62
     7
100
AcDbLine
 10
521.0409863398
 20
162.932066244
 30
0.0
 11
513.6163651374
 21
167.2186732939
 31
0.0
  0
LINE
  5
467
330
428
100
AcDbEntity
  8
1-1MH
  6
Continuous
 62
     7
100
AcDbLine
 10
544.0219567284
 20
149.6639968039
 30
0.0
 11
536.5973355259
 21
153.9506038538
 31
0.0
  0
ELLIPSE
  5
468
330
428
100
AcDbEntity
  8
1-1MH
  6
Continuous
 62
     7
100
AcDbEllipse
 10
472.9577252191
 20
58.4205038853
 30
0.0
 11
5.499999999999519
 21
-9.526279441629104
 31
0.0
210
0.0
220
0.0
230
0.9999999999999997
 40
0.5773502692
 41
3.435057798852347
 42
3.711210384109819
  0
ELLIPSE
  5
469
330
428
100
AcDbEntity
  8
1-1MH
  6
Continuous
 62
     7
100
AcDbEllipse
 10
472.9577252191
 20
58.4205038853
 30
0.0
 11
5.499999999999519
 21
-9.526279441629104
 31
0.0
210
0.0
220
0.0
230
0.9999999999999997
 40
0.5773502692
 41
5.72131333780791
 42
5.989720161917045
  0
LINE
  5
46A
330
428
100
AcDbEntity
  8
1-1MH
  6
Continuous
 62
     7
100
AcDbLine
 10
509.3737244502
 20
113.3298989527
 30
0.0
 11
507.9595108879
 21
112.5134023717
 31
0.0
  0
LINE
  5
46B
330
428
100
AcDbEntity
  8
1-1MH
  6
Continuous
 62
     7
100
AcDbLine
 10
496.6458023889
 20
122.3113613429
 30
0.0
 11
495.2315888265
 21
121.4948647619
 31
0.0
  0
LINE
  5
46C
330
428
100
AcDbEntity
  8
1-1MH
  6
Continuous
 62
     7
100
AcDbLine
 10
495.2315888265
 20
121.4948647619
 30
0.0
 11
464.8259972355
 21
139.0495412519
 31
0.0
  0
LINE
  5
46D
330
428
100
AcDbEntity
  8
1-1MH
  6
Continuous
 62
     7
100
AcDbLine
 10
464.8259972355
 20
139.0495412519
 30
0.0
 11
464.8259972355
 21
140.6825344137
 31
0.0
  0
LINE
  5
46E
330
428
100
AcDbEntity
  8
1-1MH
  6
Continuous
 62
     7
100
AcDbLine
 10
450.6838616117
 20
147.2145070612
 30
0.0
 11
450.6838616117
 21
145.5815138993
 31
0.0
  0
LINE
  5
46F
330
428
100
AcDbEntity
  8
1-1MH
  6
Continuous
 62
     7
100
AcDbLine
 10
509.3737244502
 20
21.0657853078
 30
0.0
 11
507.9595108879
 21
21.8822818888
 31
0.0
  0
LINE
  5
470
330
428
100
AcDbEntity
  8
1-1MH
  6
Continuous
 62
     7
100
AcDbLine
 10
509.3737244502
 20
96.9999673341
 30
0.0
 11
510.7879380126
 21
97.816463915
 31
0.0
  0
LINE
  5
471
330
428
100
AcDbEntity
  8
1-1MH
  6
Continuous
 62
     7
100
AcDbLine
 10
464.8259972355
 20
139.0495412519
 30
0.0
 11
500.7851249899
 21
159.8105533407
 31
0.0
  0
LINE
  5
472
330
428
100
AcDbEntity
  8
1-1MH
  6
Continuous
 62
     7
100
AcDbLine
 10
503.1641594319
 20
161.1840895162
 30
0.0
 11
513.6163651374
 21
167.2186732939
 31
0.0
  0
ELLIPSE
  5
473
330
428
100
AcDbEntity
  8
1-1MH
  6
Continuous
 62
     7
100
AcDbEllipse
 10
535.1831219635
 20
73.9339389229
 30
0.0
 11
14.24999999999878
 21
24.6817240078572
 31
0.0
210
0.0
220
0.0
230
1.0
 40
0.5773502692
 41
6.024116554065936
 42
6.221118554459625
  0
ELLIPSE
  5
474
330
428
100
AcDbEntity
  8
1-1MH
  6
Continuous
 62
     7
100
AcDbEllipse
 10
535.1831219635
 20
73.9339389229
 30
0.0
 11
14.24999999999878
 21
24.6817240078572
 31
0.0
210
0.0
220
0.0
230
1.0
 40
0.5773502692
 41
3.203659406315259
 42
3.29802881563683
  0
LINE
  5
475
330
428
100
AcDbEntity
  8
1-1MH
  6
Continuous
 62
     7
100
AcDbLine
 10
521.0409863398
 20
160.0743282108
 30
0.0
 11
521.0409863398
 21
162.932066244
 31
0.0
  0
LINE
  5
476
330
428
100
AcDbEntity
  8
1-1MH
  6
Continuous
 62
     7
100
AcDbLine
 10
534.1224617918
 20
152.5217348372
 30
0.0
 11
531.1858620487
 21
154.2171814894
 31
0.0
  0
LINE
  5
477
330
428
100
AcDbEntity
  8
1-1MH
  6
Continuous
 62
     7
100
AcDbLine
 10
522.1082796893
 20
159.4581261081
 30
0.0
 11
521.0409863398
 21
160.0743282108
 31
0.0
  0
LINE
  5
478
330
428
100
AcDbEntity
  8
1-1MH
  6
Continuous
 62
     7
100
AcDbLine
 10
519.0964426915
 20
92.9625843956
 30
0.0
 11
521.0409863398
 21
95.3816296265
 31
0.0
  0
LINE
  5
479
330
428
100
AcDbEntity
  8
1-1MH
  6
Continuous
 62
     7
100
AcDbLine
 10
521.0409863398
 20
95.3816296265
 30
0.0
 11
521.0409863398
 21
96.7665322804
 31
0.0
  0
LINE
  5
47A
330
428
100
AcDbEntity
  8
1-1MH
  6
Continuous
 62
     7
100
AcDbLine
 10
519.0964426915
 20
92.6406091201
 30
0.0
 11
521.2177630351
 21
91.4158642487
 31
0.0
  0
LINE
  5
47B
330
428
100
AcDbEntity
  8
1-1MH
  6
Continuous
 62
     7
100
AcDbLine
 10
521.0409863398
 20
95.3816296265
 30
0.0
 11
523.3390833787
 21
94.0548226825
 31
0.0
  0
ELLIPSE
  5
47C
330
428
100
AcDbEntity
  8
1-1MH
  6
Continuous
 62
     7
100
AcDbEllipse
 10
521.3945397304
 20
94.1422293009
 30
0.0
 11
-4.274999999999635
 21
-7.404517202357165
 31
0.0
210
0.0
220
0.0
230
0.9999999999999998
 40
0.5773502692
 41
0.0
 42
6.283185307179586
  0
ELLIPSE
  5
47D
330
428
100
AcDbEntity
  8
1-1MH
  6
Continuous
 62
     7
100
AcDbEllipse
 10
520.7227882883
 20
94.5300651768
 30
0.0
 11
-4.749999999999596
 21
-8.227241335952401
 31
0.0
210
0.0
220
0.0
230
1.0
 40
0.5773502692
 41
0.0
 42
0.0142585084627926
  0
ELLIPSE
  5
47E
330
428
100
AcDbEntity
  8
1-1MH
  6
Continuous
 62
     7
100
AcDbEllipse
 10
520.7227882883
 20
94.5300651768
 30
0.0
 11
-4.749999999999596
 21
-8.227241335952401
 31
0.0
210
0.0
220
0.0
230
1.0
 40
0.5773502692
 41
3.141592653589783
 42
3.148812611335286
  0
ELLIPSE
  5
47F
330
428
100
AcDbEntity
  8
1-1MH
  6
Continuous
 62
     7
100
AcDbEllipse
 10
520.7227882883
 20
94.5300651768
 30
0.0
 11
-4.749999999999596
 21
-8.227241335952401
 31
0.0
210
0.0
220
0.0
230
1.0
 40
0.5773502692
 41
3.148812611335286
 42
6.283185307179586
  0
ELLIPSE
  5
480
330
428
100
AcDbEntity
  8
1-1MH
  6
Continuous
 62
     7
100
AcDbEllipse
 10
520.1217475243
 20
94.8770762237
 30
0.0
 11
-4.749999999999591
 21
-8.227241335952405
 31
0.0
210
0.0
220
0.0
230
1.0
 40
0.5773502692
 41
3.141592653589793
 42
3.66726848930086
  0
ELLIPSE
  5
481
330
428
100
AcDbEntity
  8
1-1MH
  6
Continuous
 62
     7
100
AcDbEllipse
 10
520.1217475243
 20
94.8770762237
 30
0.0
 11
-4.749999999999591
 21
-8.227241335952405
 31
0.0
210
0.0
220
0.0
230
1.0
 40
0.5773502692
 41
5.75750947146207
 42
6.283185307179575
  0
LINE
  5
482
330
428
100
AcDbEntity
  8
1-1MH
  6
Continuous
 62
     7
100
AcDbLine
 10
521.3945397304
 20
97.206358686
 30
0.0
 11
519.0964426915
 21
94.3474870494
 31
0.0
  0
LINE
  5
483
330
428
100
AcDbEntity
  8
1-1MH
  6
Continuous
 62
     7
100
AcDbLine
 10
519.0964426915
 20
94.3474870494
 30
0.0
 11
519.0964426915
 21
91.2833576643
 31
0.0
  0
LINE
  5
484
330
428
100
AcDbEntity
  8
1-1MH
  6
Continuous
 62
     7
100
AcDbLine
 10
519.0964426915
 20
91.2833576643
 30
0.0
 11
521.3945397304
 21
91.0780999157
 31
0.0
  0
LINE
  5
485
330
428
100
AcDbEntity
  8
1-1MH
  6
Continuous
 62
     7
100
AcDbLine
 10
521.3945397304
 20
91.0780999157
 30
0.0
 11
521.2177630351
 21
91.4158642487
 31
0.0
  0
LINE
  5
486
330
428
100
AcDbEntity
  8
1-1MH
  6
Continuous
 62
     7
100
AcDbLine
 10
521.2177630351
 20
91.4158642487
 30
0.0
 11
519.0964426915
 21
91.6053329397
 31
0.0
  0
LINE
  5
487
330
428
100
AcDbEntity
  8
1-1MH
  6
Continuous
 62
     7
100
AcDbLine
 10
521.3945397304
 20
91.0780999157
 30
0.0
 11
523.6926367693
 21
93.9369715523
 31
0.0
  0
LINE
  5
488
330
428
100
AcDbEntity
  8
1-1MH
  6
Continuous
 62
     7
100
AcDbLine
 10
523.3390833787
 20
94.0548226825
 30
0.0
 11
521.2177630351
 21
91.4158642487
 31
0.0
  0
LINE
  5
489
330
428
100
AcDbEntity
  8
1-1MH
  6
Continuous
 62
     7
100
AcDbLine
 10
523.6926367693
 20
93.9369715523
 30
0.0
 11
523.6926367693
 21
97.0011009374
 31
0.0
  0
LINE
  5
48A
330
428
100
AcDbEntity
  8
1-1MH
  6
Continuous
 62
     7
100
AcDbLine
 10
523.6926367693
 20
97.0011009374
 30
0.0
 11
523.3390833787
 21
96.8832498072
 31
0.0
  0
LINE
  5
48B
330
428
100
AcDbEntity
  8
1-1MH
  6
Continuous
 62
     7
100
AcDbLine
 10
523.3390833787
 20
96.8832498072
 30
0.0
 11
523.3390833787
 21
94.0548226825
 31
0.0
  0
LINE
  5
48C
330
428
100
AcDbEntity
  8
1-1MH
  6
Continuous
 62
     7
100
AcDbLine
 10
523.3390833787
 20
94.0548226825
 30
0.0
 11
523.6926367693
 21
93.9369715523
 31
0.0
  0
LINE
  5
48D
330
428
100
AcDbEntity
  8
1-1MH
  6
Continuous
 62
     7
100
AcDbLine
 10
523.6926367693
 20
97.0011009374
 30
0.0
 11
521.3945397304
 21
97.206358686
 31
0.0
  0
LINE
  5
48E
330
428
100
AcDbEntity
  8
1-1MH
  6
Continuous
 62
     7
100
AcDbLine
 10
521.2824677964
 20
97.0669393021
 30
0.0
 11
523.3390833787
 21
96.8832498072
 31
0.0
  0
ELLIPSE
  5
48F
330
428
100
AcDbEntity
  8
1-1MH
  6
Continuous
 62
     7
100
AcDbEllipse
 10
536.0710632869
 20
73.2218472136
 30
0.0
 11
-4.499999999999613
 21
-7.794228634060175
 31
0.0
210
0.0
220
0.0
230
1.0
 40
0.5773502692
 41
0.1181256529697451
 42
0.3348961584394267
  0
ELLIPSE
  5
490
330
428
100
AcDbEntity
  8
1-1MH
  6
Continuous
 62
     7
100
AcDbEllipse
 10
536.0710632869
 20
73.2218472136
 30
0.0
 11
-4.499999999999613
 21
-7.794228634060175
 31
0.0
210
0.0
220
0.0
230
1.0
 40
0.5773502692
 41
2.806696495150471
 42
3.023467000650004
  0
ELLIPSE
  5
491
330
428
100
AcDbEntity
  8
1-1MH
  6
Continuous
 62
     7
100
AcDbEllipse
 10
537.1317234587
 20
72.6094747779
 30
0.0
 11
-4.499999999999613
 21
-7.794228634060175
 31
0.0
210
0.0
220
0.0
230
0.9999999999999998
 40
0.5773502692
 41
0.0
 42
0.3348961584394308
  0
ELLIPSE
  5
492
330
428
100
AcDbEntity
  8
1-1MH
  6
Continuous
 62
     7
100
AcDbEllipse
 10
537.1317234587
 20
72.6094747779
 30
0.0
 11
-4.499999999999613
 21
-7.794228634060175
 31
0.0
210
0.0
220
0.0
230
0.9999999999999998
 40
0.5773502692
 41
2.806696495150471
 42
6.283185307179578
  0
ELLIPSE
  5
493
330
428
100
AcDbEntity
  8
1-1MH
  6
Continuous
 62
     7
100
AcDbEllipse
 10
535.0104031152
 20
73.8342196493
 30
0.0
 11
-13.9999999999988
 21
-24.24871130596499
 31
0.0
210
0.0
220
0.0
230
1.0
 40
0.5773502692
 41
3.141592653589793
 42
3.257792572811697
  0
ELLIPSE
  5
494
330
428
100
AcDbEntity
  8
1-1MH
  6
Continuous
 62
     7
100
AcDbEllipse
 10
535.0104031152
 20
73.8342196493
 30
0.0
 11
-13.9999999999988
 21
-24.24871130596499
 31
0.0
210
0.0
220
0.0
230
1.0
 40
0.5773502692
 41
6.260071875340111
 42
6.283185307179586
  0
ELLIPSE
  5
495
330
428
100
AcDbEntity
  8
1-1MH
  6
Continuous
 62
     7
100
AcDbEllipse
 10
536.7781700681
 20
72.8135989231
 30
0.0
 11
13.99999999999881
 21
24.24871130596497
 31
0.0
210
0.0
220
0.0
230
1.0
 40
0.5773502692
 41
6.114081020035878
 42
6.283185307179586
  0
ELLIPSE
  5
496
330
428
100
AcDbEntity
  8
1-1MH
  6
Continuous
 62
     7
100
AcDbEllipse
 10
536.7781700681
 20
72.8135989231
 30
0.0
 11
13.99999999999881
 21
24.24871130596497
 31
0.0
210
0.0
220
0.0
230
1.0
 40
0.5773502692
 41
2.975610335054242
 42
3.315145022367486
  0
ELLIPSE
  5
497
330
428
100
AcDbEntity
  8
1-1MH
  6
Continuous
 62
     7
100
AcDbEllipse
 10
536.7781700681
 20
72.8135989231
 30
0.0
 11
13.99999999999881
 21
24.24871130596497
 31
0.0
210
0.0
220
0.0
230
1.0
 40
0.5773502692
 41
0.1684450532529798
 42
2.975610335054242
  0
ELLIPSE
  5
498
330
428
100
AcDbEntity
  8
1-1MH
  6
Continuous
 62
     7
100
AcDbEllipse
 10
536.7781700681
 20
72.8135989231
 30
0.0
 11
13.99999999999881
 21
24.24871130596497
 31
0.0
210
0.0
220
0.0
230
1.0
 40
0.5773502692
 41
0.0
 42
0.1684450532529798
  0
ELLIPSE
  5
499
330
428
100
AcDbEntity
  8
1-1MH
  6
Continuous
 62
     7
100
AcDbEllipse
 10
537.1317234587
 20
72.6094747779
 30
0.0
 11
13.7499999999988
 21
23.81569860407269
 31
0.0
210
0.0
220
0.0
230
1.0
 40
0.5773502692
 41
0.261799387799073
 42
1.308996938995663
  0
ELLIPSE
  5
49A
330
428
100
AcDbEntity
  8
1-1MH
  6
Continuous
 62
     7
100
AcDbEllipse
 10
537.1317234587
 20
72.6094747779
 30
0.0
 11
-13.74999999999878
 21
-23.81569860407267
 31
0.0
210
0.0
220
0.0
230
0.9999999999999999
 40
0.5773502692
 41
2.356194490192259
 42
3.403392041388851
  0
ELLIPSE
  5
49B
330
428
100
AcDbEntity
  8
1-1MH
  6
Continuous
 62
     7
100
AcDbEllipse
 10
537.1317234587
 20
72.6094747779
 30
0.0
 11
13.74999999999875
 21
23.81569860407269
 31
0.0
210
0.0
220
0.0
230
1.0
 40
0.5773502692
 41
4.969766626706399
 42
5.497787143782052
  0
ELLIPSE
  5
49C
330
428
100
AcDbEntity
  8
1-1MH
  6
Continuous
 62
     7
100
AcDbEllipse
 10
537.1317234587
 20
72.6094747779
 30
0.0
 11
13.74999999999875
 21
23.81569860407269
 31
0.0
210
0.0
220
0.0
230
1.0
 40
0.5773502692
 41
4.450589592585452
 42
4.455011334062984
  0
ELLIPSE
  5
49D
330
428
100
AcDbEntity
  8
1-1MH
  6
Continuous
 62
     7
100
AcDbEllipse
 10
537.1317234587
 20
72.6094747779
 30
0.0
 11
-13.74999999999877
 21
-23.81569860407281
 31
0.0
210
0.0
220
0.0
230
1.0
 40
0.5773502692
 41
0.2617993877990558
 42
1.30899693899566
  0
ELLIPSE
  5
49E
330
428
100
AcDbEntity
  8
1-1MH
  6
Continuous
 62
     7
100
AcDbEllipse
 10
520.8682674914
 20
63.2197640972
 30
0.0
 11
-2.249999999999812
 21
-3.897114317030084
 31
0.0
210
0.0
220
0.0
230
0.9999999999999998
 40
0.5773502692
 41
0.0
 42
6.283185307179586
  0
ELLIPSE
  5
49F
330
428
100
AcDbEntity
  8
1-1MH
  6
Continuous
 62
     7
100
AcDbEllipse
 10
528.9999954751
 20
84.1780754049
 30
0.0
 11
-2.249999999999814
 21
-3.897114317030086
 31
0.0
210
0.0
220
0.0
230
1.0
 40
0.5773502692
 41
0.0
 42
6.283185307179586
  0
ELLIPSE
  5
4A0
330
428
100
AcDbEntity
  8
1-1MH
  6
Continuous
 62
     7
100
AcDbEllipse
 10
545.2634514424
 20
93.5677860855
 30
0.0
 11
-2.249999999999811
 21
-3.897114317030087
 31
0.0
210
0.0
220
0.0
230
1.0
 40
0.5773502692
 41
0.0
 42
6.283185307179586
  0
ELLIPSE
  5
4A1
330
428
100
AcDbEntity
  8
1-1MH
  6
Continuous
 62
     7
100
AcDbEllipse
 10
553.395179426
 20
81.9991854586
 30
0.0
 11
-2.249999999999806
 21
-3.897114317030084
 31
0.0
210
0.0
220
0.0
230
0.9999999999999998
 40
0.5773502692
 41
0.0
 42
6.283185307179586
  0
ELLIPSE
  5
4A2
330
428
100
AcDbEntity
  8
1-1MH
  6
Continuous
 62
     7
100
AcDbEllipse
 10
545.2634514424
 20
61.0408741509
 30
0.0
 11
-2.249999999999817
 21
-3.897114317030087
 31
0.0
210
0.0
220
0.0
230
1.0
 40
0.5773502692
 41
0.0
 42
1.335940617442969
  0
ELLIPSE
  5
4A3
330
428
100
AcDbEntity
  8
1-1MH
  6
Continuous
 62
     7
100
AcDbEllipse
 10
545.2634514424
 20
61.0408741509
 30
0.0
 11
-2.249999999999817
 21
-3.897114317030087
 31
0.0
210
0.0
220
0.0
230
1.0
 40
0.5773502692
 41
4.947244689736622
 42
6.28318530717956
  0
ELLIPSE
  5
4A4
330
428
100
AcDbEntity
  8
1-1MH
  6
Continuous
 62
     7
100
AcDbEllipse
 10
528.9999954751
 20
51.6511634703
 30
0.0
 11
-2.249999999999806
 21
-3.897114317030087
 31
0.0
210
0.0
220
0.0
230
1.0
 40
0.5773502692
 41
0.0
 42
6.283185307179586
  0
ELLIPSE
  5
4A5
330
428
100
AcDbEntity
  8
1-1MH
  6
Continuous
 62
     7
100
AcDbEllipse
 10
537.1317234587
 20
72.6094747779
 30
0.0
 11
13.74999999999871
 21
23.81569860407258
 31
0.0
210
0.0
220
0.0
230
1.0
 40
0.5773502692
 41
2.356194490192257
 42
3.403392041388845
  0
ELLIPSE
  5
4A6
330
428
100
AcDbEntity
  8
1-1MH
  6
Continuous
 62
     7
100
AcDbEllipse
 10
537.1317234587
 20
72.6094747779
 30
0.0
 11
-13.74999999999887
 21
-23.81569860407276
 31
0.0
210
0.0
220
0.0
230
0.9999999999999998
 40
0.5773502692
 41
4.450589592585457
 42
5.497787143782055
  0
ELLIPSE
  5
4A7
330
428
100
AcDbEntity
  8
1-1MH
  6
Continuous
 62
     7
100
AcDbEllipse
 10
528.8088376422
 20
84.2884404312
 30
0.0
 11
2.114831000070877
 21
3.662994741544548
 31
0.0
210
0.0
220
0.0
230
0.9999999999999998
 40
0.5773502692
 41
5.160268218427365
 42
5.835306069139047
  0
SPLINE
  5
4A8
330
428
100
AcDbEntity
  8
1-1MH
  6
Continuous
 62
     7
100
AcDbSpline
210
0.0
220
0.0
230
1.0
 70
     8
 71
     3
 72
    16
 73
    12
 74
     0
 42
0.0000000023135948
 43
0.0000000001
 40
0.2125850453611887
 40
0.2125850453611887
 40
0.2125850453611887
 40
0.2125850453611887
 40
0.25
 40
0.25
 40
0.375
 40
0.375
 40
0.5
 40
0.5
 40
0.625
 40
0.625
 40
0.7215841717806379
 40
0.7215841717806379
 40
0.7215841717806379
 40
0.7215841717806379
 10
528.8396612762123
 20
87.7525499657827
 30
0.0
 10
528.8972333275829
 20
87.78167406469416
 30
0.0
 10
528.9546828837044
 20
87.80894877497872
 30
0.0
 10
529.202527580247
 20
87.91877986477915
 30
0.0
 10
529.3907314407835
 20
87.98250706472182
 30
0.0
 10
529.7620010813085
 20
88.06785032117405
 30
0.0
 10
529.9442256603444
 20
88.08873911397244
 30
0.0
 10
530.2880753406012
 20
88.08610187882506
 30
0.0
 10
530.4517267881916
 20
88.06313670819492
 30
0.0
 10
530.7266147369871
 20
87.98253592315776
 30
0.0
 10
530.8387551966489
 20
87.93463773266309
 30
0.0
 10
530.9429234552972
 20
87.87457602368833
 30
0.0
  0
ELLIPSE
  5
4A9
330
428
100
AcDbEntity
  8
1-1MH
  6
Continuous
 62
     7
100
AcDbEllipse
 10
528.9815564905
 20
84.3881597048
 30
0.0
 11
-0.7268749999999367
 21
-1.25898443075167
 31
0.0
210
0.0
220
0.0
230
0.9999999999999998
 40
0.5773502692
 41
0.0
 42
6.283185307179586
  0
ELLIPSE
  5
4AA
330
428
100
AcDbEntity
  8
1-1MH
  6
Continuous
 62
     7
100
AcDbEllipse
 10
528.7694244562
 20
84.5106341919
 30
0.0
 11
1.999999999999832
 21
3.464101615137864
 31
0.0
210
0.0
220
0.0
230
1.0
 40
0.5773502692
 41
2.062329901641775
 42
3.141592653589793
  0
ELLIPSE
  5
4AB
330
428
100
AcDbEntity
  8
1-1MH
  6
Continuous
 62
     7
100
AcDbEllipse
 10
528.9815564905
 20
84.3881597048
 30
0.0
 11
-1.999999999999815
 21
-3.464101615137863
 31
0.0
210
0.0
220
0.0
230
1.0
 40
0.5773502692
 41
2.713936397690928
 42
8.281637889875281
  0
ARC
  5
4AC
330
428
100
AcDbEntity
  8
1-1MH
  6
Continuous
 62
     7
100
AcDbCircle
 10
533.2357759516
 20
81.3351421518
 30
0.0
 40
6.01197264779606
100
AcDbArc
 50
135.4935829838
 51
149.0439353814
  0
ARC
  5
4AD
330
428
100
AcDbEntity
  8
1-1MH
  6
Continuous
 62
     7
100
AcDbCircle
 10
529.1797289677
 20
80.4110811263
 30
0.0
 40
5.143601868145527
100
AcDbArc
 50
82.5374622919
 51
92.5798629491
  0
ARC
  5
4AE
330
428
100
AcDbEntity
  8
1-1MH
  6
Continuous
 62
     7
100
AcDbCircle
 10
534.5012856492
 20
85.0568892233
 30
0.0
 40
4.675632285122956
100
AcDbArc
 50
174.4250479507
 51
188.6847635554
  0
LINE
  5
4AF
330
428
100
AcDbEntity
  8
1-1MH
  6
Continuous
 62
     7
100
AcDbLine
 10
529.8792638083
 20
84.35087834
 30
0.0
 11
528.6083278225
 21
85.0846535735
 31
0.0
  0
LINE
  5
4B0
330
428
100
AcDbEntity
  8
1-1MH
  6
Continuous
 62
     7
100
AcDbLine
 10
528.6083278225
 20
85.0846535735
 30
0.0
 11
528.0789033881
 21
84.4004297754
 31
0.0
  0
LINE
  5
4B1
330
428
100
AcDbEntity
  8
1-1MH
  6
Continuous
 62
     7
100
AcDbLine
 10
529.0111948105
 20
83.2289930849
 30
0.0
 11
528.0712387308
 21
83.7716769805
 31
0.0
  0
LINE
  5
4B2
330
428
100
AcDbEntity
  8
1-1MH
  6
Continuous
 62
     7
100
AcDbLine
 10
528.6062094906
 20
85.1626915391
 30
0.0
 11
528.6083278225
 21
85.0846535735
 31
0.0
  0
ARC
  5
4B3
330
428
100
AcDbEntity
  8
1-1MH
  6
Continuous
 62
     7
100
AcDbCircle
 10
534.16683403
 20
80.1365507885
 30
0.0
 40
6.011972647772596
100
AcDbArc
 50
135.4935829838
 51
149.0439353814
  0
ARC
  5
4B4
330
428
100
AcDbEntity
  8
1-1MH
  6
Continuous
 62
     7
100
AcDbCircle
 10
528.3431545282
 20
78.1289579825
 30
0.0
 40
5.143601448754112
100
AcDbArc
 50
82.5374618814
 51
92.5798633595
  0
ARC
  5
4B5
330
428
100
AcDbEntity
  8
1-1MH
  6
Continuous
 62
     7
100
AcDbCircle
 10
532.7336529395
 20
83.9733570175
 30
0.0
 40
4.675632112529631
100
AcDbArc
 50
174.4250476862
 51
188.68476382
  0
ELLIPSE
  5
4B6
330
428
100
AcDbEntity
  8
1-1MH
  6
Continuous
 62
     7
100
AcDbEllipse
 10
543.1421310988
 20
69.139364309
 30
0.0
 11
4.249999999999644
 21
7.361215932167934
 31
0.0
210
0.0
220
0.0
230
1.0
 40
0.5773502692
 41
5.679993901569913
 42
6.283185307179586
  0
ELLIPSE
  5
4B7
330
428
100
AcDbEntity
  8
1-1MH
  6
Continuous
 62
     7
100
AcDbEllipse
 10
543.1421310988
 20
69.139364309
 30
0.0
 11
4.249999999999644
 21
7.361215932167934
 31
0.0
210
0.0
220
0.0
230
1.0
 40
0.5773502692
 41
0.0
 42
3.744784059199467
  0
ELLIPSE
  5
4B8
330
428
100
AcDbEntity
  8
1-1MH
  6
Continuous
 62
     7
100
AcDbEllipse
 10
543.1421310988
 20
69.139364309
 30
0.0
 11
3.4999999999997
 21
6.062177826491244
 31
0.0
210
0.0
220
0.0
230
0.9999999999999998
 40
0.5773502692
 41
0.0
 42
3.141592653589776
  0
ELLIPSE
  5
4B9
330
428
100
AcDbEntity
  8
1-1MH
  6
Continuous
 62
     7
100
AcDbEllipse
 10
563.4360957189
 20
57.4226383727
 30
0.0
 11
3.4999999999997
 21
6.062177826491241
 31
0.0
210
0.0
220
0.0
230
1.0
 40
0.5773502692
 41
5.497787143782039
 42
6.28318530717957
  0
ELLIPSE
  5
4BA
330
428
100
AcDbEntity
  8
1-1MH
  6
Continuous
 62
     7
100
AcDbEllipse
 10
563.4360957189
 20
57.4226383727
 30
0.0
 11
3.4999999999997
 21
6.062177826491241
 31
0.0
210
0.0
220
0.0
230
1.0
 40
0.5773502692
 41
0.0
 42
3.926990816987314
  0
ELLIPSE
  5
4BB
330
428
100
AcDbEntity
  8
1-1MH
  6
Continuous
 62
     7
100
AcDbEllipse
 10
564.0017811438
 20
57.0960397403
 30
0.0
 11
3.099999999999734
 21
5.369357503463675
 31
0.0
210
0.0
220
0.0
230
1.0
 40
0.5773502692
 41
0.0
 42
6.283185307179586
  0
ELLIPSE
  5
4BC
330
428
100
AcDbEntity
  8
1-1MH
  6
Continuous
 62
     7
100
AcDbEllipse
 10
543.2501674015
 20
69.0769895205
 30
0.0
 11
3.499999999999695
 21
6.062177826491252
 31
0.0
210
0.0
220
0.0
230
1.0
 40
0.5773502692
 41
6.095488397759124
 42
6.283185307179586
  0
ELLIPSE
  5
4BD
330
428
100
AcDbEntity
  8
1-1MH
  6
Continuous
 62
     7
100
AcDbEllipse
 10
543.2501674015
 20
69.0769895205
 30
0.0
 11
3.499999999999695
 21
6.062177826491252
 31
0.0
210
0.0
220
0.0
230
1.0
 40
0.5773502692
 41
0.0
 42
3.329289563002168
  0
ELLIPSE
  5
4BE
330
428
100
AcDbEntity
  8
1-1MH
  6
Continuous
 62
     7
100
AcDbEllipse
 10
543.5663951675
 20
68.8944153347
 30
0.0
 11
3.399999999999707
 21
5.888972745734352
 31
0.0
210
0.0
220
0.0
230
0.9999999999999999
 40
0.5773502692
 41
0.0
 42
3.141592653589783
  0
ELLIPSE
  5
4BF
330
428
100
AcDbEntity
  8
1-1MH
  6
Continuous
 62
     7
100
AcDbEllipse
 10
544.5563446612
 20
68.322867728
 30
0.0
 11
3.499999999999705
 21
6.062177826491241
 31
0.0
210
0.0
220
0.0
230
1.0
 40
0.5773502692
 41
0.0
 42
3.141592653589777
  0
ELLIPSE
  5
4C0
330
428
100
AcDbEntity
  8
1-1MH
  6
Continuous
 62
     7
100
AcDbEllipse
 10
544.0285529744
 20
68.6275884005
 30
0.0
 11
3.399999999999712
 21
5.888972745734355
 31
0.0
210
0.0
220
0.0
230
0.9999999999999999
 40
0.5773502692
 41
0.1906210079745796
 42
2.950971645615298
  0
ELLIPSE
  5
4C1
330
428
100
AcDbEntity
  8
1-1MH
  6
Continuous
 62
     7
100
AcDbEllipse
 10
563.6482277532
 20
57.3001638855
 30
0.0
 11
-1.049999999999923
 21
-1.818653347947367
 31
0.0
210
0.0
220
0.0
230
0.9999999999999998
 40
0.5773502692
 41
0.0
 42
6.283185307179586
  0
ELLIPSE
  5
4C2
330
428
100
AcDbEntity
  8
1-1MH
  6
Continuous
 62
     7
100
AcDbEllipse
 10
564.0017811438
 20
57.0960397403
 30
0.0
 11
-1.483012701892086
 21
-2.568653347947386
 31
0.0
210
0.0
220
0.0
230
0.9999999999999998
 40
0.5773502692
 41
0.0
 42
6.283185307179586
  0
LINE
  5
4C3
330
428
100
AcDbEntity
  8
1-1MH
  6
Continuous
 62
     7
100
AcDbLine
 10
554.9871220069
 20
70.3835593883
 30
0.0
 11
556.2122804826
 21
71.090904964
 31
0.0
  0
LINE
  5
4C4
330
428
100
AcDbEntity
  8
1-1MH
  6
Continuous
 62
     7
100
AcDbLine
 10
568.3136729351
 20
61.2111563193
 30
0.0
 11
569.0527372787
 21
61.6378553171
 31
0.0
  0
LINE
  5
4C5
330
428
100
AcDbEntity
  8
1-1MH
  6
Continuous
 62
     7
100
AcDbLine
 10
566.5103436263
 20
63.7306242844
 30
0.0
 11
567.7355021019
 21
64.4379698601
 31
0.0
  0
LINE
  5
4C6
330
428
100
AcDbEntity
  8
1-1MH
  6
Continuous
 62
     7
100
AcDbLine
 10
569.0527372787
 20
61.6362223239
 30
0.0
 11
569.0527372787
 21
61.6378553171
 31
0.0
  0
LINE
  5
4C7
330
428
100
AcDbEntity
  8
1-1MH
  6
Continuous
 62
     7
100
AcDbLine
 10
569.0449591041
 20
61.1115023082
 30
0.0
 11
568.3704375966
 21
60.7220671343
 31
0.0
  0
ELLIPSE
  5
4C8
330
428
100
AcDbEntity
  8
1-1MH
  6
Continuous
 62
     7
100
AcDbEllipse
 10
567.7355021019
 20
61.8675176609
 30
0.0
 11
-0.9259259259257941
 21
1.603750747748949
 31
0.0
210
0.0
220
0.0
230
0.9999999999999999
 40
0.5773502692
 41
3.141592653589793
 42
3.926990816987381
  0
LINE
  5
4C9
330
428
100
AcDbEntity
  8
1-1MH
  6
Continuous
 62
     7
100
AcDbLine
 10
569.0527372787
 20
61.6362223239
 30
0.0
 11
568.3139169025
 21
61.2096641808
 31
0.0
  0
LINE
  5
4CA
330
428
100
AcDbEntity
  8
1-1MH
  6
Continuous
 62
     7
100
AcDbLine
 10
569.0449591041
 20
61.6423460483
 30
0.0
 11
569.0449591041
 21
62.169923802
 31
0.0
  0
LINE
  5
4CB
330
428
100
AcDbEntity
  8
1-1MH
  6
Continuous
 62
     7
100
AcDbLine
 10
569.0449591041
 20
62.169923802
 30
0.0
 11
568.2102107375
 21
61.6879816078
 31
0.0
  0
ELLIPSE
  5
4CC
330
428
100
AcDbEntity
  8
1-1MH
  6
Continuous
 62
     7
100
AcDbEllipse
 10
556.2122804826
 20
69.5788742586
 30
0.0
 11
0.9259259259261964
 21
-1.603750747749628
 31
0.0
210
0.0
220
0.0
230
0.9999999999999997
 40
0.5773502692
 41
2.35619449019278
 42
3.141592653589802
  0
LINE
  5
4CD
330
428
100
AcDbEntity
  8
1-1MH
  6
Continuous
 62
     7
100
AcDbLine
 10
567.7355021019
 20
64.4379698601
 30
0.0
 11
556.2122804826
 21
71.090904964
 31
0.0
  0
ELLIPSE
  5
4CE
330
428
100
AcDbEntity
  8
1-1MH
  6
Continuous
 62
     7
100
AcDbEllipse
 10
567.7355021019
 20
62.9259391547
 30
0.0
 11
0.9259259259258137
 21
-1.603750747748943
 31
0.0
210
0.0
220
0.0
230
1.0
 40
0.5773502692
 41
0.7853981633975984
 42
2.356194490192516
  0
LINE
  5
4CF
330
428
100
AcDbEntity
  8
1-1MH
  6
Continuous
 62
     7
100
AcDbLine
 10
569.0527372787
 20
61.6378553171
 30
0.0
 11
569.0449591041
 21
61.6423460483
 31
0.0
  0
LINE
  5
4D0
330
428
100
AcDbEntity
  8
1-1MH
  6
Continuous
 62
     7
100
AcDbLine
 10
569.0449591041
 20
61.6423460483
 30
0.0
 11
568.3123235642
 21
61.2193587221
 31
0.0
  0
LINE
  5
4D1
330
428
100
AcDbEntity
  8
1-1MH
  6
Continuous
 62
     7
100
AcDbLine
 10
569.0449591041
 20
61.1115023082
 30
0.0
 11
569.0449591041
 21
61.6317315927
 31
0.0
  0
LINE
  5
4D2
330
428
100
AcDbEntity
  8
1-1MH
  6
Continuous
 62
     7
100
AcDbLine
 10
514.5461784352
 20
143.4116927797
 30
0.0
 11
505.0656603261
 21
141.9450515241
 31
0.0
  0
LINE
  5
4D3
330
428
100
AcDbEntity
  8
1-1MH
  6
Continuous
 62
     7
100
AcDbLine
 10
517.0864756063
 20
145.2110378478
 30
0.0
 11
517.0864756063
 21
148.885272462
 31
0.0
  0
LINE
  5
4D4
330
428
100
AcDbEntity
  8
1-1MH
  6
Continuous
 62
     7
100
AcDbLine
 10
517.0864756063
 20
148.885272462
 30
0.0
 11
514.5461784352
 21
143.4116927797
 31
0.0
  0
LINE
  5
4D5
330
428
100
AcDbEntity
  8
1-1MH
  6
Continuous
 62
     7
100
AcDbLine
 10
514.5461784352
 20
143.4116927797
 30
0.0
 11
514.5461784352
 21
141.2666378353
 31
0.0
  0
LINE
  5
4D6
330
428
100
AcDbEntity
  8
1-1MH
  6
Continuous
 62
     7
100
AcDbLine
 10
498.1254393882
 20
145.9519899508
 30
0.0
 11
499.2634006225
 21
148.403955635
 31
0.0
  0
LINE
  5
4D7
330
428
100
AcDbEntity
  8
1-1MH
  6
Continuous
 62
     7
100
AcDbLine
 10
505.0656603261
 20
140.0147038033
 30
0.0
 11
505.0656603261
 21
141.9450515241
 31
0.0
  0
LINE
  5
4D8
330
428
100
AcDbEntity
  8
1-1MH
  6
Continuous
 62
     7
100
AcDbLine
 10
505.0656603261
 20
141.9450515241
 30
0.0
 11
498.1254393882
 21
145.9519899508
 31
0.0
  0
LINE
  5
4D9
330
428
100
AcDbEntity
  8
1-1MH
  6
Continuous
 62
     7
100
AcDbLine
 10
498.1254393882
 20
145.9519899508
 30
0.0
 11
498.1254393882
 21
142.9731319521
 31
0.0
  0
LINE
  5
4DA
330
428
100
AcDbEntity
  8
1-1MH
  6
Continuous
 62
     7
100
AcDbLine
 10
499.4258577983
 20
148.046895418
 30
0.0
 11
498.6831169241
 21
146.4465112563
 31
0.0
  0
LINE
  5
4DB
330
428
100
AcDbEntity
  8
1-1MH
  6
Continuous
 62
     7
100
AcDbLine
 10
498.6831169241
 20
146.4465112563
 30
0.0
 11
505.2150895715
 21
142.67527509
 31
0.0
  0
LINE
  5
4DC
330
428
100
AcDbEntity
  8
1-1MH
  6
Continuous
 62
     7
100
AcDbLine
 10
505.2150895715
 20
142.67527509
 30
0.0
 11
514.1379301447
 21
144.0556433305
 31
0.0
  0
LINE
  5
4DD
330
428
100
AcDbEntity
  8
1-1MH
  6
Continuous
 62
     7
100
AcDbLine
 10
514.1379301447
 20
144.0556433305
 30
0.0
 11
516.5287980705
 21
149.2072477374
 31
0.0
  0
LINE
  5
4DE
330
428
100
AcDbEntity
  8
1-1MH
  6
Continuous
 62
     7
100
AcDbLine
 10
516.5287980705
 20
149.2072477374
 30
0.0
 11
516.05989939
 21
149.4779665168
 31
0.0
  0
ELLIPSE
  5
4DF
330
428
100
AcDbEntity
  8
1-1MH
  6
Continuous
 62
     7
100
AcDbEllipse
 10
507.55989939
 20
149.4713681141
 30
0.0
 11
-8.499999999999996
 21
4.336808689942018E-16
 31
0.0
210
0.0
220
0.0
230
1.0
 40
0.5773502692
 41
0.0000000000000001
 42
3.141592653589793
  0
ELLIPSE
  5
4E0
330
428
100
AcDbEntity
  8
1-1MH
  6
Continuous
 62
     7
100
AcDbEllipse
 10
507.55989939
 20
157.6363339234
 30
0.0
 11
-7.000000000000002
 21
1.170938346284345E-14
 31
0.0
210
0.0
220
0.0
230
1.0
 40
0.5773502692
 41
0.0
 42
6.283185307179586
  0
ELLIPSE
  5
4E1
330
428
100
AcDbEntity
  8
1-1MH
  6
Continuous
 62
     7
100
AcDbEllipse
 10
507.55989939
 20
156.411589052
 30
0.0
 11
-8.499999999999996
 21
4.336808689942018E-16
 31
0.0
210
0.0
220
0.0
230
1.0
 40
0.5773502692
 41
0.0000000000000001
 42
3.147996478138152
  0
ELLIPSE
  5
4E2
330
428
100
AcDbEntity
  8
1-1MH
  6
Continuous
 62
     7
100
AcDbEllipse
 10
507.55989939
 20
156.411589052
 30
0.0
 11
-8.499999999999996
 21
4.336808689942018E-16
 31
0.0
210
0.0
220
0.0
230
1.0
 40
0.5773502692
 41
6.279697920329538
 42
6.283185307179586
  0
LINE
  5
4E3
330
428
100
AcDbEntity
  8
1-1MH
  6
Continuous
 62
     7
100
AcDbLine
 10
514.1379301447
 20
144.0556433305
 30
0.0
 11
514.5461784352
 21
143.4116927797
 31
0.0
  0
LINE
  5
4E4
330
428
100
AcDbEntity
  8
1-1MH
  6
Continuous
 62
     7
100
AcDbLine
 10
516.5287980705
 20
149.2072477374
 30
0.0
 11
517.0864756063
 21
148.885272462
 31
0.0
  0
LINE
  5
4E5
330
428
100
AcDbEntity
  8
1-1MH
  6
Continuous
 62
     7
100
AcDbLine
 10
505.0656603261
 20
141.9450515241
 30
0.0
 11
505.2150895715
 21
142.67527509
 31
0.0
  0
LINE
  5
4E6
330
428
100
AcDbEntity
  8
1-1MH
  6
Continuous
 62
     7
100
AcDbLine
 10
498.1254393882
 20
145.9519899508
 30
0.0
 11
498.6831169241
 21
146.4465112563
 31
0.0
  0
LINE
  5
4E7
330
428
100
AcDbEntity
  8
1-1MH
  6
Continuous
 62
     7
100
AcDbLine
 10
517.0864756063
 20
145.2110378478
 30
0.0
 11
515.8163270207
 21
142.4742480067
 31
0.0
  0
LINE
  5
4E8
330
428
100
AcDbEntity
  8
1-1MH
  6
Continuous
 62
     7
100
AcDbLine
 10
515.8163270207
 20
142.4742480067
 30
0.0
 11
515.4856680558
 21
141.7617769569
 31
0.0
  0
ELLIPSE
  5
4E9
330
428
100
AcDbEntity
  8
1-1MH
  6
Continuous
 62
     7
100
AcDbEllipse
 10
507.6059574973
 20
143.3361483018
 30
0.0
 11
8.499999999999998
 21
-1.734723475976807E-15
 31
0.0
210
0.0
220
0.0
230
1.0
 40
0.5773502692
 41
5.987744470036238
 42
6.229273466537539
  0
ELLIPSE
  5
4EA
330
428
100
AcDbEntity
  8
1-1MH
  6
Continuous
 62
     7
100
AcDbEllipse
 10
521.748093121
 20
151.501114111
 30
0.0
 11
-8.779529713003789
 21
1.301042606982605E-15
 31
0.0
210
0.0
220
0.0
230
1.0
 40
0.5773502692
 41
1.011058117871581
 42
1.809523604475804
  0
LINE
  5
4EB
330
428
100
AcDbEntity
  8
1-1MH
  6
Continuous
 62
     7
100
AcDbLine
 10
523.8440294711
 20
152.7405144379
 30
0.0
 11
522.6446685932
 21
153.4329657636
 31
0.0
  0
LINE
  5
4EC
330
428
100
AcDbEntity
  8
1-1MH
  6
Continuous
 62
     7
100
AcDbLine
 10
522.6446685932
 20
153.4329657636
 30
0.0
 11
519.5774421482
 21
152.9584641813
 31
0.0
  0
LINE
  5
4ED
330
428
100
AcDbEntity
  8
1-1MH
  6
Continuous
 62
     7
100
AcDbLine
 10
519.2986033782
 20
153.1194518202
 30
0.0
 11
519.2986033782
 21
155.568941563
 31
0.0
  0
ELLIPSE
  5
4EE
330
428
100
AcDbEntity
  8
1-1MH
  6
Continuous
 62
     7
100
AcDbEllipse
 10
521.748093121
 20
154.3588521458
 30
0.0
 11
-8.550000000000002
 21
2.168404344971009E-15
 31
0.0
210
0.0
220
0.0
230
1.0
 40
0.5773502692
 41
0.8429197441705912
 42
5.497787143782145
  0
ELLIPSE
  5
4EF
330
428
100
AcDbEntity
  8
1-1MH
  6
Continuous
 62
     7
100
AcDbEllipse
 10
521.748093121
 20
153.5831803939
 30
0.0
 11
-9.499999999999998
 21
-1.301042606982605E-15
 31
0.0
210
0.0
220
0.0
230
1.0
 40
0.5773502692
 41
1.057907309031925
 42
3.141592653589793
  0
ELLIPSE
  5
4F0
330
428
100
AcDbEntity
  8
1-1MH
  6
Continuous
 62
     7
100
AcDbEllipse
 10
521.748093121
 20
153.5831803939
 30
0.0
 11
-9.499999999999998
 21
-1.301042606982605E-15
 31
0.0
210
0.0
220
0.0
230
1.0
 40
0.5773502692
 41
3.141592653589793
 42
3.152803653974847
  0
ELLIPSE
  5
4F1
330
428
100
AcDbEntity
  8
1-1MH
  6
Continuous
 62
     7
100
AcDbEllipse
 10
521.748093121
 20
152.8891583002
 30
0.0
 11
-9.500000000000002
 21
0.0
 31
0.0
210
0.0
220
0.0
230
1.0
 40
0.5773502692
 41
1.057907309031925
 42
2.104216054042856
  0
ELLIPSE
  5
4F2
330
428
100
AcDbEntity
  8
1-1MH
  6
Continuous
 62
     7
100
AcDbEllipse
 10
521.748093121
 20
152.8891583002
 30
0.0
 11
-9.500000000000002
 21
0.0
 31
0.0
210
0.0
220
0.0
230
1.0
 40
0.5773502692
 41
2.608172926341834
 42
3.141592653589793
  0
LINE
  5
4F3
330
428
100
AcDbEntity
  8
1-1MH
  6
Continuous
 62
     7
100
AcDbLine
 10
522.6446685932
 20
156.0865796532
 30
0.0
 11
522.6446685932
 21
153.4329657636
 31
0.0
  0
LINE
  5
4F4
330
428
100
AcDbEntity
  8
1-1MH
  6
Continuous
 62
     7
100
AcDbLine
 10
519.094479233
 20
155.8909168384
 30
0.0
 11
518.1231891381
 21
153.7980775481
 31
0.0
  0
LINE
  5
4F5
330
428
100
AcDbEntity
  8
1-1MH
  6
Continuous
 62
     7
100
AcDbLine
 10
518.402027906
 20
153.6370899104
 30
0.0
 11
519.2986033782
 21
155.568941563
 31
0.0
  0
LINE
  5
4F6
330
428
100
AcDbEntity
  8
1-1MH
  6
Continuous
 62
     7
100
AcDbLine
 10
518.1231891381
 20
153.7980775481
 30
0.0
 11
520.7768030261
 21
152.2660128555
 31
0.0
  0
LINE
  5
4F7
330
428
100
AcDbEntity
  8
1-1MH
  6
Continuous
 62
     7
100
AcDbLine
 10
520.7768030261
 20
152.2660128555
 30
0.0
 11
524.401707009
 21
152.8267874533
 31
0.0
  0
LINE
  5
4F8
330
428
100
AcDbEntity
  8
1-1MH
  6
Continuous
 62
     7
100
AcDbLine
 10
524.401707009
 20
152.8267874533
 30
0.0
 11
525.3729971039
 21
154.9196267436
 31
0.0
  0
LINE
  5
4F9
330
428
100
AcDbEntity
  8
1-1MH
  6
Continuous
 62
     7
100
AcDbLine
 10
525.0941583359
 20
154.6723660908
 30
0.0
 11
524.2249303137
 21
152.7994400033
 31
0.0
  0
LINE
  5
4FA
330
428
100
AcDbEntity
  8
1-1MH
  6
Continuous
 62
     7
100
AcDbLine
 10
525.3729971039
 20
154.9196267436
 30
0.0
 11
522.7193832158
 21
156.4516914361
 31
0.0
  0
LINE
  5
4FB
330
428
100
AcDbEntity
  8
1-1MH
  6
Continuous
 62
     7
100
AcDbLine
 10
522.7193832158
 20
156.4516914361
 30
0.0
 11
522.6446685932
 21
156.0865796532
 31
0.0
  0
LINE
  5
4FC
330
428
100
AcDbEntity
  8
1-1MH
  6
Continuous
 62
     7
100
AcDbLine
 10
522.6446685932
 20
156.0865796532
 30
0.0
 11
525.0941583359
 21
154.6723660908
 31
0.0
  0
LINE
  5
4FD
330
428
100
AcDbEntity
  8
1-1MH
  6
Continuous
 62
     7
100
AcDbLine
 10
525.0941583359
 20
154.6723660908
 30
0.0
 11
525.3729971039
 21
154.9196267436
 31
0.0
  0
LINE
  5
4FE
330
428
100
AcDbEntity
  8
1-1MH
  6
Continuous
 62
     7
100
AcDbLine
 10
522.7193832158
 20
156.4516914361
 30
0.0
 11
519.094479233
 21
155.8909168384
 31
0.0
  0
LINE
  5
4FF
330
428
100
AcDbEntity
  8
1-1MH
  6
Continuous
 62
     7
100
AcDbLine
 10
519.094479233
 20
155.8909168384
 30
0.0
 11
519.2986033782
 21
155.568941563
 31
0.0
  0
LINE
  5
500
330
428
100
AcDbEntity
  8
1-1MH
  6
Continuous
 62
     7
100
AcDbLine
 10
519.2986033782
 20
155.568941563
 30
0.0
 11
522.6446685932
 21
156.0865796532
 31
0.0
  0
LINE
  5
501
330
428
100
AcDbEntity
  8
1-1MH
  6
Continuous
 62
     7
100
AcDbLine
 10
471.7329803477
 20
56.6781209237
 30
0.0
 11
472.9323412278
 21
55.9856695967
 31
0.0
  0
LINE
  5
502
330
428
100
AcDbEntity
  8
1-1MH
  6
Continuous
 62
     7
100
AcDbLine
 10
470.610297549
 20
59.5716677373
 30
0.0
 11
471.7329803477
 21
56.6781209237
 31
0.0
  0
LINE
  5
503
330
428
100
AcDbEntity
  8
1-1MH
  6
Continuous
 62
     7
100
AcDbLine
 10
470.331458781
 20
59.732655375
 30
0.0
 11
468.2101384375
 21
58.5079105036
 31
0.0
  0
ELLIPSE
  5
504
330
428
100
AcDbEntity
  8
1-1MH
  6
Continuous
 62
     7
100
AcDbEllipse
 10
470.482851485
 20
56.9916348686
 30
0.0
 11
4.274999999999629
 21
-7.404517202357169
 31
0.0
210
0.0
220
0.0
230
1.0
 40
0.5773502692
 41
0.0
 42
6.283185307179586
  0
ELLIPSE
  5
505
330
428
100
AcDbEntity
  8
1-1MH
  6
Continuous
 62
     7
100
AcDbEllipse
 10
471.1546029271
 20
57.3794707446
 30
0.0
 11
4.749999999999589
 21
-8.227241335952407
 31
0.0
210
0.0
220
0.0
230
1.0
 40
0.5773502692
 41
0.0
 42
0.0142585084628393
  0
ELLIPSE
  5
506
330
428
100
AcDbEntity
  8
1-1MH
  6
Continuous
 62
     7
100
AcDbEllipse
 10
471.1546029271
 20
57.3794707446
 30
0.0
 11
4.749999999999589
 21
-8.227241335952407
 31
0.0
210
0.0
220
0.0
230
1.0
 40
0.5773502692
 41
0.0142585084628393
 42
0.4575227820135283
  0
ELLIPSE
  5
507
330
428
100
AcDbEntity
  8
1-1MH
  6
Continuous
 62
     7
100
AcDbEllipse
 10
471.1546029271
 20
57.3794707446
 30
0.0
 11
4.749999999999589
 21
-8.227241335952407
 31
0.0
210
0.0
220
0.0
230
1.0
 40
0.5773502692
 41
2.684069871576428
 42
3.141592653589796
  0
ELLIPSE
  5
508
330
428
100
AcDbEntity
  8
1-1MH
  6
Continuous
 62
     7
100
AcDbEllipse
 10
471.1546029271
 20
57.3794707446
 30
0.0
 11
4.749999999999589
 21
-8.227241335952407
 31
0.0
210
0.0
220
0.0
230
1.0
 40
0.5773502692
 41
3.141592653589796
 42
3.148812611334163
  0
ELLIPSE
  5
509
330
428
100
AcDbEntity
  8
1-1MH
  6
Continuous
 62
     7
100
AcDbEllipse
 10
471.7556436911
 20
57.7264817915
 30
0.0
 11
4.749999999999588
 21
-8.227241335952405
 31
0.0
210
0.0
220
0.0
230
1.0
 40
0.5773502692
 41
0.0000000000000027
 42
0.2016667871017933
  0
ELLIPSE
  5
50A
330
428
100
AcDbEntity
  8
1-1MH
  6
Continuous
 62
     7
100
AcDbEllipse
 10
471.7556436911
 20
57.7264817915
 30
0.0
 11
4.749999999999588
 21
-8.227241335952405
 31
0.0
210
0.0
220
0.0
230
1.0
 40
0.5773502692
 41
2.939925866488038
 42
3.141592653589793
  0
LINE
  5
50B
330
428
100
AcDbEntity
  8
1-1MH
  6
Continuous
 62
     7
100
AcDbLine
 10
469.4348833089
 20
55.3513139797
 30
0.0
 11
471.7329803477
 21
56.6781209237
 31
0.0
  0
LINE
  5
50C
330
428
100
AcDbEntity
  8
1-1MH
  6
Continuous
 62
     7
100
AcDbLine
 10
467.829237597
 20
58.5236995612
 30
0.0
 11
469.156044541
 21
55.1040533269
 31
0.0
  0
LINE
  5
50D
330
428
100
AcDbEntity
  8
1-1MH
  6
Continuous
 62
     7
100
AcDbLine
 10
469.4348833089
 20
55.3513139797
 30
0.0
 11
468.2101384375
 21
58.5079105036
 31
0.0
  0
LINE
  5
50E
330
428
100
AcDbEntity
  8
1-1MH
  6
Continuous
 62
     7
100
AcDbLine
 10
469.156044541
 20
55.1040533269
 30
0.0
 11
471.809658429
 21
53.5719886343
 31
0.0
  0
LINE
  5
50F
330
428
100
AcDbEntity
  8
1-1MH
  6
Continuous
 62
     7
100
AcDbLine
 10
471.8843730517
 20
53.9371004173
 30
0.0
 11
469.4348833089
 21
55.3513139797
 31
0.0
  0
LINE
  5
510
330
428
100
AcDbEntity
  8
1-1MH
  6
Continuous
 62
     7
100
AcDbLine
 10
469.4348833089
 20
55.3513139797
 30
0.0
 11
469.156044541
 21
55.1040533269
 31
0.0
  0
LINE
  5
511
330
428
100
AcDbEntity
  8
1-1MH
  6
Continuous
 62
     7
100
AcDbLine
 10
471.809658429
 20
53.5719886343
 30
0.0
 11
473.136465373
 21
55.4595701761
 31
0.0
  0
LINE
  5
512
330
428
100
AcDbEntity
  8
1-1MH
  6
Continuous
 62
     7
100
AcDbLine
 10
473.0717606117
 20
55.62633701
 30
0.0
 11
471.8843730517
 21
53.9371004173
 31
0.0
  0
LINE
  5
513
330
428
100
AcDbEntity
  8
1-1MH
  6
Continuous
 62
     7
100
AcDbLine
 10
471.8843730517
 20
53.9371004173
 30
0.0
 11
471.809658429
 21
53.5719886343
 31
0.0
  0
LINE
  5
514
330
428
100
AcDbEntity
  8
1-1MH
  6
Continuous
 62
     7
100
AcDbLine
 10
473.136465373
 20
55.4595701761
 30
0.0
 11
471.809658429
 21
58.8792164104
 31
0.0
  0
LINE
  5
515
330
428
100
AcDbEntity
  8
1-1MH
  6
Continuous
 62
     7
100
AcDbLine
 10
471.809658429
 20
58.8792164104
 30
0.0
 11
469.156044541
 21
60.4112811029
 31
0.0
  0
LINE
  5
516
330
428
100
AcDbEntity
  8
1-1MH
  6
Continuous
 62
     7
100
AcDbLine
 10
469.156044541
 20
60.4112811029
 30
0.0
 11
467.829237597
 21
58.5236995612
 31
0.0
  0
LINE
  5
517
330
428
100
AcDbEntity
  8
1-1MH
  6
Continuous
 62
     7
100
AcDbLine
 10
467.829237597
 20
58.5236995612
 30
0.0
 11
468.2101384375
 21
58.5079105036
 31
0.0
  0
LINE
  5
518
330
428
100
AcDbEntity
  8
1-1MH
  6
Continuous
 62
     7
100
AcDbLine
 10
468.2101384375
 20
58.5079105036
 30
0.0
 11
469.4348833089
 21
60.2502934652
 31
0.0
  0
LINE
  5
519
330
428
100
AcDbEntity
  8
1-1MH
  6
Continuous
 62
     7
100
AcDbLine
 10
567.0363066561
 20
64.841650539
 30
0.0
 11
567.0363066561
 21
144.9874189798
 31
0.0
  0
LINE
  5
51A
330
428
100
AcDbEntity
  8
1-1MH
  6
Continuous
 62
     7
100
AcDbLine
 10
567.0363066561
 20
144.9874189798
 30
0.0
 11
558.8711991333
 21
140.2732919536
 31
0.0
  0
LINE
  5
51B
330
428
100
AcDbEntity
  8
1-1MH
  6
Continuous
 62
     7
100
AcDbLine
 10
559.3872738357
 20
51.6773230082
 30
0.0
 11
558.8711991333
 21
51.3362417761
 31
0.0
  0
LINE
  5
51C
330
428
100
AcDbEntity
  8
1-1MH
  6
Continuous
 62
     7
100
AcDbLine
 10
567.0111829489
 20
146.6069011323
 30
0.0
 11
565.6212321175
 21
147.4383999772
 31
0.0
  0
LINE
  5
51D
330
428
100
AcDbEntity
  8
1-1MH
  6
Continuous
 62
     7
100
AcDbLine
 10
510.4035890604
 20
179.3183210602
 30
0.0
 11
501.647583239
 21
174.9453493257
 31
0.0
  0
LINE
  5
51E
330
428
100
AcDbEntity
  8
1-1MH
  6
Continuous
 62
     7
100
AcDbLine
 10
521.0409863398
 20
162.932066244
 30
0.0
 11
536.5973355259
 21
153.9506038538
 31
0.0
  0
LINE
  5
51F
330
428
100
AcDbEntity
  8
1-1MH
  6
Continuous
 62
     7
100
AcDbLine
 10
557.4561245947
 20
142.7242729509
 30
0.0
 11
565.6212321175
 21
147.4383999772
 31
0.0
  0
LINE
  5
520
330
428
100
AcDbEntity
  8
1-1MH
  6
Continuous
 62
     7
100
AcDbLine
 10
567.0111829489
 20
146.6069011323
 30
0.0
 11
567.0363066561
 21
144.9874189798
 31
0.0
  0
LINE
  5
521
330
428
100
AcDbEntity
  8
1-1MH
  6
Continuous
 62
     7
100
AcDbLine
 10
510.4035890604
 20
179.3183210602
 30
0.0
 11
565.6212321175
 21
147.4383999772
 31
0.0
  0
ARC
  5
522
330
428
100
AcDbEntity
  8
1-1MH
  6
Continuous
 62
     7
100
AcDbCircle
 10
523.9298036217
 20
61.3477779329
 30
0.0
 40
6.30298314385765
100
AcDbArc
 50
115.3577163685
 51
121.0498856243
  0
ELLIPSE
  5
523
330
428
100
AcDbEntity
  8
1-1MH
  6
Continuous
 62
     7
100
AcDbEllipse
 10
520.6771096585
 20
63.3301291235
 30
0.0
 11
-2.114831000070533
 21
-3.662994741544165
 31
0.0
210
0.0
220
0.0
230
0.9999999999999998
 40
0.5773502692
 41
3.065873116033824
 42
3.740910966745353
  0
ELLIPSE
  5
524
330
428
100
AcDbEntity
  8
1-1MH
  6
Continuous
 62
     7
100
AcDbEllipse
 10
520.5513370484
 20
63.6751820958
 30
0.0
 11
1.99999999999983
 21
3.464101615137834
 31
0.0
210
0.0
220
0.0
230
1.0
 40
0.5773502692
 41
2.379679863325202
 42
3.141592653589793
  0
ELLIPSE
  5
525
330
428
100
AcDbEntity
  8
1-1MH
  6
Continuous
 62
     7
100
AcDbEllipse
 10
520.7634690827
 20
63.5527076087
 30
0.0
 11
1.999999999999832
 21
3.464101615137855
 31
0.0
210
0.0
220
0.0
230
1.0
 40
0.5773502692
 41
1.220029745195832
 42
6.187242787481921
  0
ELLIPSE
  5
526
330
428
100
AcDbEntity
  8
1-1MH
  6
Continuous
 62
     7
100
AcDbEllipse
 10
520.7634690827
 20
63.5527076087
 30
0.0
 11
1.999999999999832
 21
3.464101615137855
 31
0.0
210
0.0
220
0.0
230
1.0
 40
0.5773502692
 41
0.619541295297316
 42
0.9475302997831698
  0
ELLIPSE
  5
527
330
428
100
AcDbEntity
  8
1-1MH
  6
Continuous
 62
     7
100
AcDbEllipse
 10
520.7634690827
 20
63.5527076087
 30
0.0
 11
0.7268749999999367
 21
1.258984430751662
 31
0.0
210
0.0
220
0.0
230
0.9999999999999999
 40
0.5773502692
 41
0.0
 42
6.283185307179586
  0
ARC
  5
528
330
428
100
AcDbEntity
  8
1-1MH
  6
Continuous
 62
     7
100
AcDbCircle
 10
525.0176885809
 20
60.499690027
 30
0.0
 40
6.011972694469908
100
AcDbArc
 50
135.4935830367
 51
149.0439353286
  0
ARC
  5
529
330
428
100
AcDbEntity
  8
1-1MH
  6
Continuous
 62
     7
100
AcDbCircle
 10
526.2831982414
 20
64.2214371272
 30
0.0
 40
4.675632285123047
100
AcDbArc
 50
174.4250479507
 51
188.6847635554
  0
ARC
  5
52A
330
428
100
AcDbEntity
  8
1-1MH
  6
Continuous
 62
     7
100
AcDbCircle
 10
525.9487466221
 20
59.3010986924
 30
0.0
 40
6.011972647772161
100
AcDbArc
 50
135.4935829838
 51
149.0439353814
  0
LINE
  5
52B
330
428
100
AcDbEntity
  8
1-1MH
  6
Continuous
 62
     7
100
AcDbLine
 10
521.6611764004
 20
63.515426244
 30
0.0
 11
520.3902404147
 21
64.2492014775
 31
0.0
  0
ARC
  5
52C
330
428
100
AcDbEntity
  8
1-1MH
  6
Continuous
 62
     7
100
AcDbCircle
 10
520.1250671204
 20
57.2935058868
 30
0.0
 40
5.143601448462398
100
AcDbArc
 50
82.5374618811
 51
92.5798633598
  0
LINE
  5
52D
330
428
100
AcDbEntity
  8
1-1MH
  6
Continuous
 62
     7
100
AcDbLine
 10
520.7931074027
 20
62.3935409888
 30
0.0
 11
519.8531513235
 21
62.9362248842
 31
0.0
  0
ARC
  5
52E
330
428
100
AcDbEntity
  8
1-1MH
  6
Continuous
 62
     7
100
AcDbCircle
 10
524.5155657058
 20
63.1379049261
 30
0.0
 40
4.675632285308611
100
AcDbArc
 50
174.425047951
 51
188.6847635551
  0
ARC
  5
52F
330
428
100
AcDbEntity
  8
1-1MH
  6
Continuous
 62
     7
100
AcDbCircle
 10
520.9616415599
 20
59.5756290302
 30
0.0
 40
5.14360186814466
100
AcDbArc
 50
82.5374622919
 51
92.5798629491
  0
LINE
  5
530
330
428
100
AcDbEntity
  8
1-1MH
  6
Continuous
 62
     7
100
AcDbLine
 10
520.3881220828
 20
64.3272394424
 30
0.0
 11
520.3902404147
 21
64.2492014775
 31
0.0
  0
LINE
  5
531
330
428
100
AcDbEntity
  8
1-1MH
  6
Continuous
 62
     7
100
AcDbLine
 10
520.3902404147
 20
64.2492014775
 30
0.0
 11
519.8608159802
 21
63.5649776793
 31
0.0
  0
SPLINE
  5
532
330
428
100
AcDbEntity
  8
1-1MH
  6
Continuous
 62
     7
100
AcDbSpline
210
0.0
220
0.0
230
1.0
 70
     8
 71
     3
 72
    16
 73
    12
 74
     0
 42
0.0000000026192724
 43
0.0000000001
 40
0.0383488628935035
 40
0.0383488628935035
 40
0.0383488628935035
 40
0.0383488628935035
 40
0.125
 40
0.125
 40
0.25
 40
0.25
 40
0.375
 40
0.375
 40
0.5
 40
0.5
 40
0.5160718784158995
 40
0.5160718784158995
 40
0.5160718784158995
 40
0.5160718784158995
 10
526.5214334739317
 20
48.53632410872484
 30
0.0
 10
526.4401486633916
 20
48.58310357144401
 30
0.0
 10
526.3653523421616
 20
48.63980803006633
 30
0.0
 10
526.1981893846083
 20
48.80208162349528
 30
0.0
 10
526.1123352099221
 20
48.91953032315544
 30
0.0
 10
525.9738305203449
 20
49.186997838097
 30
0.0
 10
525.9202206297138
 20
49.33744338624714
 30
0.0
 10
525.8446749754369
 20
49.6721478776621
 30
0.0
 10
525.8233100304308
 20
49.85614948092977
 30
0.0
 10
525.8183273102072
 20
50.07432921160243
 30
0.0
 10
525.8180318582897
 20
50.09936857639017
 30
0.0
 10
525.818010025025
 20
50.1245916689883
 30
0.0
  0
SPLINE
  5
533
330
428
100
AcDbEntity
  8
1-1MH
  6
Continuous
 62
     7
100
AcDbSpline
210
0.0
220
0.0
230
1.0
 70
     8
 71
     3
 72
    14
 73
    10
 74
     0
 42
0.0000000025628403
 43
0.0000000001
 40
0.1281843820524098
 40
0.1281843820524098
 40
0.1281843820524098
 40
0.1281843820524098
 40
0.2499999999999991
 40
0.2499999999999991
 40
0.3749999999999986
 40
0.3749999999999986
 40
0.4999999999999981
 40
0.4999999999999981
 40
0.6189281384410847
 40
0.6189281384410847
 40
0.6189281384410847
 40
0.6189281384410847
 10
528.7954908349558
 20
55.20732663979008
 30
0.0
 10
528.9669818848092
 20
55.30626862271433
 30
0.0
 10
529.1377932125137
 20
55.38638722602718
 30
0.0
 10
529.4710634245048
 20
55.50604207071926
 30
0.0
 10
529.6349733569123
 20
55.54557144926525
 30
0.0
 10
529.9526074714032
 20
55.58078420319621
 30
0.0
 10
530.1012837859774
 20
55.57589027071613
 30
0.0
 10
530.3720431131691
 20
55.52428197392349
 30
0.0
 10
530.4961598235664
 20
55.47891451819667
 30
0.0
 10
530.608292298883
 20
55.41441082461279
 30
0.0
  0
ELLIPSE
  5
534
330
428
100
AcDbEntity
  8
1-1MH
  6
Continuous
 62
     7
100
AcDbEllipse
 10
528.722478218
 20
51.8843877081
 30
0.0
 11
-1.999999999999834
 21
-3.46410161513786
 31
0.0
210
0.0
220
0.0
230
0.9999999999999999
 40
0.5773502692
 41
-0.9919973036801647
 42
3.929788554953842
  0
ELLIPSE
  5
535
330
428
100
AcDbEntity
  8
1-1MH
  6
Continuous
 62
     7
100
AcDbEllipse
 10
528.722478218
 20
51.8843877081
 30
0.0
 11
-0.726874999999944
 21
-1.25898443075166
 31
0.0
210
0.0
220
0.0
230
1.0
 40
0.5773502692
 41
0.0
 42
6.283185307179586
  0
ARC
  5
536
330
428
100
AcDbEntity
  8
1-1MH
  6
Continuous
 62
     7
100
AcDbCircle
 10
532.4745746671
 20
51.4695850208
 30
0.0
 40
4.675632112647162
100
AcDbArc
 50
174.4250476864
 51
188.6847638198
  0
ARC
  5
537
330
428
100
AcDbEntity
  8
1-1MH
  6
Continuous
 62
     7
100
AcDbCircle
 10
528.9206506951
 20
47.9073091297
 30
0.0
 40
5.143601868144166
100
AcDbArc
 50
82.5374622919
 51
92.5798629491
  0
ARC
  5
538
330
428
100
AcDbEntity
  8
1-1MH
  6
Continuous
 62
     7
100
AcDbCircle
 10
534.2422073767
 20
52.5531172266
 30
0.0
 40
4.675632285122808
100
AcDbArc
 50
174.4250479507
 51
188.6847635554
  0
ARC
  5
539
330
428
100
AcDbEntity
  8
1-1MH
  6
Continuous
 62
     7
100
AcDbCircle
 10
533.9077557574
 20
47.6327787919
 30
0.0
 40
6.011972647747513
100
AcDbArc
 50
135.4935829838
 51
149.0439353815
  0
LINE
  5
53A
330
428
100
AcDbEntity
  8
1-1MH
  6
Continuous
 62
     7
100
AcDbLine
 10
529.6201855357
 20
51.8471063434
 30
0.0
 11
528.3492495499
 21
52.5808815769
 31
0.0
  0
ARC
  5
53B
330
428
100
AcDbEntity
  8
1-1MH
  6
Continuous
 62
     7
100
AcDbCircle
 10
528.0840762377
 20
45.6251855651
 30
0.0
 40
5.143601868310857
100
AcDbArc
 50
82.537462292
 51
92.5798629489
  0
LINE
  5
53C
330
428
100
AcDbEntity
  8
1-1MH
  6
Continuous
 62
     7
100
AcDbLine
 10
528.752116538
 20
50.7252210882
 30
0.0
 11
527.8121604582
 21
51.2679049839
 31
0.0
  0
ARC
  5
53D
330
428
100
AcDbEntity
  8
1-1MH
  6
Continuous
 62
     7
100
AcDbCircle
 10
532.9766977162
 20
48.8313701264
 30
0.0
 40
6.01197269446929
100
AcDbArc
 50
135.4935830367
 51
149.0439353286
  0
LINE
  5
53E
330
428
100
AcDbEntity
  8
1-1MH
  6
Continuous
 62
     7
100
AcDbLine
 10
528.347131218
 20
52.6589195418
 30
0.0
 11
528.3492495499
 21
52.5808815769
 31
0.0
  0
LINE
  5
53F
330
428
100
AcDbEntity
  8
1-1MH
  6
Continuous
 62
     7
100
AcDbLine
 10
528.3492495499
 20
52.5808815769
 30
0.0
 11
527.8198251155
 21
51.8966577788
 31
0.0
  0
SPLINE
  5
540
330
428
100
AcDbEntity
  8
1-1MH
  6
Continuous
 62
     7
100
AcDbSpline
210
0.0
220
0.0
230
1.0
 70
     8
 71
     3
 72
    12
 73
     8
 74
     0
 42
0.0000000027652709
 43
0.0000000001
 40
0.721598763656124
 40
0.721598763656124
 40
0.721598763656124
 40
0.721598763656124
 40
0.75
 40
0.75
 40
0.875
 40
0.875
 40
1.0
 40
1.0
 40
1.0
 40
1.0
 10
542.8626323261475
 20
57.60873714328232
 30
0.0
 10
542.8353865993666
 20
57.62444397168423
 30
0.0
 10
542.8087512826612
 20
57.64124809214
 30
0.0
 10
542.6682234117023
 20
57.73785604993287
 30
0.0
 10
542.564640830063
 20
57.83859827627103
 30
0.0
 10
542.385452447047
 20
58.08034270317976
 30
0.0
 10
542.3104476281597
 20
58.21988040706924
 30
0.0
 10
542.2502156270202
 20
58.37829393847215
 30
0.0
  0
ELLIPSE
  5
541
330
428
100
AcDbEntity
  8
1-1MH
  6
Continuous
 62
     7
100
AcDbEllipse
 10
545.0722936095
 20
61.1512391772
 30
0.0
 11
-2.114831000070517
 21
-3.662994741544388
 31
0.0
210
0.0
220
0.0
230
1.0
 40
0.5773502692
 41
5.529254672299244
 42
5.835306069139113
  0
ELLIPSE
  5
542
330
428
100
AcDbEntity
  8
1-1MH
  6
Continuous
 62
     7
100
AcDbEllipse
 10
544.8995747611
 20
61.0515199036
 30
0.0
 11
1.999999999999827
 21
3.464101615137847
 31
0.0
210
0.0
220
0.0
230
1.0
 40
0.5773502692
 41
2.713936397691163
 42
4.491998394118172
  0
ELLIPSE
  5
543
330
428
100
AcDbEntity
  8
1-1MH
  6
Continuous
 62
     7
100
AcDbEllipse
 10
544.8995747611
 20
61.0515199036
 30
0.0
 11
-0.7268749999999391
 21
-1.258984430751663
 31
0.0
210
0.0
220
0.0
230
1.0
 40
0.5773502692
 41
5.357777164527001
 42
6.283185307179586
  0
ELLIPSE
  5
544
330
428
100
AcDbEntity
  8
1-1MH
  6
Continuous
 62
     7
100
AcDbEllipse
 10
544.8995747611
 20
61.0515199036
 30
0.0
 11
-0.7268749999999391
 21
-1.258984430751663
 31
0.0
210
0.0
220
0.0
230
1.0
 40
0.5773502692
 41
0.0
 42
0.925408142652572
  0
ARC
  5
545
330
428
100
AcDbEntity
  8
1-1MH
  6
Continuous
 62
     7
100
AcDbCircle
 10
544.2611727988
 20
54.7923181814
 30
0.0
 40
5.143601448753842
100
AcDbArc
 50
82.5374618814
 51
92.5798633595
  0
ARC
  5
546
330
428
100
AcDbEntity
  8
1-1MH
  6
Continuous
 62
     7
100
AcDbCircle
 10
550.0848523377
 20
56.7999109586
 30
0.0
 40
6.011972694463002
100
AcDbArc
 50
147.9568265449
 51
149.0439353286
  0
LINE
  5
547
330
428
100
AcDbEntity
  8
1-1MH
  6
Continuous
 62
     7
100
AcDbLine
 10
544.9292130811
 20
59.8923532837
 30
0.0
 11
543.9892570013
 21
60.4350371794
 31
0.0
  0
ARC
  5
548
330
428
100
AcDbEntity
  8
1-1MH
  6
Continuous
 62
     7
100
AcDbCircle
 10
548.6516712102
 20
60.6367172163
 30
0.0
 40
4.675632112646444
100
AcDbArc
 50
181.3290214057
 51
188.6847638198
  0
ELLIPSE
  5
549
330
428
100
AcDbEntity
  8
1-1MH
  6
Continuous
 62
     7
100
AcDbEllipse
 10
553.2040215931
 20
82.1095504849
 30
0.0
 11
2.114831000070728
 21
3.662994741544521
 31
0.0
210
0.0
220
0.0
230
1.0
 40
0.5773502692
 41
3.065873116033585
 42
3.740910966745601
  0
SPLINE
  5
54A
330
428
100
AcDbEntity
  8
1-1MH
  6
Continuous
 62
     7
100
AcDbSpline
210
0.0
220
0.0
230
1.0
 70
     8
 71
     3
 72
    14
 73
    10
 74
     0
 42
0.0000000022708795
 43
0.0000000001
 40
0.0
 40
0.0
 40
0.0
 40
0.0
 40
0.125
 40
0.125
 40
0.25
 40
0.25
 40
0.375
 40
0.375
 40
0.4833413205162315
 40
0.4833413205162315
 40
0.4833413205162315
 40
0.4833413205162315
 10
550.9352692849397
 20
78.54941662454307
 30
0.0
 10
550.8153414766692
 20
78.64724083079888
 30
0.0
 10
550.7098463737826
 20
78.7648428223429
 30
0.0
 10
550.5269322588358
 20
79.03752740960739
 30
0.0
 10
550.4488591549484
 20
79.19447792977336
 30
0.0
 10
550.3254855668451
 20
79.53948236941368
 30
0.0
 10
550.2802690694419
 20
79.72589836952012
 30
0.0
 10
550.2260654497229
 20
80.09944506580474
 30
0.0
 10
550.2132636246129
 20
80.28479186996333
 30
0.0
 10
550.2132144819371
 20
80.4753569334965
 30
0.0
  0
ELLIPSE
  5
54B
330
428
100
AcDbEntity
  8
1-1MH
  6
Continuous
 62
     7
100
AcDbEllipse
 10
552.9055301346
 20
82.0094464868
 30
0.0
 11
-1.999999999999812
 21
-3.464101615137875
 31
0.0
210
0.0
220
0.0
230
0.9999999999999999
 40
0.5773502692
 41
3.141592653589757
 42
4.072189645053282
  0
ELLIPSE
  5
54C
330
428
100
AcDbEntity
  8
1-1MH
  6
Continuous
 62
     7
100
AcDbEllipse
 10
553.1176621689
 20
81.8869719997
 30
0.0
 11
-1.999999999999837
 21
-3.464101615137849
 31
0.0
210
0.0
220
0.0
230
0.9999999999999998
 40
0.5773502692
 41
0.6195412952976502
 42
6.187242787481551
  0
ELLIPSE
  5
54D
330
428
100
AcDbEntity
  8
1-1MH
  6
Continuous
 62
     7
100
AcDbEllipse
 10
553.1176621689
 20
81.8869719997
 30
0.0
 11
0.726874999999944
 21
1.258984430751655
 31
0.0
210
0.0
220
0.0
230
1.0
 40
0.5773502692
 41
0.0
 42
6.283185307179586
  0
ARC
  5
54E
330
428
100
AcDbEntity
  8
1-1MH
  6
Continuous
 62
     7
100
AcDbCircle
 10
558.3029397084
 20
77.6353630834
 30
0.0
 40
6.011972647771623
100
AcDbArc
 50
135.4935829838
 51
149.0439353814
  0
ARC
  5
54F
330
428
100
AcDbEntity
  8
1-1MH
  6
Continuous
 62
     7
100
AcDbCircle
 10
556.869758618
 20
81.4721693124
 30
0.0
 40
4.675632112647199
100
AcDbArc
 50
174.4250476864
 51
188.6847638198
  0
ARC
  5
550
330
428
100
AcDbEntity
  8
1-1MH
  6
Continuous
 62
     7
100
AcDbCircle
 10
557.3718816671
 20
78.8339544179
 30
0.0
 40
6.011972694469982
100
AcDbArc
 50
135.4935830367
 51
149.0439353286
  0
ARC
  5
551
330
428
100
AcDbEntity
  8
1-1MH
  6
Continuous
 62
     7
100
AcDbCircle
 10
553.3158346461
 20
77.9098934209
 30
0.0
 40
5.143601868454273
100
AcDbArc
 50
82.5374622922
 51
92.5798629488
  0
ARC
  5
552
330
428
100
AcDbEntity
  8
1-1MH
  6
Continuous
 62
     7
100
AcDbCircle
 10
558.6373911537
 20
82.5557015135
 30
0.0
 40
4.675632112476307
100
AcDbArc
 50
174.4250476861
 51
188.6847638201
  0
LINE
  5
553
330
428
100
AcDbEntity
  8
1-1MH
  6
Continuous
 62
     7
100
AcDbLine
 10
554.0153694866
 20
81.8496906349
 30
0.0
 11
552.7444335009
 21
82.5834658685
 31
0.0
  0
ARC
  5
554
330
428
100
AcDbEntity
  8
1-1MH
  6
Continuous
 62
     7
100
AcDbCircle
 10
552.4792602066
 20
75.6277702775
 30
0.0
 40
5.143601448755764
100
AcDbArc
 50
82.5374618814
 51
92.5798633595
  0
LINE
  5
555
330
428
100
AcDbEntity
  8
1-1MH
  6
Continuous
 62
     7
100
AcDbLine
 10
553.1473004889
 20
80.7278053798
 30
0.0
 11
552.2073444092
 21
81.2704892755
 31
0.0
  0
LINE
  5
556
330
428
100
AcDbEntity
  8
1-1MH
  6
Continuous
 62
     7
100
AcDbLine
 10
552.742315169
 20
82.6615038333
 30
0.0
 11
552.7444335009
 21
82.5834658685
 31
0.0
  0
LINE
  5
557
330
428
100
AcDbEntity
  8
1-1MH
  6
Continuous
 62
     7
100
AcDbLine
 10
552.7444335009
 20
82.5834658685
 30
0.0
 11
552.2150090665
 21
81.8992420703
 31
0.0
  0
SPLINE
  5
558
330
428
100
AcDbEntity
  8
1-1MH
  6
Continuous
 62
     7
100
AcDbSpline
210
0.0
220
0.0
230
1.0
 70
     8
 71
     3
 72
     8
 73
     4
 74
     0
 42
0.0000000025891092
 43
0.0000000001
 40
0.0
 40
0.0
 40
0.0
 40
0.0
 40
0.0383488628935303
 40
0.0383488628935303
 40
0.0383488628935303
 40
0.0383488628935303
 10
546.8236881496395
 20
97.20456483050455
 30
0.0
 10
546.8688099266839
 20
97.18395896489027
 30
0.0
 10
546.9126740389665
 20
97.16137823815066
 30
0.0
 10
546.9552911591945
 20
97.13683976971835
 30
0.0
  0
ELLIPSE
  5
559
330
428
100
AcDbEntity
  8
1-1MH
  6
Continuous
 62
     7
100
AcDbEllipse
 10
545.0722936095
 20
93.6781511118
 30
0.0
 11
-2.11483100007062
 21
-3.662994741544481
 31
0.0
210
0.0
220
0.0
230
1.0
 40
0.5773502692
 41
0.9714780136412792
 42
1.646515864352177
  0
SPLINE
  5
55A
330
428
100
AcDbEntity
  8
1-1MH
  6
Continuous
 62
     7
100
AcDbSpline
210
0.0
220
0.0
230
1.0
 70
     8
 71
     3
 72
    14
 73
    10
 74
     0
 42
0.0000000024035559
 43
0.0000000001
 40
0.618928138440889
 40
0.618928138440889
 40
0.618928138440889
 40
0.618928138440889
 40
0.625
 40
0.625
 40
0.75
 40
0.75
 40
0.875
 40
0.875
 40
1.0
 40
1.0
 40
1.0
 40
1.0
 10
543.0473707223188
 20
90.1554429273065
 30
0.0
 10
543.0406245594827
 20
90.15932577620117
 30
0.0
 10
543.0339082540996
 20
90.16325930274836
 30
0.0
 10
542.8895828630747
 20
90.24926136601906
 30
0.0
 10
542.7655793610834
 20
90.35158576456712
 30
0.0
 10
542.5443890253222
 20
90.59619859928848
 30
0.0
 10
542.4466807259897
 20
90.74019984524463
 30
0.0
 10
542.2863924773906
 20
91.05795783684006
 30
0.0
 10
542.2227110775096
 20
91.23232990217639
 30
0.0
 10
542.1756758114539
 20
91.42235876372546
 30
0.0
  0
ELLIPSE
  5
55B
330
428
100
AcDbEntity
  8
1-1MH
  6
Continuous
 62
     7
100
AcDbEllipse
 10
544.9465209993
 20
93.6777663874
 30
0.0
 11
-1.999999999999817
 21
-3.464101615137878
 31
0.0
210
0.0
220
0.0
230
0.9999999999999998
 40
0.5773502692
 41
5.370775627719055
 42
5.699914545028931
  0
ELLIPSE
  5
55C
330
428
100
AcDbEntity
  8
1-1MH
  6
Continuous
 62
     7
100
AcDbEllipse
 10
544.9465209993
 20
93.6777663874
 30
0.0
 11
-1.999999999999817
 21
-3.464101615137878
 31
0.0
210
0.0
220
0.0
230
0.9999999999999998
 40
0.5773502692
 41
3.201264640144054
 42
4.274675870363178
  0
ELLIPSE
  5
55D
330
428
100
AcDbEntity
  8
1-1MH
  6
Continuous
 62
     7
100
AcDbEllipse
 10
545.1586530336
 20
93.5552919002
 30
0.0
 11
1.999999999999822
 21
3.464101615137858
 31
0.0
210
0.0
220
0.0
230
1.0
 40
0.5773502692
 41
-1.474853807095832
 42
4.092847685089306
  0
ELLIPSE
  5
55E
330
428
100
AcDbEntity
  8
1-1MH
  6
Continuous
 62
     7
100
AcDbEllipse
 10
545.1586530336
 20
93.5552919002
 30
0.0
 11
-0.7268749999999342
 21
-1.258984430751666
 31
0.0
210
0.0
220
0.0
230
1.0
 40
0.5773502692
 41
0.0
 42
6.283185307179586
  0
ARC
  5
55F
330
428
100
AcDbEntity
  8
1-1MH
  6
Continuous
 62
     7
100
AcDbCircle
 10
550.6783821924
 20
94.2240214188
 30
0.0
 40
4.675632285122374
100
AcDbArc
 50
174.4250479507
 51
188.6847635554
  0
ARC
  5
560
330
428
100
AcDbEntity
  8
1-1MH
  6
Continuous
 62
     7
100
AcDbCircle
 10
544.5202510713
 20
87.296090178
 30
0.0
 40
5.143601448754942
100
AcDbArc
 50
82.5374618814
 51
92.5798633595
  0
ARC
  5
561
330
428
100
AcDbEntity
  8
1-1MH
  6
Continuous
 62
     7
100
AcDbCircle
 10
548.9107494827
 20
93.1404892129
 30
0.0
 40
4.675632112647508
100
AcDbArc
 50
174.4250476864
 51
188.6847638198
  0
ARC
  5
562
330
428
100
AcDbEntity
  8
1-1MH
  6
Continuous
 62
     7
100
AcDbCircle
 10
549.4128725319
 20
90.5022743185
 30
0.0
 40
6.011972694512031
100
AcDbArc
 50
135.4935830367
 51
149.0439353285
  0
ARC
  5
563
330
428
100
AcDbEntity
  8
1-1MH
  6
Continuous
 62
     7
100
AcDbCircle
 10
545.3568255287
 20
89.5782137426
 30
0.0
 40
5.143601448601943
100
AcDbArc
 50
82.5374618812
 51
92.5798633597
  0
ARC
  5
564
330
428
100
AcDbEntity
  8
1-1MH
  6
Continuous
 62
     7
100
AcDbCircle
 10
550.3439305731
 20
89.303682984
 30
0.0
 40
6.011972647772585
100
AcDbArc
 50
135.4935829838
 51
149.0439353814
  0
LINE
  5
565
330
428
100
AcDbEntity
  8
1-1MH
  6
Continuous
 62
     7
100
AcDbLine
 10
545.1882913536
 20
92.3961252804
 30
0.0
 11
544.2483352739
 21
92.938809176
 31
0.0
  0
LINE
  5
566
330
428
100
AcDbEntity
  8
1-1MH
  6
Continuous
 62
     7
100
AcDbLine
 10
546.0563603514
 20
93.5180105355
 30
0.0
 11
544.7854243656
 21
94.251785769
 31
0.0
  0
LINE
  5
567
330
428
100
AcDbEntity
  8
1-1MH
  6
Continuous
 62
     7
100
AcDbLine
 10
544.7833060337
 20
94.3298237339
 30
0.0
 11
544.7854243656
 21
94.251785769
 31
0.0
  0
LINE
  5
568
330
428
100
AcDbEntity
  8
1-1MH
  6
Continuous
 62
     7
100
AcDbLine
 10
544.7854243656
 20
94.251785769
 30
0.0
 11
544.2559999312
 21
93.5675619709
 31
0.0
  0
ELLIPSE
  5
569
330
428
100
AcDbEntity
  8
1-1MH
  6
Continuous
 62
     7
100
AcDbEllipse
 10
479.3216862498
 20
103.0012172039
 30
0.0
 11
9.999999999999133
 21
-17.32050807568928
 31
0.0
210
0.0
220
0.0
230
1.0
 40
0.5773502692
 41
0.0
 42
6.283185307179586
  0
ELLIPSE
  5
56A
330
428
100
AcDbEntity
  8
1-1MH
  6
Continuous
 62
     7
100
AcDbEllipse
 10
486.3927540617
 20
107.0837001086
 30
0.0
 11
9.999999999999135
 21
-17.32050807568929
 31
0.0
210
0.0
220
0.0
230
1.0
 40
0.5773502692
 41
3.502959777496457
 42
5.921818183272905
  0
ELLIPSE
  5
56B
330
428
100
AcDbEntity
  8
1-1MH
  6
Continuous
 62
     7
100
AcDbEllipse
 10
466.9038938458
 20
124.6986946563
 30
0.0
 11
1.374999999999931
 21
-2.381569860407374
 31
0.0
210
0.0
220
0.0
230
1.0
 40
0.5773502692
 41
0.0
 42
6.283185307179586
  0
ELLIPSE
  5
56C
330
428
100
AcDbEntity
  8
1-1MH
  6
Continuous
 62
     7
100
AcDbEllipse
 10
491.7394786538
 20
110.359863082
 30
0.0
 11
1.374999999999631
 21
-2.381569860406832
 31
0.0
210
0.0
220
0.0
230
0.9999999999999999
 40
0.5773502692
 41
0.0
 42
6.283185307179586
  0
ELLIPSE
  5
56D
330
428
100
AcDbEntity
  8
1-1MH
  6
Continuous
 62
     7
100
AcDbEllipse
 10
491.7394786538
 20
81.3037397515
 30
0.0
 11
1.374999999999526
 21
-2.381569860406662
 31
0.0
210
0.0
220
0.0
230
1.0
 40
0.5773502692
 41
0.0
 42
6.283185307179586
  0
ELLIPSE
  5
56E
330
428
100
AcDbEntity
  8
1-1MH
  6
Continuous
 62
     7
100
AcDbEllipse
 10
466.9038938458
 20
95.6425713259
 30
0.0
 11
1.374999999999877
 21
-2.381569860407278
 31
0.0
210
0.0
220
0.0
230
1.0
 40
0.5773502692
 41
0.0
 42
6.283185307179586
  0
ELLIPSE
  5
56F
330
428
100
AcDbEntity
  8
1-1MH
  6
Continuous
 62
     7
100
AcDbEllipse
 10
486.3927540617
 20
107.0837001086
 30
0.0
 11
-2.288675134594616
 21
3.964101615137874
 31
0.0
210
0.0
220
0.0
230
0.9999999999999999
 40
0.5773502692
 41
0.0
 42
6.283185307179586
  0
SPLINE
  5
570
330
428
100
AcDbEntity
  8
1-1MH
  6
Continuous
 62
     7
100
AcDbSpline
210
0.0
220
0.0
230
1.0
 70
     8
 71
     3
 72
    37
 73
    33
 74
     0
 42
0.0000000004075119
 43
0.0000000001
 40
0.0
 40
0.0
 40
0.0
 40
0.0
 40
0.02436388902046
 40
0.0562571628430938
 40
0.0883480378767605
 40
0.120945361836073
 40
0.1542136402449094
 40
0.1881443089470789
 40
0.2225892060873237
 40
0.2573437416412058
 40
0.2922273429051153
 40
0.3270990424579089
 40
0.3619102014596157
 40
0.3966501060699448
 40
0.4313269083685052
 40
0.4659581839461077
 40
0.5005659026521904
 40
0.535174041375213
 40
0.5698024238855145
 40
0.6044733681778113
 40
0.6392123843514392
 40
0.6740437632405142
 40
0.7089876491965214
 40
0.7440538348087268
 40
0.7792299447539962
 40
0.8144479816757112
 40
0.8495437715777632
 40
0.8842916899050677
 40
0.9184383032956034
 40
0.9518149828559824
 40
0.9844419335142753
 40
1.0
 40
1.0
 40
1.0
 40
1.0
 10
516.0591546875879
 20
86.26553555318672
 30
0.0
 10
516.2164877442038
 20
86.1814154680931
 30
0.0
 10
516.5255249730232
 20
86.01986070562198
 30
0.0
 10
517.1101833855465
 20
85.85216962162163
 30
0.0
 10
517.7584000189167
 20
85.76565628746668
 30
0.0
 10
518.4424183269797
 20
85.77762360532016
 30
0.0
 10
519.150630067797
 20
85.88798835378527
 30
0.0
 10
519.8790949201699
 20
86.09750890948952
 30
0.0
 10
520.6191299013958
 20
86.40509178546213
 30
0.0
 10
521.3613467606413
 20
86.80736735206563
 30
0.0
 10
522.0957932674631
 20
87.2986771409445
 30
0.0
 10
522.8133287541626
 20
87.87192397065378
 30
0.0
 10
523.5058129337023
 20
88.51928977391552
 30
0.0
 10
524.1660891228837
 20
89.23276958847264
 30
0.0
 10
524.7875155133146
 20
90.00405836188888
 30
0.0
 10
525.3638415025081
 20
90.82453231978288
 30
0.0
 10
525.889185035457
 20
91.68526379144379
 30
0.0
 10
526.3580297322045
 20
92.57702310278313
 30
0.0
 10
526.7652827026438
 20
93.49036373721702
 30
0.0
 10
527.1063261789075
 20
94.41574709080552
 30
0.0
 10
527.3770356587668
 20
95.3436919016129
 30
0.0
 10
527.573738773128
 20
96.26483658437768
 30
0.0
 10
527.6931538004113
 20
97.1699414611955
 30
0.0
 10
527.732334836305
 20
98.04981896899672
 30
0.0
 10
527.6886628828262
 20
98.89503936314615
 30
0.0
 10
527.5601341436993
 20
99.6952801427485
 30
0.0
 10
527.3459409144251
 20
100.43951846057
 30
0.0
 10
527.0478098937646
 20
101.1150636643772
 30
0.0
 10
526.6694983720867
 20
101.7132428084137
 30
0.0
 10
526.2217749967422
 20
102.2143833977055
 30
0.0
 10
525.791129792636
 20
102.5756560891001
 30
0.0
 10
525.5259134999108
 20
102.7162869994818
 30
0.0
 10
525.4249372177879
 20
102.7690177710382
 30
0.0
  0
LINE
  5
571
330
428
100
AcDbEntity
  8
1-1MH
  6
Continuous
 62
     7
100
AcDbLine
 10
515.3717475243
 20
86.6498348877
 30
0.0
 11
515.9727882883
 21
86.3028238409
 31
0.0
  0
LINE
  5
572
330
428
100
AcDbEntity
  8
1-1MH
  6
Continuous
 62
     7
100
AcDbLine
 10
525.4727882883
 20
102.7573065128
 30
0.0
 11
524.8717475243
 21
103.1043175597
 31
0.0
  0
ARC
  5
573
330
428
100
AcDbEntity
  8
1-1MH
  6
Continuous
 62
     7
100
AcDbCircle
 10
522.320664075
 20
97.206857946
 30
0.0
 40
6.461200816130541
100
AcDbArc
 50
73.0637331871
 51
87.6012991876
  0
ARC
  5
574
330
428
100
AcDbEntity
  8
1-1MH
  6
Continuous
 62
     7
100
AcDbCircle
 10
519.1660066506
 20
91.8116703835
 30
0.0
 40
6.431457384167116
100
AcDbArc
 50
212.4667873734
 51
227.1752610146
  0
LINE
  5
575
330
428
100
AcDbEntity
  8
1-1MH
  6
Continuous
 62
     7
100
AcDbLine
 10
521.0104031152
 20
49.5855083433
 30
0.0
 11
522.7781700681
 21
48.5648876172
 31
0.0
  0
LINE
  5
576
330
428
100
AcDbEntity
  8
1-1MH
  6
Continuous
 62
     7
100
AcDbLine
 10
550.7781700681
 20
97.0623102291
 30
0.0
 11
549.0104031152
 21
98.0829309553
 31
0.0
  0
SPLINE
  5
577
330
428
100
AcDbEntity
  8
1-1MH
  6
Continuous
 62
     7
100
AcDbSpline
210
0.0
220
0.0
230
1.0
 70
     8
 71
     3
 72
    26
 73
    22
 74
     0
 42
0.0000000001600486
 43
0.0000000001
 40
0.0
 40
0.0
 40
0.0
 40
0.0
 40
0.015846718115828
 40
0.037756658972387
 40
0.0597290925031631
 40
0.0817655324122622
 40
0.1038604995378254
 40
0.1260041878045452
 40
0.1481851031081822
 40
0.1703920698445969
 40
0.192615418981688
 40
0.2148474686786044
 40
0.2370822895035482
 40
0.2593151920450381
 40
0.2815440319964805
 40
0.3037676294537696
 40
0.3259854991369552
 40
0.3481976404118847
 40
0.3704043813382368
 40
0.3926062669269398
 40
0.4084353943116004
 40
0.4084353943116004
 40
0.4084353943116004
 40
0.4084353943116004
 10
525.4994418267648
 20
47.50761532548857
 30
0.0
 10
525.7700913090407
 20
47.44501723418885
 30
0.0
 10
526.3171758963072
 20
47.32162483801912
 30
0.0
 10
527.3117074506682
 20
47.2182903943734
 30
0.0
 10
528.408759600608
 20
47.19741914669346
 30
0.0
 10
529.5474213353174
 20
47.27631953915098
 30
0.0
 10
530.7117267092107
 20
47.45316330791024
 30
0.0
 10
531.9002016036825
 20
47.72790396317086
 30
0.0
 10
533.1072324455216
 20
48.09940128694842
 30
0.0
 10
534.3281900024282
 20
48.56620096955943
 30
0.0
 10
535.5581437812589
 20
49.12636469426204
 30
0.0
 10
536.7922652454934
 20
49.77756635867806
 30
0.0
 10
538.025744339768
 20
50.51710958053764
 30
0.0
 10
539.2538478195634
 20
51.34197256705902
 30
0.0
 10
540.471919826385
 20
52.24883667009892
 30
0.0
 10
541.6753940826289
 20
53.23411547069902
 30
0.0
 10
542.8597753624199
 20
54.29395372462435
 30
0.0
 10
544.0206473853038
 20
55.42423927040935
 30
0.0
 10
545.1536828878185
 20
56.62061507046941
 30
0.0
 10
546.1493857148724
 20
57.75821981090397
 30
0.0
 10
546.760425856186
 20
58.50429300871442
 30
0.0
 10
547.0114584438968
 20
58.81934138861232
 30
0.0
  0
SPLINE
  5
578
330
428
100
AcDbEntity
  8
1-1MH
  6
Continuous
 62
     7
100
AcDbSpline
210
0.0
220
0.0
230
1.0
 70
     8
 71
     3
 72
    27
 73
    23
 74
     0
 42
0.0000000001601908
 43
0.0000000001
 40
0.5899525435891593
 40
0.5899525435891593
 40
0.5899525435891593
 40
0.5899525435891593
 40
0.5923336864512528
 40
0.614530880937612
 40
0.6367322730844169
 40
0.658938714041993
 40
0.68115099892457
 40
0.7033698248510997
 40
0.7255957273819146
 40
0.7478289871194925
 40
0.7700694963682014
 40
0.7923165745950239
 40
0.8145687225339603
 40
0.836823027198658
 40
0.8590739072507297
 40
0.8813146980194051
 40
0.9035365435194986
 40
0.9257285130067248
 40
0.9478783130584372
 40
0.9699738306259672
 40
0.9920055478387954
 40
1.0
 40
1.0
 40
1.0
 40
1.0
 10
554.0136583168431
 20
70.94706883086239
 30
0.0
 10
554.0358220596513
 20
71.00346776120792
 30
0.0
 10
554.263298748933
 20
71.58575992943739
 30
0.0
 10
554.670626618099
 20
72.69649472115029
 30
0.0
 10
555.1824350530734
 20
74.27828104990327
 30
0.0
 10
555.6242036316289
 20
75.85474168221354
 30
0.0
 10
555.9941753345896
 20
77.41995695358038
 30
0.0
 10
556.2908439136177
 20
78.9680526806068
 30
0.0
 10
556.5129567068398
 20
80.49321879599883
 30
0.0
 10
556.6595166778286
 20
81.98972582532853
 30
0.0
 10
556.7297842092265
 20
83.45193891168077
 30
0.0
 10
556.7232798750383
 20
84.87432773981145
 30
0.0
 10
556.6397890666661
 20
86.25147033566184
 30
0.0
 10
556.47937790162
 20
87.5780251504229
 30
0.0
 10
556.2424072763874
 20
88.84879072000516
 30
0.0
 10
555.9295905203535
 20
90.05858434307774
 30
0.0
 10
555.5419078920411
 20
91.20277500509532
 30
0.0
 10
555.0810711659606
 20
92.27544149173514
 30
0.0
 10
554.5479849211968
 20
93.27634756096062
 30
0.0
 10
553.9486172674357
 20
94.18528643718969
 30
0.0
 10
553.4151749157074
 20
94.87343879656137
 30
0.0
 10
553.0998764527807
 20
95.18967650725294
 30
0.0
 10
553.0012181954675
 20
95.288056998553
 30
0.0
  0
LINE
  5
579
330
428
100
AcDbEntity
  8
1-1MH
  6
Continuous
 62
     7
100
AcDbLine
 10
530.9815564905
 20
87.8522613199
 30
0.0
 11
530.9420944899
 21
87.8750447166
 31
0.0
  0
LINE
  5
57A
330
428
100
AcDbEntity
  8
1-1MH
  6
Continuous
 62
     7
100
AcDbLine
 10
526.7694244562
 20
81.0465325768
 30
0.0
 11
526.9815564905
 21
80.9240580896
 31
0.0
  0
LINE
  5
57B
330
428
100
AcDbEntity
  8
1-1MH
  6
Continuous
 62
     7
100
AcDbLine
 10
525.9409973314
 20
83.4235814028
 30
0.0
 11
525.9409973314
 21
82.87764103
 31
0.0
  0
LINE
  5
57C
330
428
100
AcDbEntity
  8
1-1MH
  6
Continuous
 62
     7
100
AcDbLine
 10
531.402703513
 20
66.1021714096
 30
0.0
 11
538.8921310988
 21
61.7781483768
 31
0.0
  0
LINE
  5
57D
330
428
100
AcDbEntity
  8
1-1MH
  6
Continuous
 62
     7
100
AcDbLine
 10
547.3921310988
 20
76.5005802411
 30
0.0
 11
539.9027035129
 21
80.8246032739
 31
0.0
  0
LINE
  5
57E
330
428
100
AcDbEntity
  8
1-1MH
  6
Continuous
 62
     7
100
AcDbLine
 10
541.0563446612
 20
62.2606899015
 30
0.0
 11
559.9360957189
 21
51.3604605462
 31
0.0
  0
LINE
  5
57F
330
428
100
AcDbEntity
  8
1-1MH
  6
Continuous
 62
     7
100
AcDbLine
 10
566.9360957189
 20
63.4848161991
 30
0.0
 11
548.0563446612
 21
74.3850455545
 31
0.0
  0
LINE
  5
580
330
428
100
AcDbEntity
  8
1-1MH
  6
Continuous
 62
     7
100
AcDbLine
 10
563.4360957189
 20
51.7071623062
 30
0.0
 11
564.0017811438
 21
52.0337609385
 31
0.0
  0
LINE
  5
581
330
428
100
AcDbEntity
  8
1-1MH
  6
Continuous
 62
     7
100
AcDbLine
 10
568.3858431872
 20
59.6271791412
 30
0.0
 11
568.3858431872
 21
60.2803764059
 31
0.0
  0
LINE
  5
582
330
428
100
AcDbEntity
  8
1-1MH
  6
Continuous
 62
     7
100
AcDbLine
 10
539.6421310988
 20
63.0771864825
 30
0.0
 11
539.7501674015
 21
63.014811694
 31
0.0
  0
LINE
  5
583
330
428
100
AcDbEntity
  8
1-1MH
  6
Continuous
 62
     7
100
AcDbLine
 10
546.7501674015
 20
75.139167347
 30
0.0
 11
546.6421310988
 21
75.2015421355
 31
0.0
  0
LINE
  5
584
330
428
100
AcDbEntity
  8
1-1MH
  6
Continuous
 62
     7
100
AcDbLine
 10
547.3298079129
 20
74.6581041892
 30
0.0
 11
546.7227744189
 21
74.7818181056
 31
0.0
  0
LINE
  5
585
330
428
100
AcDbEntity
  8
1-1MH
  6
Continuous
 62
     7
100
AcDbLine
 10
540.0459444313
 20
63.2172093335
 30
0.0
 11
540.4566005726
 21
62.753359865
 31
0.0
  0
LINE
  5
586
330
428
100
AcDbEntity
  8
1-1MH
  6
Continuous
 62
     7
100
AcDbLine
 10
547.1035124316
 20
74.7042233911
 30
0.0
 11
546.9663951675
 21
74.7833880804
 31
0.0
  0
LINE
  5
587
330
428
100
AcDbEntity
  8
1-1MH
  6
Continuous
 62
     7
100
AcDbLine
 10
540.1663951675
 20
63.005442589
 30
0.0
 11
540.3035124316
 21
62.9262778997
 31
0.0
  0
LINE
  5
588
330
428
100
AcDbEntity
  8
1-1MH
  6
Continuous
 62
     7
100
AcDbLine
 10
568.3858431872
 20
60.1046579312
 30
0.0
 11
568.6614280278
 21
60.2637669132
 31
0.0
  0
LINE
  5
589
330
428
100
AcDbEntity
  8
1-1MH
  6
Continuous
 62
     7
100
AcDbLine
 10
555.2863545567
 20
71.1826250063
 30
0.0
 11
554.4447271573
 21
70.6967112007
 31
0.0
  0
LINE
  5
58A
330
428
100
AcDbEntity
  8
1-1MH
  6
Continuous
 62
     7
100
AcDbLine
 10
499.05989939
 20
156.411589052
 30
0.0
 11
499.05989939
 21
149.4713681141
 31
0.0
  0
LINE
  5
58B
330
428
100
AcDbEntity
  8
1-1MH
  6
Continuous
 62
     7
100
AcDbLine
 10
516.05989939
 20
149.4713681141
 30
0.0
 11
516.05989939
 21
156.411589052
 31
0.0
  0
SPLINE
  5
58C
330
428
100
AcDbEntity
  8
1-1MH
  6
Continuous
 62
     7
100
AcDbSpline
210
0.0
220
0.0
230
1.0
 70
     8
 71
     3
 72
    28
 73
    24
 74
     0
 42
0.0000000005850115
 43
0.0000000001
 40
0.0
 40
0.0
 40
0.0
 40
0.0
 40
0.0347516974153589
 40
0.0789453928883973
 40
0.1233499511621427
 40
0.1685644657443642
 40
0.2150254362853914
 40
0.2629092876364436
 40
0.3120767356363144
 40
0.3621395545247974
 40
0.4126436569024601
 40
0.4631882396954786
 40
0.5136000895938857
 40
0.563844460684139
 40
0.6139475879890707
 40
0.6639653912543914
 40
0.7139672523011125
 40
0.7640204381353505
 40
0.8141862507146252
 40
0.8645438973895757
 40
0.9151681021437541
 40
0.9661165814163594
 40
1.0
 40
1.0
 40
1.0
 40
1.0
 10
516.0504669210247
 20
156.4536562059698
 30
0.0
 10
516.0464580720384
 20
156.6376518835075
 30
0.0
 10
516.0354430278057
 20
156.9912958547229
 30
0.0
 10
515.8941944465862
 20
157.5859960235491
 30
0.0
 10
515.6537891324828
 20
158.1863936378894
 30
0.0
 10
515.3135124927021
 20
158.7639892962536
 30
0.0
 10
514.8788096568632
 20
159.3099029257656
 30
0.0
 10
514.3497424020867
 20
159.8213619503104
 30
0.0
 10
513.7300814468172
 20
160.2915911798722
 30
0.0
 10
513.026998583842
 20
160.7134135349577
 30
0.0
 10
512.2515878852712
 20
161.079927927629
 30
0.0
 10
511.4167594000812
 20
161.3860921151471
 30
0.0
 10
510.5354262042374
 20
161.6288149518267
 30
0.0
 10
509.6194066149091
 20
161.8064422942351
 30
0.0
 10
508.6798727229503
 20
161.9180481218147
 30
0.0
 10
507.7277142182054
 20
161.9631225561251
 30
0.0
 10
506.7737862664617
 20
161.9414969640445
 30
0.0
 10
505.8287245113095
 20
161.8532296196932
 30
0.0
 10
504.9037437396263
 20
161.6989264005911
 30
0.0
 10
504.0069107560028
 20
161.478337857062
 30
0.0
 10
503.1567187209841
 20
161.1951131125254
 30
0.0
 10
502.4252235118228
 20
160.8789400078118
 30
0.0
 10
502.0404877521314
 20
160.668363252645
 30
0.0
 10
501.8601519216604
 20
160.5683651908895
 30
0.0
  0
ARC
  5
58D
330
428
100
AcDbEntity
  8
1-1MH
  6
Continuous
 62
     7
100
AcDbCircle
 10
503.964472565
 20
156.1437412924
 30
0.0
 40
4.899536918232895
100
AcDbArc
 50
115.4354385978
 51
176.5973322316
  0
SPLINE
  5
58E
330
428
100
AcDbEntity
  8
1-1MH
  6
Continuous
 62
     7
100
AcDbSpline
210
0.0
220
0.0
230
1.0
 70
     8
 71
     3
 72
    29
 73
    25
 74
     0
 42
0.0000000005256772
 43
0.0000000001
 40
0.0
 40
0.0
 40
0.0
 40
0.0
 40
0.0284490955294494
 40
0.0713095456991204
 40
0.1143712811631804
 40
0.1580684802893634
 40
0.2026514528123244
 40
0.248138623350663
 40
0.294350034678463
 40
0.3410136879204126
 40
0.38787839944326
 40
0.4347463516250545
 40
0.4815377213231019
 40
0.5282334254940995
 40
0.5748419669732984
 40
0.6213857861160398
 40
0.6678938686090432
 40
0.7143981847224943
 40
0.7609267106171012
 40
0.8075079051652713
 40
0.8541761081996302
 40
0.9009643359897164
 40
0.9479007447462383
 40
0.9734220863559516
 40
0.9734220863559516
 40
0.9734220863559516
 40
0.9734220863559516
 10
531.2353311553463
 20
153.6566168404188
 30
0.0
 10
531.2332778680477
 20
153.8116016018448
 30
0.0
 10
531.2262007185403
 20
154.14092882163
 30
0.0
 10
531.0948596466776
 20
154.7121781414672
 30
0.0
 10
530.8594394745323
 20
155.3193736997202
 30
0.0
 10
530.5199537728442
 20
155.9090399597591
 30
0.0
 10
530.0831205529161
 20
156.4709943589668
 30
0.0
 10
529.5497911458485
 20
157.0017237054768
 30
0.0
 10
528.9249510799647
 20
157.4943209766222
 30
0.0
 10
528.2158606317055
 20
157.9422913341622
 30
0.0
 10
527.4321846391882
 20
158.3396967599947
 30
0.0
 10
526.5845795942557
 20
158.6819884967491
 30
0.0
 10
525.6838933751774
 20
158.9658810848063
 30
0.0
 10
524.7406760558363
 20
159.1890746114775
 30
0.0
 10
523.7654333795309
 20
159.3498996621185
 30
0.0
 10
522.7687462915675
 20
159.4471912753346
 30
0.0
 10
521.7612830158971
 20
159.4802598874881
 30
0.0
 10
520.7537696903665
 20
159.4488734274209
 30
0.0
 10
519.7570023918879
 20
159.3533115341685
 30
0.0
 10
518.7813684083595
 20
159.1941769047354
 30
0.0
 10
517.8379693231475
 20
158.9729997430026
 30
0.0
 10
516.9338623692546
 20
158.6897073718924
 30
0.0
 10
516.2190526364498
 20
158.4035683926139
 30
0.0
 10
515.7969708838518
 20
158.2008345151507
 30
0.0
 10
515.6544577407068
 20
158.1282260555775
 30
0.0
  0
LINE
  5
58F
330
428
100
AcDbEntity
  8
1-1MH
  6
Continuous
 62
     7
100
AcDbLine
 10
531.248093121
 20
152.8891583002
 30
0.0
 11
531.248093121
 21
153.5831803939
 31
0.0
  0
ARC
  5
590
330
428
100
AcDbEntity
  8
1-1MH
  6
Continuous
 62
     7
100
AcDbCircle
 10
524.8905077556
 20
153.611540997
 30
0.0
 40
6.430399975198156
100
AcDbArc
 50
330.0935012691
 51
347.0159590978
  0
SPLINE
  5
591
330
428
100
AcDbEntity
  8
1-1MH
  6
Continuous
 62
     7
100
AcDbSpline
210
0.0
220
0.0
230
1.0
 70
     8
 71
     3
 72
    16
 73
    12
 74
     0
 42
0.0000000018320964
 43
0.0000000001
 40
0.0
 40
0.0
 40
0.0
 40
0.0
 40
0.0656101565210092
 40
0.1921790482802995
 40
0.3190666307452124
 40
0.4476252582441717
 40
0.5787114227724829
 40
0.7125073587147853
 40
0.8485715918072664
 40
0.9802431986499336
 40
1.0
 40
1.0
 40
1.0
 40
1.0
 10
466.3705351446744
 20
65.57112746704108
 30
0.0
 10
466.2648656397917
 20
65.5119991068445
 30
0.0
 10
466.0027000285611
 20
65.36303077456093
 30
0.0
 10
465.5873746544917
 20
64.99546061179382
 30
0.0
 10
465.1663798890676
 20
64.50336252474747
 30
0.0
 10
464.8124014121553
 20
63.92791737707047
 30
0.0
 10
464.5305101466764
 20
63.28233516743261
 30
0.0
 10
464.3231724926636
 20
62.56524715007971
 30
0.0
 10
464.1962715563371
 20
61.80684632899288
 30
0.0
 10
464.1604695163225
 20
61.20959285392799
 30
0.0
 10
464.1589913144448
 20
60.91482603850605
 30
0.0
 10
464.158839947954
 20
60.86999362805491
 30
0.0
  0
SPLINE
  5
592
330
428
100
AcDbEntity
  8
1-1MH
  6
Continuous
 62
     7
100
AcDbSpline
210
0.0
220
0.0
230
1.0
 70
     8
 71
     3
 72
    30
 73
    26
 74
     0
 42
0.0000000005215367
 43
0.0000000001
 40
0.0
 40
0.0
 40
0.0
 40
0.0
 40
0.0247533249788826
 40
0.0711436428994956
 40
0.1174600776623028
 40
0.163687756005068
 40
0.2098222177684534
 40
0.255879304742842
 40
0.3018847427646254
 40
0.3478688036970644
 40
0.3938638588305439
 40
0.4398930191072022
 40
0.4859895560460352
 40
0.5321871081303049
 40
0.5785167792228757
 40
0.6250021446758418
 40
0.6716490085506522
 40
0.7184266272787867
 40
0.7651999022360655
 40
0.8117254779045506
 40
0.8576798527055913
 40
0.9027436410033398
 40
0.9467618997593544
 40
0.9898515940073817
 40
1.0
 40
1.0
 40
1.0
 40
1.0
 10
464.158839947954
 20
60.86999362805491
 30
0.0
 10
464.1609847286871
 20
60.70114834828817
 30
0.0
 10
464.1680760423605
 20
60.2880114436478
 30
0.0
 10
464.2413982642513
 20
59.51519120647001
 30
0.0
 10
464.4030128508261
 20
58.60707362527379
 30
0.0
 10
464.6413265011407
 20
57.67931793246743
 30
0.0
 10
464.9515497812762
 20
56.75164144913062
 30
0.0
 10
465.3300046023489
 20
55.83125995687542
 30
0.0
 10
465.7721105775243
 20
54.92854889281261
 30
0.0
 10
466.2729651647892
 20
54.05281855649087
 30
0.0
 10
466.827188117422
 20
53.21345270359591
 30
0.0
 10
467.4290368742861
 20
52.41946419761195
 30
0.0
 10
468.0724757453687
 20
51.67949492423493
 30
0.0
 10
468.7513187685843
 20
51.00170028195934
 30
0.0
 10
469.4592627821911
 20
50.39380937861979
 30
0.0
 10
470.1899180964705
 20
49.86317159003212
 30
0.0
 10
470.9367349697911
 20
49.41685516172582
 30
0.0
 10
471.6925873081217
 20
49.06183740209266
 30
0.0
 10
472.4491125866349
 20
48.80490001360408
 30
0.0
 10
473.1966705128406
 20
48.65182951955098
 30
0.0
 10
473.9227207693082
 20
48.60686906665401
 30
0.0
 10
474.6185983054231
 20
48.66931748393884
 30
0.0
 10
475.2590927148034
 20
48.84079978899357
 30
0.0
 10
475.7275148533781
 20
49.03349646775142
 30
0.0
 10
475.9341667459328
 20
49.17641821072593
 30
0.0
 10
475.9800787311371
 20
49.20838076064066
 30
0.0
  0
LINE
  5
593
330
428
100
AcDbEntity
  8
1-1MH
  6
Continuous
 62
     7
100
AcDbLine
 10
467.0056436911
 20
65.9537231274
 30
0.0
 11
466.4046029271
 21
65.6067120805
 31
0.0
  0
LINE
  5
594
330
428
100
AcDbEntity
  8
1-1MH
  6
Continuous
 62
     7
100
AcDbLine
 10
475.9046029271
 20
49.1522294086
 30
0.0
 11
476.5056436911
 21
49.4992404555
 31
0.0
  0
ARC
  5
595
330
428
100
AcDbEntity
  8
1-1MH
  6
Continuous
 62
     7
100
AcDbCircle
 10
469.5723763122
 20
60.1451714473
 30
0.0
 40
6.372814227216869
100
AcDbArc
 50
104.5521166636
 51
107.3376309222
  0
ARC
  5
596
330
428
100
AcDbEntity
  8
1-1MH
  6
Continuous
 62
     7
100
AcDbCircle
 10
472.6430272907
 20
54.6670220752
 30
0.0
 40
6.49417040689768
100
AcDbArc
 50
313.259539633
 51
316.2833283254
  0
LINE
  5
597
330
428
100
AcDbEntity
  8
1-1MH
  6
Continuous
 62
     7
100
AcDbLine
 10
518.5513370484
 20
60.2110804807
 30
0.0
 11
518.7634690827
 21
60.0886059936
 31
0.0
  0
LINE
  5
598
330
428
100
AcDbEntity
  8
1-1MH
  6
Continuous
 62
     7
100
AcDbLine
 10
530.722478218
 20
55.3484893233
 30
0.0
 11
530.6094491263
 21
55.4137466998
 31
0.0
  0
LINE
  5
599
330
428
100
AcDbEntity
  8
1-1MH
  6
Continuous
 62
     7
100
AcDbLine
 10
526.5103461836
 20
48.5427605801
 30
0.0
 11
526.722478218
 21
48.420286093
 31
0.0
  0
LINE
  5
59A
330
428
100
AcDbEntity
  8
1-1MH
  6
Continuous
 62
     7
100
AcDbLine
 10
542.8601127605
 20
57.6102016852
 30
0.0
 11
542.8995747611
 21
57.5874182885
 31
0.0
  0
LINE
  5
59B
330
428
100
AcDbEntity
  8
1-1MH
  6
Continuous
 62
     7
100
AcDbLine
 10
552.9055301346
 20
85.2754328105
 30
0.0
 11
552.6043413605
 21
85.1015413907
 31
0.0
  0
LINE
  5
59C
330
428
100
AcDbEntity
  8
1-1MH
  6
Continuous
 62
     7
100
AcDbLine
 10
555.1176621689
 20
85.3510736148
 30
0.0
 11
554.9055301346
 21
85.473548102
 31
0.0
  0
LINE
  5
59D
330
428
100
AcDbEntity
  8
1-1MH
  6
Continuous
 62
     7
100
AcDbLine
 10
544.9465209993
 20
96.9437527111
 30
0.0
 11
544.4726133768
 21
96.6701420177
 31
0.0
  0
LINE
  5
59E
330
428
100
AcDbEntity
  8
1-1MH
  6
Continuous
 62
     7
100
AcDbLine
 10
542.1180938745
 20
92.3076616721
 30
0.0
 11
542.1180938745
 21
92.0447732255
 31
0.0
  0
LINE
  5
59F
330
428
100
AcDbEntity
  8
1-1MH
  6
Continuous
 62
     7
100
AcDbLine
 10
547.1586530336
 20
97.0193935154
 30
0.0
 11
546.9465209993
 21
97.1418680025
 31
0.0
  0
LINE
  5
5A0
330
428
100
AcDbEntity
  8
1-1MH
  6
Continuous
 62
     7
100
AcDbLine
 10
543.0456239419
 20
90.1564476616
 30
0.0
 11
543.1586530336
 21
90.0911902851
 31
0.0
  0
ENDBLK
  5
5A2
330
428
100
AcDbEntity
  8
0
100
AcDbBlockEnd
  0
ENDSEC
  0
SECTION
  2
ENTITIES
  0
INSERT
  5
41
330
1F
100
AcDbEntity
  8
Default
100
AcDbBlockReference
  2
SE
 10
0.0
 20
0.0
 30
0.0
  0
INSERT
  5
104
330
1F
100
AcDbEntity
  8
Default
100
AcDbBlockReference
  2
SE1
 10
0.0
 20
0.0
 30
0.0
  0
INSERT
  5
184
330
1F
100
AcDbEntity
  8
Default
100
AcDbBlockReference
  2
SE2
 10
0.0
 20
0.0
 30
0.0
  0
INSERT
  5
225
330
1F
100
AcDbEntity
  8
Default
100
AcDbBlockReference
  2
SE3
 10
0.0
 20
0.0
 30
0.0
  0
INSERT
  5
29E
330
1F
100
AcDbEntity
  8
Default
100
AcDbBlockReference
  2
SE4
 10
0.0
 20
0.0
 30
0.0
  0
INSERT
  5
429
330
1F
100
AcDbEntity
  8
Default
100
AcDbBlockReference
  2
SE5
 10
0.0
 20
0.0
 30
0.0
  0
ENDSEC
  0
SECTION
  2
OBJECTS
  0
DICTIONARY
  5
C
330
0
100
AcDbDictionary
281
     1
  3
ACAD_GROUP
350
D
  3
ACAD_LAYOUT
350
1A
  3
ACAD_MATERIAL
350
3B
  3
ACAD_MLEADERSTYLE
350
5A5
  3
ACAD_MLINESTYLE
350
17
  3
ACAD_PLOTSETTINGS
350
19
  3
ACAD_PLOTSTYLENAME
350
E
  3
ACAD_VISUALSTYLE
350
2A
  3
AcDbVariableDictionary
350
5A3
  0
DICTIONARY
  5
D
102
{ACAD_REACTORS
330
C
102
}
330
C
100
AcDbDictionary
281
     1
  0
DICTIONARY
  5
1A
102
{ACAD_REACTORS
330
C
102
}
330
C
100
AcDbDictionary
281
     1
  3
Layout1
350
1E
  3
Model
350
22
  0
DICTIONARY
  5
3B
102
{ACAD_REACTORS
330
C
102
}
330
C
100
AcDbDictionary
281
     1
  3
ByBlock
350
3D
  3
ByLayer
350
3C
  3
Global
350
3E
  0
DICTIONARY
  5
5A5
102
{ACAD_REACTORS
330
C
102
}
330
C
100
AcDbDictionary
281
     1
  0
DICTIONARY
  5
17
102
{ACAD_REACTORS
330
C
102
}
330
C
100
AcDbDictionary
281
     1
  3
Standard
350
18
  0
DICTIONARY
  5
19
102
{ACAD_REACTORS
330
C
102
}
330
C
100
AcDbDictionary
281
     1
  0
ACDBDICTIONARYWDFLT
  5
E
102
{ACAD_REACTORS
330
C
102
}
330
C
100
AcDbDictionary
281
     1
  3
Normal
350
F
100
AcDbDictionaryWithDefault
340
F
  0
DICTIONARY
  5
2A
102
{ACAD_REACTORS
330
C
102
}
330
C
100
AcDbDictionary
281
     1
  3
2dWireframe
350
2F
  3
3D Hidden
350
31
  3
3dWireframe
350
30
  3
Basic
350
32
  3
Brighten
350
36
  3
ColorChange
350
3A
  3
Conceptual
350
34
  3
Dim
350
35
  3
Facepattern
350
39
  3
Flat
350
2B
  3
FlatWithEdges
350
2C
  3
Gouraud
350
2D
  3
GouraudWithEdges
350
2E
  3
Linepattern
350
38
  3
Realistic
350
33
  3
Thicken
350
37
  0
DICTIONARY
  5
5A3
102
{ACAD_REACTORS
330
C
102
}
330
C
100
AcDbDictionary
281
     1
  3
DIMASSOC
350
5A8
  3
HIDETEXT
350
5A9
  3
PSOLHEIGHT
350
5A7
  3
PSOLWIDTH
350
5A6
  0
LAYOUT
  5
1E
102
{ACAD_REACTORS
330
1A
102
}
330
1A
100
AcDbPlotSettings
  1

  2
none_device
  4

  6

 40
0.0
 41
0.0
 42
0.0
 43
0.0
 44
0.0
 45
0.0
 46
0.0
 47
0.0
 48
0.0
 49
0.0
140
0.0
141
0.0
142
1.0
143
1.0
 70
   688
 72
     0
 73
     0
 74
     5
  7

 75
    16
147
1.0
148
0.0
149
0.0
100
AcDbLayout
  1
Layout1
 70
     1
 71
     1
 10
0.0
 20
0.0
 11
594.0
 21
420.0
 12
0.0
 22
0.0
 32
0.0
 14
0.0
 24
0.0
 34
0.0
 15
594.0
 25
420.0
 35
0.0
146
0.0
 13
0.0
 23
0.0
 33
0.0
 16
1.0
 26
0.0
 36
0.0
 17
0.0
 27
1.0
 37
0.0
 76
     0
330
1B
  0
LAYOUT
  5
22
102
{ACAD_REACTORS
330
1A
102
}
330
1A
100
AcDbPlotSettings
  1

  2
none_device
  4

  6

 40
0.0
 41
0.0
 42
0.0
 43
0.0
 44
0.0
 45
0.0
 46
0.0
 47
0.0
 48
0.0
 49
0.0
140
0.0
141
0.0
142
1.0
143
1.0
 70
  1712
 72
     0
 73
     0
 74
     0
  7

 75
     0
147
1.0
148
0.0
149
0.0
100
AcDbLayout
  1
Model
 70
     1
 71
     0
 10
0.0
 20
0.0
 11
594.0
 21
420.0
 12
0.0
 22
0.0
 32
0.0
 14
0.0
 24
0.0
 34
0.0
 15
594.0
 25
420.0
 35
0.0
146
0.0
 13
0.0
 23
0.0
 33
0.0
 16
1.0
 26
0.0
 36
0.0
 17
0.0
 27
1.0
 37
0.0
 76
     0
330
1F
331
29
  0
MATERIAL
  5
3D
102
{ACAD_REACTORS
330
3B
102
}
102
{ACAD_XDICTIONARY
360
5CC
102
}
330
3B
100
AcDbMaterial
  1
ByBlock
  0
MATERIAL
  5
3C
102
{ACAD_REACTORS
330
3B
102
}
102
{ACAD_XDICTIONARY
360
5CA
102
}
330
3B
100
AcDbMaterial
  1
ByLayer
  0
MATERIAL
  5
3E
102
{ACAD_REACTORS
330
3B
102
}
102
{ACAD_XDICTIONARY
360
5CE
102
}
330
3B
100
AcDbMaterial
  1
Global
  0
MLINESTYLE
  5
18
102
{ACAD_REACTORS
330
17
102
}
330
17
100
AcDbMlineStyle
  2
Standard
 70
     0
  3

 62
   256
 51
90.0
 52
90.0
 71
     2
 49
0.5
 62
   256
  6
BYLAYER
 49
-0.5
 62
   256
  6
BYLAYER
  0
ACDBPLACEHOLDER
  5
F
102
{ACAD_REACTORS
330
E
102
}
330
E
  0
VISUALSTYLE
  5
2F
102
{ACAD_REACTORS
330
2A
102
}
102
{ACAD_XDICTIONARY
360
5B2
102
}
330
2A
100
AcDbVisualStyle
  2
2dWireframe
 70
     4
 71
     0
 72
     2
 73
     0
 90
        0
 40
-0.6
 41
-30.0
 62
     5
 63
     7
 74
     1
 91
        4
 64
     7
 65
   257
 75
     1
175
     1
 42
1.0
 92
        0
 66
   257
 43
1.0
 76
     1
 77
     6
 78
     2
 67
     7
 79
     5
170
     0
171
     0
290
     0
174
     0
 93
        1
 44
0.0
173
     0
291
     0
 45
0.0
1001
ACAD
1000
AcDbSavedByObjectVersion
1070
     0
  0
VISUALSTYLE
  5
31
102
{ACAD_REACTORS
330
2A
102
}
102
{ACAD_XDICTIONARY
360
5B6
102
}
330
2A
100
AcDbVisualStyle
  2
3D Hidden
 70
     6
 71
     1
 72
     2
 73
     2
 90
        0
 40
-0.6
 41
-30.0
 62
     5
 63
     7
 74
     2
 91
        2
 64
     7
 65
   257
 75
     2
175
     1
 42
40.0
 92
        0
 66
   257
 43
1.0
 76
     1
 77
     6
 78
     2
 67
     7
 79
     3
170
     0
171
     0
290
     0
174
     0
 93
        1
 44
0.0
173
     0
291
     0
 45
0.0
1001
ACAD
1000
AcDbSavedByObjectVersion
1070
     0
  0
VISUALSTYLE
  5
30
102
{ACAD_REACTORS
330
2A
102
}
102
{ACAD_XDICTIONARY
360
5B4
102
}
330
2A
100
AcDbVisualStyle
  2
3dWireframe
 70
     5
 71
     0
 72
     2
 73
     0
 90
        0
 40
-0.6
 41
-30.0
 62
     5
 63
     7
 74
     1
 91
        4
 64
     7
 65
   257
 75
     1
175
     1
 42
1.0
 92
        0
 66
   257
 43
1.0
 76
     1
 77
     6
 78
     2
 67
     7
 79
     5
170
     0
171
     0
290
     0
174
     0
 93
        1
 44
0.0
173
     0
291
     0
 45
0.0
1001
ACAD
1000
AcDbSavedByObjectVersion
1070
     0
  0
VISUALSTYLE
  5
32
102
{ACAD_REACTORS
330
2A
102
}
102
{ACAD_XDICTIONARY
360
5B8
102
}
330
2A
100
AcDbVisualStyle
  2
Basic
 70
     7
 71
     1
 72
     0
 73
     1
 90
        0
 40
-0.6
 41
-30.0
 62
     5
 63
     7
 74
     0
 91
        4
 64
     7
 65
   257
 75
     1
175
     1
 42
1.0
 92
        8
 66
     7
 43
1.0
 76
     1
 77
     6
 78
     2
 67
     7
 79
     5
170
     0
171
     0
290
     0
174
     0
 93
        1
 44
0.0
173
     0
291
     1
 45
0.0
1001
ACAD
1000
AcDbSavedByObjectVersion
1070
     0
  0
VISUALSTYLE
  5
36
102
{ACAD_REACTORS
330
2A
102
}
102
{ACAD_XDICTIONARY
360
5C0
102
}
330
2A
100
AcDbVisualStyle
  2
Brighten
 70
    12
 71
     2
 72
     2
 73
     0
 90
        0
 40
-0.6
 41
-30.0
 62
     5
 63
     7
 74
     1
 91
        4
 64
     7
 65
   257
 75
     1
175
     1
 42
1.0
 92
        8
 66
     7
 43
1.0
 76
     1
 77
     6
 78
     2
 67
     7
 79
     5
170
     0
171
     0
290
     0
174
     0
 93
        1
 44
50.0
173
     0
291
     1
 45
0.0
1001
ACAD
1000
AcDbSavedByObjectVersion
1070
     0
  0
VISUALSTYLE
  5
3A
102
{ACAD_REACTORS
330
2A
102
}
102
{ACAD_XDICTIONARY
360
5C8
102
}
330
2A
100
AcDbVisualStyle
  2
ColorChange
 70
    16
 71
     2
 72
     2
 73
     3
 90
        0
 40
-0.6
 41
-30.0
 62
     5
 63
     8
 74
     1
 91
        4
 64
     7
 65
   257
 75
     1
175
     1
 42
1.0
 92
        8
 66
     8
 43
1.0
 76
     1
 77
     6
 78
     2
 67
     7
 79
     5
170
     0
171
     0
290
     0
174
     0
 93
        1
 44
0.0
173
     0
291
     1
 45
0.0
1001
ACAD
1000
AcDbSavedByObjectVersion
1070
     0
  0
VISUALSTYLE
  5
34
102
{ACAD_REACTORS
330
2A
102
}
102
{ACAD_XDICTIONARY
360
5BC
102
}
330
2A
100
AcDbVisualStyle
  2
Conceptual
 70
     9
 71
     3
 72
     2
 73
     0
 90
        0
 40
-0.6
 41
-30.0
 62
     5
 63
     7
 74
     2
 91
        2
 64
     7
 65
   257
 75
     1
175
     1
 42
40.0
 92
        8
 66
     7
 43
1.0
 76
     1
 77
     6
 78
     2
 67
     7
 79
     3
170
     0
171
     0
290
     0
174
     0
 93
        1
 44
0.0
173
     0
291
     0
 45
0.0
1001
ACAD
1000
AcDbSavedByObjectVersion
1070
     0
  0
VISUALSTYLE
  5
35
102
{ACAD_REACTORS
330
2A
102
}
102
{ACAD_XDICTIONARY
360
5BE
102
}
330
2A
100
AcDbVisualStyle
  2
Dim
 70
    11
 71
     2
 72
     2
 73
     0
 90
        0
 40
-0.6
 41
-30.0
 62
     5
 63
     7
 74
     1
 91
        4
 64
     7
 65
   257
 75
     1
175
     1
 42
1.0
 92
        8
 66
     7
 43
1.0
 76
     1
 77
     6
 78
     2
 67
     7
 79
     5
170
     0
171
     0
290
     0
174
     0
 93
        1
 44
-50.0
173
     0
291
     1
 45
0.0
1001
ACAD
1000
AcDbSavedByObjectVersion
1070
     0
  0
VISUALSTYLE
  5
39
102
{ACAD_REACTORS
330
2A
102
}
102
{ACAD_XDICTIONARY
360
5C6
102
}
330
2A
100
AcDbVisualStyle
  2
Facepattern
 70
    15
 71
     2
 72
     2
 73
     0
 90
        0
 40
-0.6
 41
-30.0
 62
     5
 63
     7
 74
     1
 91
        4
 64
     7
 65
   257
 75
     1
175
     1
 42
1.0
 92
        8
 66
     7
 43
1.0
 76
     1
 77
     6
 78
     2
 67
     7
 79
     5
170
     0
171
     0
290
     0
174
     0
 93
        1
 44
0.0
173
     0
291
     1
 45
0.0
1001
ACAD
1000
AcDbSavedByObjectVersion
1070
     0
  0
VISUALSTYLE
  5
2B
102
{ACAD_REACTORS
330
2A
102
}
102
{ACAD_XDICTIONARY
360
5AA
102
}
330
2A
100
AcDbVisualStyle
  2
Flat
 70
     0
 71
     2
 72
     1
 73
     1
 90
        2
 40
-0.6
 41
30.0
 62
     5
 63
     7
 74
     0
 91
        4
 64
     7
 65
   257
 75
     1
175
     1
 42
1.0
 92
        8
 66
     7
 43
1.0
 76
     1
 77
     6
 78
     2
 67
     7
 79
     5
170
     0
171
     0
290
     0
174
     0
 93
       13
 44
0.0
173
     0
291
     1
 45
0.0
1001
ACAD
1000
AcDbSavedByObjectVersion
1070
     0
  0
VISUALSTYLE
  5
2C
102
{ACAD_REACTORS
330
2A
102
}
102
{ACAD_XDICTIONARY
360
5AC
102
}
330
2A
100
AcDbVisualStyle
  2
FlatWithEdges
 70
     1
 71
     2
 72
     1
 73
     1
 90
        2
 40
-0.6
 41
30.0
 62
     5
 63
     7
 74
     1
 91
        4
 64
     7
 65
   257
 75
     1
175
     1
 42
1.0
 92
        0
 66
   257
 43
1.0
 76
     1
 77
     6
 78
     2
 67
     7
 79
     5
170
     0
171
     0
290
     0
174
     0
 93
       13
 44
0.0
173
     0
291
     1
 45
0.0
1001
ACAD
1000
AcDbSavedByObjectVersion
1070
     0
  0
VISUALSTYLE
  5
2D
102
{ACAD_REACTORS
330
2A
102
}
102
{ACAD_XDICTIONARY
360
5AE
102
}
330
2A
100
AcDbVisualStyle
  2
Gouraud
 70
     2
 71
     2
 72
     2
 73
     1
 90
        2
 40
-0.6
 41
30.0
 62
     5
 63
     7
 74
     0
 91
        4
 64
     7
 65
   257
 75
     1
175
     1
 42
1.0
 92
        0
 66
     7
 43
1.0
 76
     1
 77
     6
 78
     2
 67
     7
 79
     5
170
     0
171
     0
290
     0
174
     0
 93
       13
 44
0.0
173
     0
291
     1
 45
0.0
1001
ACAD
1000
AcDbSavedByObjectVersion
1070
     0
  0
VISUALSTYLE
  5
2E
102
{ACAD_REACTORS
330
2A
102
}
102
{ACAD_XDICTIONARY
360
5B0
102
}
330
2A
100
AcDbVisualStyle
  2
GouraudWithEdges
 70
     3
 71
     2
 72
     2
 73
     1
 90
        2
 40
-0.6
 41
30.0
 62
     5
 63
     7
 74
     1
 91
        4
 64
     7
 65
   257
 75
     1
175
     1
 42
1.0
 92
        0
 66
   257
 43
1.0
 76
     1
 77
     6
 78
     2
 67
     7
 79
     5
170
     0
171
     0
290
     0
174
     0
 93
       13
 44
0.0
173
     0
291
     1
 45
0.0
1001
ACAD
1000
AcDbSavedByObjectVersion
1070
     0
  0
VISUALSTYLE
  5
38
102
{ACAD_REACTORS
330
2A
102
}
102
{ACAD_XDICTIONARY
360
5C4
102
}
330
2A
100
AcDbVisualStyle
  2
Linepattern
 70
    14
 71
     2
 72
     2
 73
     0
 90
        0
 40
-0.6
 41
-30.0
 62
     5
 63
     7
 74
     1
 91
        4
 64
     7
 65
   257
 75
     7
175
     7
 42
1.0
 92
        8
 66
     7
 43
1.0
 76
     1
 77
     6
 78
     2
 67
     7
 79
     5
170
     0
171
     0
290
     0
174
     0
 93
        1
 44
0.0
173
     0
291
     1
 45
0.0
1001
ACAD
1000
AcDbSavedByObjectVersion
1070
     0
  0
VISUALSTYLE
  5
33
102
{ACAD_REACTORS
330
2A
102
}
102
{ACAD_XDICTIONARY
360
5BA
102
}
330
2A
100
AcDbVisualStyle
  2
Realistic
 70
     8
 71
     2
 72
     2
 73
     0
 90
        0
 40
-0.6
 41
-30.0
 62
     5
 63
     7
 74
     1
 91
        0
 64
     7
 65
   257
 75
     1
175
     1
 42
1.0
 92
        8
 66
     8
 43
1.0
 76
     1
 77
     6
 78
     2
 67
     7
 79
     5
170
     0
171
     0
290
     0
174
     0
 93
       13
 44
0.0
173
     0
291
     0
 45
0.0
1001
ACAD
1000
AcDbSavedByObjectVersion
1070
     0
  0
VISUALSTYLE
  5
37
102
{ACAD_REACTORS
330
2A
102
}
102
{ACAD_XDICTIONARY
360
5C2
102
}
330
2A
100
AcDbVisualStyle
  2
Thicken
 70
    13
 71
     2
 72
     2
 73
     0
 90
        0
 40
-0.6
 41
-30.0
 62
     5
 63
     7
 74
     1
 91
        4
 64
     7
 65
   257
 75
     1
175
     1
 42
1.0
 92
       12
 66
     7
 43
1.0
 76
     1
 77
     6
 78
     2
 67
     7
 79
     5
170
     0
171
     0
290
     0
174
     0
 93
        1
 44
0.0
173
     0
291
     1
 45
0.0
1001
ACAD
1000
AcDbSavedByObjectVersion
1070
     0
  0
DICTIONARYVAR
  5
5A8
102
{ACAD_REACTORS
330
5A3
102
}
330
5A3
100
DictionaryVariables
280
     0
  1
2
  0
DICTIONARYVAR
  5
5A9
102
{ACAD_REACTORS
330
5A3
102
}
330
5A3
100
DictionaryVariables
280
     0
  1
1
  0
DICTIONARYVAR
  5
5A7
102
{ACAD_REACTORS
330
5A3
102
}
330
5A3
100
DictionaryVariables
280
     0
  1
80.000000
  0
DICTIONARYVAR
  5
5A6
102
{ACAD_REACTORS
330
5A3
102
}
330
5A3
100
DictionaryVariables
280
     0
  1
5.000000
  0
DICTIONARY
  5
5CC
330
3D
100
AcDbDictionary
280
     1
281
     1
  3
ACAD_XREC_ROUNDTRIP
360
5CD
  0
DICTIONARY
  5
5CA
330
3C
100
AcDbDictionary
280
     1
281
     1
  3
ACAD_XREC_ROUNDTRIP
360
5CB
  0
DICTIONARY
  5
5CE
330
3E
100
AcDbDictionary
280
     1
281
     1
  3
ACAD_XREC_ROUNDTRIP
360
5CF
  0
DICTIONARY
  5
5B2
330
2F
100
AcDbDictionary
280
     1
281
     1
  3
ACAD_XREC_ROUNDTRIP
360
5B3
  0
DICTIONARY
  5
5B6
330
31
100
AcDbDictionary
280
     1
281
     1
  3
ACAD_XREC_ROUNDTRIP
360
5B7
  0
DICTIONARY
  5
5B4
330
30
100
AcDbDictionary
280
     1
281
     1
  3
ACAD_XREC_ROUNDTRIP
360
5B5
  0
DICTIONARY
  5
5B8
330
32
100
AcDbDictionary
280
     1
281
     1
  3
ACAD_XREC_ROUNDTRIP
360
5B9
  0
DICTIONARY
  5
5C0
330
36
100
AcDbDictionary
280
     1
281
     1
  3
ACAD_XREC_ROUNDTRIP
360
5C1
  0
DICTIONARY
  5
5C8
330
3A
100
AcDbDictionary
280
     1
281
     1
  3
ACAD_XREC_ROUNDTRIP
360
5C9
  0
DICTIONARY
  5
5BC
330
34
100
AcDbDictionary
280
     1
281
     1
  3
ACAD_XREC_ROUNDTRIP
360
5BD
  0
DICTIONARY
  5
5BE
330
35
100
AcDbDictionary
280
     1
281
     1
  3
ACAD_XREC_ROUNDTRIP
360
5BF
  0
DICTIONARY
  5
5C6
330
39
100
AcDbDictionary
280
     1
281
     1
  3
ACAD_XREC_ROUNDTRIP
360
5C7
  0
DICTIONARY
  5
5AA
330
2B
100
AcDbDictionary
280
     1
281
     1
  3
ACAD_XREC_ROUNDTRIP
360
5AB
  0
DICTIONARY
  5
5AC
330
2C
100
AcDbDictionary
280
     1
281
     1
  3
ACAD_XREC_ROUNDTRIP
360
5AD
  0
DICTIONARY
  5
5AE
330
2D
100
AcDbDictionary
280
     1
281
     1
  3
ACAD_XREC_ROUNDTRIP
360
5AF
  0
DICTIONARY
  5
5B0
330
2E
100
AcDbDictionary
280
     1
281
     1
  3
ACAD_XREC_ROUNDTRIP
360
5B1
  0
DICTIONARY
  5
5C4
330
38
100
AcDbDictionary
280
     1
281
     1
  3
ACAD_XREC_ROUNDTRIP
360
5C5
  0
DICTIONARY
  5
5BA
330
33
100
AcDbDictionary
280
     1
281
     1
  3
ACAD_XREC_ROUNDTRIP
360
5BB
  0
DICTIONARY
  5
5C2
330
37
100
AcDbDictionary
280
     1
281
     1
  3
ACAD_XREC_ROUNDTRIP
360
5C3
  0
XRECORD
  5
5CD
102
{ACAD_REACTORS
330
5CC
102
}
330
5CC
100
AcDbXrecord
280
     1
102
MATERIAL
148
0.0
149
0.0
149
0.0
 93
        0
 94
      127
282
     0
 72
     1
 77
     1
171
     1
175
     1
179
     1
273
     0
  0
XRECORD
  5
5CB
102
{ACAD_REACTORS
330
5CA
102
}
330
5CA
100
AcDbXrecord
280
     1
102
MATERIAL
148
0.0
149
0.0
149
0.0
 93
        0
 94
      127
282
     0
 72
     1
 77
     1
171
     1
175
     1
179
     1
273
     0
  0
XRECORD
  5
5CF
102
{ACAD_REACTORS
330
5CE
102
}
330
5CE
100
AcDbXrecord
280
     1
102
MATERIAL
148
0.0
149
0.0
149
0.0
 93
        0
 94
      127
282
     0
 72
     1
 77
     1
171
     1
175
     1
179
     1
273
     0
  0
XRECORD
  5
5B3
102
{ACAD_REACTORS
330
5B2
102
}
330
5B2
100
AcDbXrecord
280
     1
102
RTVSPropertyOp0
 70
     1
102
RTVSPropertyOp1
 70
     1
102
RTVSPropertyOp2
 70
     1
102
RTVSPropertyOp3
 70
     1
102
RTVSPropertyOp4
 70
     1
102
RTVSPropertyOp5
 70
     1
102
RTVSPropertyOp6
 70
     1
102
RTVSPropertyOp7
 70
     1
102
RTVSPropertyOp8
 70
     1
102
RTVSPropertyOp9
 70
     1
102
RTVSPropertyOp10
 70
     1
102
RTVSPropertyOp11
 70
     1
102
RTVSPropertyOp12
 70
     1
102
RTVSPropertyOp13
 70
     1
102
RTVSPropertyOp14
 70
     1
102
RTVSPropertyOp15
 70
     1
102
RTVSPropertyOp16
 70
     1
102
RTVSPropertyOp17
 70
     1
102
RTVSPropertyOp18
 70
     1
102
RTVSPropertyOp19
 70
     1
102
RTVSPropertyOp20
 70
     1
102
RTVSPropertyOp21
 70
     1
102
RTVSPropertyOp22
 70
     1
102
RTVSPropertyOp23
 70
     1
102
RTVSPropertyOp24
 70
     1
102
RTVSPropertyOp25
 70
     1
102
RTVSPropertyOp26
 70
     1
102
RTVSPropertyOp27
 70
     1
  0
XRECORD
  5
5B7
102
{ACAD_REACTORS
330
5B6
102
}
330
5B6
100
AcDbXrecord
280
     1
102
RTVSPropertyOp0
 70
     1
102
RTVSPropertyOp1
 70
     1
102
RTVSPropertyOp2
 70
     1
102
RTVSPropertyOp3
 70
     1
102
RTVSPropertyOp4
 70
     1
102
RTVSPropertyOp5
 70
     1
102
RTVSPropertyOp6
 70
     1
102
RTVSPropertyOp7
 70
     1
102
RTVSPropertyOp8
 70
     1
102
RTVSPropertyOp9
 70
     1
102
RTVSPropertyOp10
 70
     1
102
RTVSPropertyOp11
 70
     1
102
RTVSPropertyOp12
 70
     1
102
RTVSPropertyOp13
 70
     1
102
RTVSPropertyOp14
 70
     1
102
RTVSPropertyOp15
 70
     1
102
RTVSPropertyOp16
 70
     1
102
RTVSPropertyOp17
 70
     1
102
RTVSPropertyOp18
 70
     1
102
RTVSPropertyOp19
 70
     1
102
RTVSPropertyOp20
 70
     1
102
RTVSPropertyOp21
 70
     1
102
RTVSPropertyOp22
 70
     1
102
RTVSPropertyOp23
 70
     1
102
RTVSPropertyOp24
 70
     1
102
RTVSPropertyOp25
 70
     1
102
RTVSPropertyOp26
 70
     1
102
RTVSPropertyOp27
 70
     1
  0
XRECORD
  5
5B5
102
{ACAD_REACTORS
330
5B4
102
}
330
5B4
100
AcDbXrecord
280
     1
102
RTVSPropertyOp0
 70
     1
102
RTVSPropertyOp1
 70
     1
102
RTVSPropertyOp2
 70
     1
102
RTVSPropertyOp3
 70
     1
102
RTVSPropertyOp4
 70
     1
102
RTVSPropertyOp5
 70
     1
102
RTVSPropertyOp6
 70
     1
102
RTVSPropertyOp7
 70
     1
102
RTVSPropertyOp8
 70
     1
102
RTVSPropertyOp9
 70
     1
102
RTVSPropertyOp10
 70
     1
102
RTVSPropertyOp11
 70
     1
102
RTVSPropertyOp12
 70
     1
102
RTVSPropertyOp13
 70
     1
102
RTVSPropertyOp14
 70
     1
102
RTVSPropertyOp15
 70
     1
102
RTVSPropertyOp16
 70
     1
102
RTVSPropertyOp17
 70
     1
102
RTVSPropertyOp18
 70
     1
102
RTVSPropertyOp19
 70
     1
102
RTVSPropertyOp20
 70
     1
102
RTVSPropertyOp21
 70
     1
102
RTVSPropertyOp22
 70
     1
102
RTVSPropertyOp23
 70
     1
102
RTVSPropertyOp24
 70
     1
102
RTVSPropertyOp25
 70
     1
102
RTVSPropertyOp26
 70
     1
102
RTVSPropertyOp27
 70
     1
  0
XRECORD
  5
5B9
102
{ACAD_REACTORS
330
5B8
102
}
330
5B8
100
AcDbXrecord
280
     1
102
RTVSPropertyOp0
 70
     1
102
RTVSPropertyOp1
 70
     1
102
RTVSPropertyOp2
 70
     1
102
RTVSPropertyOp3
 70
     1
102
RTVSPropertyOp4
 70
     1
102
RTVSPropertyOp5
 70
     1
102
RTVSPropertyOp6
 70
     1
102
RTVSPropertyOp7
 70
     1
102
RTVSPropertyOp8
 70
     1
102
RTVSPropertyOp9
 70
     1
102
RTVSPropertyOp10
 70
     1
102
RTVSPropertyOp11
 70
     1
102
RTVSPropertyOp12
 70
     1
102
RTVSPropertyOp13
 70
     1
102
RTVSPropertyOp14
 70
     1
102
RTVSPropertyOp15
 70
     1
102
RTVSPropertyOp16
 70
     1
102
RTVSPropertyOp17
 70
     1
102
RTVSPropertyOp18
 70
     1
102
RTVSPropertyOp19
 70
     1
102
RTVSPropertyOp20
 70
     1
102
RTVSPropertyOp21
 70
     1
102
RTVSPropertyOp22
 70
     1
102
RTVSPropertyOp23
 70
     1
102
RTVSPropertyOp24
 70
     1
102
RTVSPropertyOp25
 70
     1
102
RTVSPropertyOp26
 70
     1
102
RTVSPropertyOp27
 70
     1
  0
XRECORD
  5
5C1
102
{ACAD_REACTORS
330
5C0
102
}
330
5C0
100
AcDbXrecord
280
     1
102
RTVSPropertyOp0
 70
     1
102
RTVSPropertyOp1
 70
     1
102
RTVSPropertyOp2
 70
     1
102
RTVSPropertyOp3
 70
     1
102
RTVSPropertyOp4
 70
     1
102
RTVSPropertyOp5
 70
     1
102
RTVSPropertyOp6
 70
     1
102
RTVSPropertyOp7
 70
     1
102
RTVSPropertyOp8
 70
     1
102
RTVSPropertyOp9
 70
     1
102
RTVSPropertyOp10
 70
     1
102
RTVSPropertyOp11
 70
     1
102
RTVSPropertyOp12
 70
     1
102
RTVSPropertyOp13
 70
     1
102
RTVSPropertyOp14
 70
     1
102
RTVSPropertyOp15
 70
     1
102
RTVSPropertyOp16
 70
     1
102
RTVSPropertyOp17
 70
     1
102
RTVSPropertyOp18
 70
     1
102
RTVSPropertyOp19
 70
     1
102
RTVSPropertyOp20
 70
     1
102
RTVSPropertyOp21
 70
     1
102
RTVSPropertyOp22
 70
     1
102
RTVSPropertyOp23
 70
     1
102
RTVSPropertyOp24
 70
     1
102
RTVSPropertyOp25
 70
     1
102
RTVSPropertyOp26
 70
     1
102
RTVSPropertyOp27
 70
     1
  0
XRECORD
  5
5C9
102
{ACAD_REACTORS
330
5C8
102
}
330
5C8
100
AcDbXrecord
280
     1
102
RTVSPropertyOp0
 70
     1
102
RTVSPropertyOp1
 70
     1
102
RTVSPropertyOp2
 70
     1
102
RTVSPropertyOp3
 70
     1
102
RTVSPropertyOp4
 70
     1
102
RTVSPropertyOp5
 70
     1
102
RTVSPropertyOp6
 70
     1
102
RTVSPropertyOp7
 70
     1
102
RTVSPropertyOp8
 70
     1
102
RTVSPropertyOp9
 70
     1
102
RTVSPropertyOp10
 70
     1
102
RTVSPropertyOp11
 70
     1
102
RTVSPropertyOp12
 70
     1
102
RTVSPropertyOp13
 70
     1
102
RTVSPropertyOp14
 70
     1
102
RTVSPropertyOp15
 70
     1
102
RTVSPropertyOp16
 70
     1
102
RTVSPropertyOp17
 70
     1
102
RTVSPropertyOp18
 70
     1
102
RTVSPropertyOp19
 70
     1
102
RTVSPropertyOp20
 70
     1
102
RTVSPropertyOp21
 70
     1
102
RTVSPropertyOp22
 70
     1
102
RTVSPropertyOp23
 70
     1
102
RTVSPropertyOp24
 70
     1
102
RTVSPropertyOp25
 70
     1
102
RTVSPropertyOp26
 70
     1
102
RTVSPropertyOp27
 70
     1
  0
XRECORD
  5
5BD
102
{ACAD_REACTORS
330
5BC
102
}
330
5BC
100
AcDbXrecord
280
     1
102
RTVSPropertyOp0
 70
     1
102
RTVSPropertyOp1
 70
     1
102
RTVSPropertyOp2
 70
     1
102
RTVSPropertyOp3
 70
     1
102
RTVSPropertyOp4
 70
     1
102
RTVSPropertyOp5
 70
     1
102
RTVSPropertyOp6
 70
     1
102
RTVSPropertyOp7
 70
     1
102
RTVSPropertyOp8
 70
     1
102
RTVSPropertyOp9
 70
     1
102
RTVSPropertyOp10
 70
     1
102
RTVSPropertyOp11
 70
     1
102
RTVSPropertyOp12
 70
     1
102
RTVSPropertyOp13
 70
     1
102
RTVSPropertyOp14
 70
     1
102
RTVSPropertyOp15
 70
     1
102
RTVSPropertyOp16
 70
     1
102
RTVSPropertyOp17
 70
     1
102
RTVSPropertyOp18
 70
     1
102
RTVSPropertyOp19
 70
     1
102
RTVSPropertyOp20
 70
     1
102
RTVSPropertyOp21
 70
     1
102
RTVSPropertyOp22
 70
     1
102
RTVSPropertyOp23
 70
     1
102
RTVSPropertyOp24
 70
     1
102
RTVSPropertyOp25
 70
     1
102
RTVSPropertyOp26
 70
     1
102
RTVSPropertyOp27
 70
     1
  0
XRECORD
  5
5BF
102
{ACAD_REACTORS
330
5BE
102
}
330
5BE
100
AcDbXrecord
280
     1
102
RTVSPropertyOp0
 70
     1
102
RTVSPropertyOp1
 70
     1
102
RTVSPropertyOp2
 70
     1
102
RTVSPropertyOp3
 70
     1
102
RTVSPropertyOp4
 70
     1
102
RTVSPropertyOp5
 70
     1
102
RTVSPropertyOp6
 70
     1
102
RTVSPropertyOp7
 70
     1
102
RTVSPropertyOp8
 70
     1
102
RTVSPropertyOp9
 70
     1
102
RTVSPropertyOp10
 70
     1
102
RTVSPropertyOp11
 70
     1
102
RTVSPropertyOp12
 70
     1
102
RTVSPropertyOp13
 70
     1
102
RTVSPropertyOp14
 70
     1
102
RTVSPropertyOp15
 70
     1
102
RTVSPropertyOp16
 70
     1
102
RTVSPropertyOp17
 70
     1
102
RTVSPropertyOp18
 70
     1
102
RTVSPropertyOp19
 70
     1
102
RTVSPropertyOp20
 70
     1
102
RTVSPropertyOp21
 70
     1
102
RTVSPropertyOp22
 70
     1
102
RTVSPropertyOp23
 70
     1
102
RTVSPropertyOp24
 70
     1
102
RTVSPropertyOp25
 70
     1
102
RTVSPropertyOp26
 70
     1
102
RTVSPropertyOp27
 70
     1
  0
XRECORD
  5
5C7
102
{ACAD_REACTORS
330
5C6
102
}
330
5C6
100
AcDbXrecord
280
     1
102
RTVSPropertyOp0
 70
     1
102
RTVSPropertyOp1
 70
     1
102
RTVSPropertyOp2
 70
     1
102
RTVSPropertyOp3
 70
     1
102
RTVSPropertyOp4
 70
     1
102
RTVSPropertyOp5
 70
     1
102
RTVSPropertyOp6
 70
     1
102
RTVSPropertyOp7
 70
     1
102
RTVSPropertyOp8
 70
     1
102
RTVSPropertyOp9
 70
     1
102
RTVSPropertyOp10
 70
     1
102
RTVSPropertyOp11
 70
     1
102
RTVSPropertyOp12
 70
     1
102
RTVSPropertyOp13
 70
     1
102
RTVSPropertyOp14
 70
     1
102
RTVSPropertyOp15
 70
     1
102
RTVSPropertyOp16
 70
     1
102
RTVSPropertyOp17
 70
     1
102
RTVSPropertyOp18
 70
     1
102
RTVSPropertyOp19
 70
     1
102
RTVSPropertyOp20
 70
     1
102
RTVSPropertyOp21
 70
     1
102
RTVSPropertyOp22
 70
     1
102
RTVSPropertyOp23
 70
     1
102
RTVSPropertyOp24
 70
     1
102
RTVSPropertyOp25
 70
     1
102
RTVSPropertyOp26
 70
     1
102
RTVSPropertyOp27
 70
     1
  0
XRECORD
  5
5AB
102
{ACAD_REACTORS
330
5AA
102
}
330
5AA
100
AcDbXrecord
280
     1
102
RTVSPropertyOp0
 70
     1
102
RTVSPropertyOp1
 70
     1
102
RTVSPropertyOp2
 70
     1
102
RTVSPropertyOp3
 70
     1
102
RTVSPropertyOp4
 70
     1
102
RTVSPropertyOp5
 70
     1
102
RTVSPropertyOp6
 70
     1
102
RTVSPropertyOp7
 70
     1
102
RTVSPropertyOp8
 70
     1
102
RTVSPropertyOp9
 70
     1
102
RTVSPropertyOp10
 70
     1
102
RTVSPropertyOp11
 70
     1
102
RTVSPropertyOp12
 70
     1
102
RTVSPropertyOp13
 70
     1
102
RTVSPropertyOp14
 70
     1
102
RTVSPropertyOp15
 70
     1
102
RTVSPropertyOp16
 70
     1
102
RTVSPropertyOp17
 70
     1
102
RTVSPropertyOp18
 70
     1
102
RTVSPropertyOp19
 70
     1
102
RTVSPropertyOp20
 70
     1
102
RTVSPropertyOp21
 70
     1
102
RTVSPropertyOp22
 70
     1
102
RTVSPropertyOp23
 70
     1
102
RTVSPropertyOp24
 70
     1
102
RTVSPropertyOp25
 70
     1
102
RTVSPropertyOp26
 70
     1
102
RTVSPropertyOp27
 70
     1
  0
XRECORD
  5
5AD
102
{ACAD_REACTORS
330
5AC
102
}
330
5AC
100
AcDbXrecord
280
     1
102
RTVSPropertyOp0
 70
     1
102
RTVSPropertyOp1
 70
     1
102
RTVSPropertyOp2
 70
     1
102
RTVSPropertyOp3
 70
     1
102
RTVSPropertyOp4
 70
     1
102
RTVSPropertyOp5
 70
     1
102
RTVSPropertyOp6
 70
     1
102
RTVSPropertyOp7
 70
     1
102
RTVSPropertyOp8
 70
     1
102
RTVSPropertyOp9
 70
     1
102
RTVSPropertyOp10
 70
     1
102
RTVSPropertyOp11
 70
     1
102
RTVSPropertyOp12
 70
     1
102
RTVSPropertyOp13
 70
     1
102
RTVSPropertyOp14
 70
     1
102
RTVSPropertyOp15
 70
     1
102
RTVSPropertyOp16
 70
     1
102
RTVSPropertyOp17
 70
     1
102
RTVSPropertyOp18
 70
     1
102
RTVSPropertyOp19
 70
     1
102
RTVSPropertyOp20
 70
     1
102
RTVSPropertyOp21
 70
     1
102
RTVSPropertyOp22
 70
     1
102
RTVSPropertyOp23
 70
     1
102
RTVSPropertyOp24
 70
     1
102
RTVSPropertyOp25
 70
     1
102
RTVSPropertyOp26
 70
     1
102
RTVSPropertyOp27
 70
     1
  0
XRECORD
  5
5AF
102
{ACAD_REACTORS
330
5AE
102
}
330
5AE
100
AcDbXrecord
280
     1
102
RTVSPropertyOp0
 70
     1
102
RTVSPropertyOp1
 70
     1
102
RTVSPropertyOp2
 70
     1
102
RTVSPropertyOp3
 70
     1
102
RTVSPropertyOp4
 70
     1
102
RTVSPropertyOp5
 70
     1
102
RTVSPropertyOp6
 70
     1
102
RTVSPropertyOp7
 70
     1
102
RTVSPropertyOp8
 70
     1
102
RTVSPropertyOp9
 70
     1
102
RTVSPropertyOp10
 70
     1
102
RTVSPropertyOp11
 70
     1
102
RTVSPropertyOp12
 70
     1
102
RTVSPropertyOp13
 70
     1
102
RTVSPropertyOp14
 70
     1
102
RTVSPropertyOp15
 70
     1
102
RTVSPropertyOp16
 70
     1
102
RTVSPropertyOp17
 70
     1
102
RTVSPropertyOp18
 70
     1
102
RTVSPropertyOp19
 70
     1
102
RTVSPropertyOp20
 70
     1
102
RTVSPropertyOp21
 70
     1
102
RTVSPropertyOp22
 70
     1
102
RTVSPropertyOp23
 70
     1
102
RTVSPropertyOp24
 70
     1
102
RTVSPropertyOp25
 70
     1
102
RTVSPropertyOp26
 70
     1
102
RTVSPropertyOp27
 70
     1
  0
XRECORD
  5
5B1
102
{ACAD_REACTORS
330
5B0
102
}
330
5B0
100
AcDbXrecord
280
     1
102
RTVSPropertyOp0
 70
     1
102
RTVSPropertyOp1
 70
     1
102
RTVSPropertyOp2
 70
     1
102
RTVSPropertyOp3
 70
     1
102
RTVSPropertyOp4
 70
     1
102
RTVSPropertyOp5
 70
     1
102
RTVSPropertyOp6
 70
     1
102
RTVSPropertyOp7
 70
     1
102
RTVSPropertyOp8
 70
     1
102
RTVSPropertyOp9
 70
     1
102
RTVSPropertyOp10
 70
     1
102
RTVSPropertyOp11
 70
     1
102
RTVSPropertyOp12
 70
     1
102
RTVSPropertyOp13
 70
     1
102
RTVSPropertyOp14
 70
     1
102
RTVSPropertyOp15
 70
     1
102
RTVSPropertyOp16
 70
     1
102
RTVSPropertyOp17
 70
     1
102
RTVSPropertyOp18
 70
     1
102
RTVSPropertyOp19
 70
     1
102
RTVSPropertyOp20
 70
     1
102
RTVSPropertyOp21
 70
     1
102
RTVSPropertyOp22
 70
     1
102
RTVSPropertyOp23
 70
     1
102
RTVSPropertyOp24
 70
     1
102
RTVSPropertyOp25
 70
     1
102
RTVSPropertyOp26
 70
     1
102
RTVSPropertyOp27
 70
     1
  0
XRECORD
  5
5C5
102
{ACAD_REACTORS
330
5C4
102
}
330
5C4
100
AcDbXrecord
280
     1
102
RTVSPropertyOp0
 70
     1
102
RTVSPropertyOp1
 70
     1
102
RTVSPropertyOp2
 70
     1
102
RTVSPropertyOp3
 70
     1
102
RTVSPropertyOp4
 70
     1
102
RTVSPropertyOp5
 70
     1
102
RTVSPropertyOp6
 70
     1
102
RTVSPropertyOp7
 70
     1
102
RTVSPropertyOp8
 70
     1
102
RTVSPropertyOp9
 70
     1
102
RTVSPropertyOp10
 70
     1
102
RTVSPropertyOp11
 70
     1
102
RTVSPropertyOp12
 70
     1
102
RTVSPropertyOp13
 70
     1
102
RTVSPropertyOp14
 70
     1
102
RTVSPropertyOp15
 70
     1
102
RTVSPropertyOp16
 70
     1
102
RTVSPropertyOp17
 70
     1
102
RTVSPropertyOp18
 70
     1
102
RTVSPropertyOp19
 70
     1
102
RTVSPropertyOp20
 70
     1
102
RTVSPropertyOp21
 70
     1
102
RTVSPropertyOp22
 70
     1
102
RTVSPropertyOp23
 70
     1
102
RTVSPropertyOp24
 70
     1
102
RTVSPropertyOp25
 70
     1
102
RTVSPropertyOp26
 70
     1
102
RTVSPropertyOp27
 70
     1
  0
XRECORD
  5
5BB
102
{ACAD_REACTORS
330
5BA
102
}
330
5BA
100
AcDbXrecord
280
     1
102
RTVSPropertyOp0
 70
     1
102
RTVSPropertyOp1
 70
     1
102
RTVSPropertyOp2
 70
     1
102
RTVSPropertyOp3
 70
     1
102
RTVSPropertyOp4
 70
     1
102
RTVSPropertyOp5
 70
     1
102
RTVSPropertyOp6
 70
     1
102
RTVSPropertyOp7
 70
     1
102
RTVSPropertyOp8
 70
     1
102
RTVSPropertyOp9
 70
     1
102
RTVSPropertyOp10
 70
     1
102
RTVSPropertyOp11
 70
     1
102
RTVSPropertyOp12
 70
     1
102
RTVSPropertyOp13
 70
     1
102
RTVSPropertyOp14
 70
     1
102
RTVSPropertyOp15
 70
     1
102
RTVSPropertyOp16
 70
     1
102
RTVSPropertyOp17
 70
     1
102
RTVSPropertyOp18
 70
     1
102
RTVSPropertyOp19
 70
     1
102
RTVSPropertyOp20
 70
     1
102
RTVSPropertyOp21
 70
     1
102
RTVSPropertyOp22
 70
     1
102
RTVSPropertyOp23
 70
     1
102
RTVSPropertyOp24
 70
     1
102
RTVSPropertyOp25
 70
     1
102
RTVSPropertyOp26
 70
     1
102
RTVSPropertyOp27
 70
     1
  0
XRECORD
  5
5C3
102
{ACAD_REACTORS
330
5C2
102
}
330
5C2
100
AcDbXrecord
280
     1
102
RTVSPropertyOp0
 70
     1
102
RTVSPropertyOp1
 70
     1
102
RTVSPropertyOp2
 70
     1
102
RTVSPropertyOp3
 70
     1
102
RTVSPropertyOp4
 70
     1
102
RTVSPropertyOp5
 70
     1
102
RTVSPropertyOp6
 70
     1
102
RTVSPropertyOp7
 70
     1
102
RTVSPropertyOp8
 70
     1
102
RTVSPropertyOp9
 70
     1
102
RTVSPropertyOp10
 70
     1
102
RTVSPropertyOp11
 70
     1
102
RTVSPropertyOp12
 70
     1
102
RTVSPropertyOp13
 70
     1
102
RTVSPropertyOp14
 70
     1
102
RTVSPropertyOp15
 70
     1
102
RTVSPropertyOp16
 70
     1
102
RTVSPropertyOp17
 70
     1
102
RTVSPropertyOp18
 70
     1
102
RTVSPropertyOp19
 70
     1
102
RTVSPropertyOp20
 70
     1
102
RTVSPropertyOp21
 70
     1
102
RTVSPropertyOp22
 70
     1
102
RTVSPropertyOp23
 70
     1
102
RTVSPropertyOp24
 70
     1
102
RTVSPropertyOp25
 70
     1
102
RTVSPropertyOp26
 70
     1
102
RTVSPropertyOp27
 70
     1
  0
ENDSEC
  0
EOF
