  0
SECTION
  2
HEADER
  9
$ACADVER
  1
AC1015
  9
$ACADMAINTVER
 70
     6
  9
$DWGCODEPAGE
  3
ANSI_1252
  9
$INSBASE
 10
0.0
 20
0.0
 30
0.0
  9
$EXTMIN
 10
0.0
 20
0.0
 30
0.0
  9
$EXTMAX
 10
841.0
 20
594.0
 30
0.0
  9
$LIMMIN
 10
0.0
 20
0.0
  9
$LIMMAX
 10
841.0
 20
594.0
  9
$ORTHOMODE
 70
     0
  9
$REGENMODE
 70
     1
  9
$FILLMODE
 70
     1
  9
$QTEXTMODE
 70
     0
  9
$MIRRTEXT
 70
     1
  9
$LTSCALE
 40
1.0
  9
$ATTMODE
 70
     1
  9
$TEXTSIZE
 40
2.5
  9
$TRACEWID
 40
1.0
  9
$TEXTSTYLE
  7
Standard
  9
$CLAYER
  8
0
  9
$CELTYPE
  6
ByLayer
  9
$CECOLOR
 62
   256
  9
$CELTSCALE
 40
1.0
  9
$DISPSILH
 70
     0
  9
$DIMSCALE
 40
1.0
  9
$DIMASZ
 40
2.5
  9
$DIMEXO
 40
0.625
  9
$DIMDLI
 40
3.75
  9
$DIMRND
 40
0.0
  9
$DIMDLE
 40
0.0
  9
$DIMEXE
 40
1.25
  9
$DIMTP
 40
0.0
  9
$DIMTM
 40
0.0
  9
$DIMTXT
 40
2.5
  9
$DIMCEN
 40
2.5
  9
$DIMTSZ
 40
0.0
  9
$DIMTOL
 70
     0
  9
$DIMLIM
 70
     0
  9
$DIMTIH
 70
     0
  9
$DIMTOH
 70
     0
  9
$DIMSE1
 70
     0
  9
$DIMSE2
 70
     0
  9
$DIMTAD
 70
     1
  9
$DIMZIN
 70
     8
  9
$DIMBLK
  1

  9
$DIMASO
 70
     1
  9
$DIMSHO
 70
     1
  9
$DIMPOST
  1

  9
$DIMAPOST
  1

  9
$DIMALT
 70
     0
  9
$DIMALTD
 70
     3
  9
$DIMALTF
 40
0.0393700787
  9
$DIMLFAC
 40
1.0
  9
$DIMTOFL
 70
     1
  9
$DIMTVP
 40
0.0
  9
$DIMTIX
 70
     0
  9
$DIMSOXD
 70
     0
  9
$DIMSAH
 70
     0
  9
$DIMBLK1
  1

  9
$DIMBLK2
  1

  9
$DIMSTYLE
  2
ISO-25
  9
$DIMCLRD
 70
     0
  9
$DIMCLRE
 70
     0
  9
$DIMCLRT
 70
     0
  9
$DIMTFAC
 40
1.0
  9
$DIMGAP
 40
0.625
  9
$DIMJUST
 70
     0
  9
$DIMSD1
 70
     0
  9
$DIMSD2
 70
     0
  9
$DIMTOLJ
 70
     0
  9
$DIMTZIN
 70
     8
  9
$DIMALTZ
 70
     0
  9
$DIMALTTZ
 70
     0
  9
$DIMUPT
 70
     0
  9
$DIMDEC
 70
     2
  9
$DIMTDEC
 70
     2
  9
$DIMALTU
 70
     2
  9
$DIMALTTD
 70
     3
  9
$DIMTXSTY
  7
Standard
  9
$DIMAUNIT
 70
     0
  9
$DIMADEC
 70
     0
  9
$DIMALTRND
 40
0.0
  9
$DIMAZIN
 70
     0
  9
$DIMDSEP
 70
    44
  9
$DIMATFIT
 70
     3
  9
$DIMFRAC
 70
     0
  9
$DIMLDRBLK
  1

  9
$DIMLUNIT
 70
     2
  9
$DIMLWD
 70
    -2
  9
$DIMLWE
 70
    -2
  9
$DIMTMOVE
 70
     0
  9
$LUNITS
 70
     2
  9
$LUPREC
 70
     4
  9
$SKETCHINC
 40
1.0
  9
$FILLETRAD
 40
10.0
  9
$AUNITS
 70
     0
  9
$AUPREC
 70
     0
  9
$MENU
  1
.
  9
$ELEVATION
 40
0.0
  9
$PELEVATION
 40
0.0
  9
$THICKNESS
 40
0.0
  9
$LIMCHECK
 70
     0
  9
$CHAMFERA
 40
10.0
  9
$CHAMFERB
 40
10.0
  9
$CHAMFERC
 40
20.0
  9
$CHAMFERD
 40
0.0
  9
$SKPOLY
 70
     0
  9
$TDCREATE
 40
2455572.63990213
  9
$TDUCREATE
 40
2455572.598235463
  9
$TDUPDATE
 40
2455572.639902141
  9
$TDUUPDATE
 40
2455572.598235474
  9
$TDINDWG
 40
0.0000000116
  9
$TDUSRTIMER
 40
0.0000000116
  9
$USRTIMER
 70
     1
  9
$ANGBASE
 50
0.0
  9
$ANGDIR
 70
     0
  9
$PDMODE
 70
     0
  9
$PDSIZE
 40
0.0
  9
$PLINEWID
 40
0.0
  9
$SPLFRAME
 70
     0
  9
$SPLINETYPE
 70
     6
  9
$SPLINESEGS
 70
     8
  9
$HANDSEED
  5
59D
  9
$SURFTAB1
 70
     6
  9
$SURFTAB2
 70
     6
  9
$SURFTYPE
 70
     6
  9
$SURFU
 70
     6
  9
$SURFV
 70
     6
  9
$UCSBASE
  2

  9
$UCSNAME
  2

  9
$UCSORG
 10
0.0
 20
0.0
 30
0.0
  9
$UCSXDIR
 10
1.0
 20
0.0
 30
0.0
  9
$UCSYDIR
 10
0.0
 20
1.0
 30
0.0
  9
$UCSORTHOREF
  2

  9
$UCSORTHOVIEW
 70
     0
  9
$UCSORGTOP
 10
0.0
 20
0.0
 30
0.0
  9
$UCSORGBOTTOM
 10
0.0
 20
0.0
 30
0.0
  9
$UCSORGLEFT
 10
0.0
 20
0.0
 30
0.0
  9
$UCSORGRIGHT
 10
0.0
 20
0.0
 30
0.0
  9
$UCSORGFRONT
 10
0.0
 20
0.0
 30
0.0
  9
$UCSORGBACK
 10
0.0
 20
0.0
 30
0.0
  9
$PUCSBASE
  2

  9
$PUCSNAME
  2

  9
$PUCSORG
 10
0.0
 20
0.0
 30
0.0
  9
$PUCSXDIR
 10
1.0
 20
0.0
 30
0.0
  9
$PUCSYDIR
 10
0.0
 20
1.0
 30
0.0
  9
$PUCSORTHOREF
  2

  9
$PUCSORTHOVIEW
 70
     0
  9
$PUCSORGTOP
 10
0.0
 20
0.0
 30
0.0
  9
$PUCSORGBOTTOM
 10
0.0
 20
0.0
 30
0.0
  9
$PUCSORGLEFT
 10
0.0
 20
0.0
 30
0.0
  9
$PUCSORGRIGHT
 10
0.0
 20
0.0
 30
0.0
  9
$PUCSORGFRONT
 10
0.0
 20
0.0
 30
0.0
  9
$PUCSORGBACK
 10
0.0
 20
0.0
 30
0.0
  9
$USERI1
 70
     0
  9
$USERI2
 70
     0
  9
$USERI3
 70
     0
  9
$USERI4
 70
     0
  9
$USERI5
 70
     0
  9
$USERR1
 40
0.0
  9
$USERR2
 40
0.0
  9
$USERR3
 40
0.0
  9
$USERR4
 40
0.0
  9
$USERR5
 40
0.0
  9
$WORLDVIEW
 70
     1
  9
$SHADEDGE
 70
     3
  9
$SHADEDIF
 70
    70
  9
$TILEMODE
 70
     1
  9
$MAXACTVP
 70
    64
  9
$PINSBASE
 10
0.0
 20
0.0
 30
0.0
  9
$PLIMCHECK
 70
     0
  9
$PEXTMIN
 10
0.0
 20
0.0
 30
0.0
  9
$PEXTMAX
 10
841.0
 20
594.0
 30
0.0
  9
$PLIMMIN
 10
0.0
 20
0.0
  9
$PLIMMAX
 10
841.0
 20
594.0
  9
$UNITMODE
 70
     0
  9
$VISRETAIN
 70
     1
  9
$PLINEGEN
 70
     0
  9
$PSLTSCALE
 70
     1
  9
$TREEDEPTH
 70
  3020
  9
$CMLSTYLE
  2
Standard
  9
$CMLJUST
 70
     0
  9
$CMLSCALE
 40
20.0
  9
$PROXYGRAPHICS
 70
     1
  9
$MEASUREMENT
 70
     1
  9
$CELWEIGHT
370
    -1
  9
$ENDCAPS
280
     0
  9
$JOINSTYLE
280
     0
  9
$LWDISPLAY
290
     0
  9
$INSUNITS
 70
     4
  9
$HYPERLINKBASE
  1

  9
$STYLESHEET
  1

  9
$XEDIT
290
     1
  9
$CEPSNTYPE
380
     0
  9
$PSTYLEMODE
290
     1
  9
$FINGERPRINTGUID
  2
{293B0BC9-EC47-47F3-948D-6EA96ED2239F}
  9
$VERSIONGUID
  2
{FAEB1C32-E019-11D5-929B-00C0DF256EC4}
  9
$EXTNAMES
290
     1
  9
$PSVPSCALE
 40
0.0
  9
$OLESTARTUP
290
     0
  0
ENDSEC
  0
SECTION
  2
CLASSES
  0
CLASS
  1
ACDBDICTIONARYWDFLT
  2
AcDbDictionaryWithDefault
  3
ObjectDBX Classes
 90
        0
280
     0
281
     0
  0
CLASS
  1
VISUALSTYLE
  2
AcDbVisualStyle
  3
ObjectDBX Classes
 90
     4095
280
     0
281
     0
  0
CLASS
  1
MATERIAL
  2
AcDbMaterial
  3
ObjectDBX Classes
 90
     1153
280
     0
281
     0
  0
CLASS
  1
DICTIONARYVAR
  2
AcDbDictionaryVar
  3
ObjectDBX Classes
 90
        0
280
     0
281
     0
  0
CLASS
  1
ACDBPLACEHOLDER
  2
AcDbPlaceHolder
  3
ObjectDBX Classes
 90
        0
280
     0
281
     0
  0
CLASS
  1
LAYOUT
  2
AcDbLayout
  3
ObjectDBX Classes
 90
        0
280
     0
281
     0
  0
ENDSEC
  0
SECTION
  2
TABLES
  0
TABLE
  2
VPORT
  5
8
330
0
100
AcDbSymbolTable
 70
     1
  0
VPORT
  5
29
330
8
100
AcDbSymbolTableRecord
100
AcDbViewportTableRecord
  2
*Active
 70
     0
 10
0.0
 20
0.0
 11
1.0
 21
1.0
 12
344.1869158879
 22
148.5
 13
0.0
 23
0.0
 14
10.0
 24
10.0
 15
10.0
 25
10.0
 16
0.0
 26
0.0
 36
1.0
 17
0.0
 27
0.0
 37
0.0
 40
297.0
 41
1.9729729729
 42
50.0
 43
0.0
 44
0.0
 50
0.0
 51
0.0
 71
     0
 72
   100
 73
     1
 74
     3
 75
     0
 76
     0
 77
     0
 78
     0
281
     0
 65
     1
110
0.0
120
0.0
130
0.0
111
1.0
121
0.0
131
0.0
112
0.0
122
1.0
132
0.0
 79
     0
146
0.0
  0
ENDTAB
  0
TABLE
  2
LTYPE
  5
5
330
0
100
AcDbSymbolTable
 70
     1
  0
LTYPE
  5
14
330
5
100
AcDbSymbolTableRecord
100
AcDbLinetypeTableRecord
  2
ByBlock
 70
     0
  3

 72
    65
 73
     0
 40
0.0
  0
LTYPE
  5
15
330
5
100
AcDbSymbolTableRecord
100
AcDbLinetypeTableRecord
  2
ByLayer
 70
     0
  3

 72
    65
 73
     0
 40
0.0
  0
LTYPE
  5
16
330
5
100
AcDbSymbolTableRecord
100
AcDbLinetypeTableRecord
  2
Continuous
 70
     0
  3
Solid line
 72
    65
 73
     0
 40
0.0
  0
ENDTAB
  0
TABLE
  2
LAYER
  5
2
330
0
100
AcDbSymbolTable
 70
     3
  0
LAYER
  5
10
330
2
100
AcDbSymbolTableRecord
100
AcDbLayerTableRecord
  2
0
 70
     0
 62
     7
  6
Continuous
370
    -3
390
F
  0
LAYER
  5
3F
330
2
100
AcDbSymbolTableRecord
100
AcDbLayerTableRecord
  2
Default
 70
     0
 62
     7
  6
Continuous
370
    -3
390
F
  0
LAYER
  5
42
330
2
100
AcDbSymbolTableRecord
100
AcDbLayerTableRecord
  2
3-1MA
 70
     0
 62
     7
  6
Continuous
370
    -3
390
F
  0
ENDTAB
  0
TABLE
  2
STYLE
  5
3
330
0
100
AcDbSymbolTable
 70
     1
  0
STYLE
  5
11
330
3
100
AcDbSymbolTableRecord
100
AcDbTextStyleTableRecord
  2
Standard
 70
     0
 40
0.0
 41
1.0
 50
0.0
 71
     0
 42
2.5
  3
txt
  4

  0
ENDTAB
  0
TABLE
  2
VIEW
  5
6
330
0
100
AcDbSymbolTable
 70
     0
  0
ENDTAB
  0
TABLE
  2
UCS
  5
7
330
0
100
AcDbSymbolTable
 70
     0
  0
ENDTAB
  0
TABLE
  2
APPID
  5
9
330
0
100
AcDbSymbolTable
 70
     1
  0
APPID
  5
12
330
9
100
AcDbSymbolTableRecord
100
AcDbRegAppTableRecord
  2
ACAD
 70
     0
  0
ENDTAB
  0
TABLE
  2
DIMSTYLE
  5
A
330
0
100
AcDbSymbolTable
 70
     1
100
AcDbDimStyleTable
  0
DIMSTYLE
105
27
330
A
100
AcDbSymbolTableRecord
100
AcDbDimStyleTableRecord
  2
ISO-25
 70
     0
 41
2.5
 42
0.625
 43
3.75
 44
1.25
 73
     0
 74
     0
 77
     1
 78
     8
140
2.5
141
2.5
143
0.0393700787
147
0.625
171
     3
172
     1
178
     0
271
     2
272
     2
274
     3
278
    44
283
     0
284
     8
340
11
  0
ENDTAB
  0
TABLE
  2
BLOCK_RECORD
  5
1
330
0
100
AcDbSymbolTable
 70
     7
  0
BLOCK_RECORD
  5
1F
330
1
100
AcDbSymbolTableRecord
100
AcDbBlockTableRecord
  2
*Model_Space
340
22
  0
BLOCK_RECORD
  5
1B
330
1
100
AcDbSymbolTableRecord
100
AcDbBlockTableRecord
  2
*Paper_Space
340
1E
  0
BLOCK_RECORD
  5
40
330
1
100
AcDbSymbolTableRecord
100
AcDbBlockTableRecord
  2
SE
340
0
102
{BLKREFS
331
41
102
}
  0
BLOCK_RECORD
  5
100
330
1
100
AcDbSymbolTableRecord
100
AcDbBlockTableRecord
  2
SE1
340
0
102
{BLKREFS
331
101
102
}
  0
BLOCK_RECORD
  5
15D
330
1
100
AcDbSymbolTableRecord
100
AcDbBlockTableRecord
  2
SE2
340
0
102
{BLKREFS
331
15E
102
}
  0
BLOCK_RECORD
  5
1CB
330
1
100
AcDbSymbolTableRecord
100
AcDbBlockTableRecord
  2
SE3
340
0
102
{BLKREFS
331
1CC
102
}
  0
BLOCK_RECORD
  5
231
330
1
100
AcDbSymbolTableRecord
100
AcDbBlockTableRecord
  2
SE4
340
0
102
{BLKREFS
331
232
102
}
  0
BLOCK_RECORD
  5
341
330
1
100
AcDbSymbolTableRecord
100
AcDbBlockTableRecord
  2
SE5
340
0
102
{BLKREFS
331
342
102
}
  0
ENDTAB
  0
ENDSEC
  0
SECTION
  2
BLOCKS
  0
BLOCK
  5
20
330
1F
100
AcDbEntity
  8
0
100
AcDbBlockBegin
  2
*Model_Space
 70
     0
 10
0.0
 20
0.0
 30
0.0
  3
*Model_Space
  1

  0
ENDBLK
  5
21
330
1F
100
AcDbEntity
  8
0
100
AcDbBlockEnd
  0
BLOCK
  5
1C
330
1B
100
AcDbEntity
 67
     1
  8
0
100
AcDbBlockBegin
  2
*Paper_Space
 70
     0
 10
0.0
 20
0.0
 30
0.0
  3
*Paper_Space
  1

  0
ENDBLK
  5
1D
330
1B
100
AcDbEntity
 67
     1
  8
0
100
AcDbBlockEnd
  0
BLOCK
  5
FE
330
40
100
AcDbEntity
  8
0
100
AcDbBlockBegin
  2
SE
 70
     0
 10
0.0
 20
0.0
 30
0.0
  3
SE
  1

  0
LINE
  5
43
330
40
100
AcDbEntity
  8
3-1MA
  6
Continuous
 62
     7
100
AcDbLine
 10
422.0375363383
 20
246.4333028158
 30
0.0
 11
422.0375363383
 21
247.9333028158
 31
0.0
  0
LINE
  5
44
330
40
100
AcDbEntity
  8
3-1MA
  6
Continuous
 62
     7
100
AcDbLine
 10
459.2047206083
 20
246.4333028158
 30
0.0
 11
422.0375363383
 21
246.4333028158
 31
0.0
  0
ARC
  5
45
330
40
100
AcDbEntity
  8
3-1MA
  6
Continuous
 62
     7
100
AcDbCircle
 10
486.0375363383
 20
277.4333028158
 30
0.0
 40
41.00000000000518
100
AcDbArc
 50
226.0142210381
 51
229.1213648535
  0
LINE
  5
46
330
40
100
AcDbEntity
  8
3-1MA
  6
Continuous
 62
     7
100
AcDbLine
 10
422.0375363383
 20
247.9333028158
 30
0.0
 11
457.5638642885
 21
247.9333028158
 31
0.0
  0
LINE
  5
47
330
40
100
AcDbEntity
  8
3-1MA
  6
Continuous
 62
     7
100
AcDbLine
 10
421.0375363383
 20
378.4333028158
 30
0.0
 11
421.0375363383
 21
346.4333028158
 31
0.0
  0
LINE
  5
48
330
40
100
AcDbEntity
  8
3-1MA
  6
Continuous
 62
     7
100
AcDbLine
 10
421.0375363383
 20
346.4333028158
 30
0.0
 11
430.817991881
 21
346.4333028158
 31
0.0
  0
ARC
  5
49
330
40
100
AcDbEntity
  8
3-1MA
  6
Continuous
 62
     7
100
AcDbCircle
 10
440.0375363383
 20
340.4333028158
 30
0.0
 40
11.00000000000001
100
AcDbArc
 50
33.0557311509
 51
146.9442688491
  0
LINE
  5
4A
330
40
100
AcDbEntity
  8
3-1MA
  6
Continuous
 62
     7
100
AcDbLine
 10
449.2570807956
 20
346.4333028158
 30
0.0
 11
535.0375363383
 21
346.4333028158
 31
0.0
  0
LINE
  5
4B
330
40
100
AcDbEntity
  8
3-1MA
  6
Continuous
 62
     7
100
AcDbLine
 10
535.0375363383
 20
346.4333028158
 30
0.0
 11
535.0375363383
 21
378.4333028158
 31
0.0
  0
LINE
  5
4C
330
40
100
AcDbEntity
  8
3-1MA
  6
Continuous
 62
     7
100
AcDbLine
 10
535.0375363383
 20
378.4333028158
 30
0.0
 11
421.0375363383
 21
378.4333028158
 31
0.0
  0
CIRCLE
  5
4D
330
40
100
AcDbEntity
  8
3-1MA
  6
Continuous
 62
     7
100
AcDbCircle
 10
526.0375363383
 20
372.4333028158
 30
0.0
 40
3.05
  0
CIRCLE
  5
4E
330
40
100
AcDbEntity
  8
3-1MA
  6
Continuous
 62
     7
100
AcDbCircle
 10
431.0375363383
 20
372.4333028158
 30
0.0
 40
3.05
  0
LINE
  5
4F
330
40
100
AcDbEntity
  8
3-1MA
  6
Continuous
 62
     7
100
AcDbLine
 10
422.0375363383
 20
215.4333028158
 30
0.0
 11
422.0375363383
 21
246.4333028158
 31
0.0
  0
LINE
  5
50
330
40
100
AcDbEntity
  8
3-1MA
  6
Continuous
 62
     7
100
AcDbLine
 10
422.0375363383
 20
215.4333028158
 30
0.0
 11
535.0375363383
 21
215.4333028158
 31
0.0
  0
LINE
  5
51
330
40
100
AcDbEntity
  8
3-1MA
  6
Continuous
 62
     7
100
AcDbLine
 10
535.0375363383
 20
215.4333028158
 30
0.0
 11
535.0375363383
 21
246.4333028158
 31
0.0
  0
LINE
  5
52
330
40
100
AcDbEntity
  8
3-1MA
  6
Continuous
 62
     7
100
AcDbLine
 10
535.0375363383
 20
246.4333028158
 30
0.0
 11
512.8703520683
 21
246.4333028158
 31
0.0
  0
ARC
  5
53
330
40
100
AcDbEntity
  8
3-1MA
  6
Continuous
 62
     7
100
AcDbCircle
 10
486.0375363383
 20
277.4333028158
 30
0.0
 40
40.99999999999998
100
AcDbArc
 50
229.1213648535
 51
310.8786351465
  0
CIRCLE
  5
54
330
40
100
AcDbEntity
  8
3-1MA
  6
Continuous
 62
     7
100
AcDbCircle
 10
526.0375363383
 20
220.4333028158
 30
0.0
 40
3.05
  0
CIRCLE
  5
55
330
40
100
AcDbEntity
  8
3-1MA
  6
Continuous
 62
     7
100
AcDbCircle
 10
431.0375363383
 20
220.4333028158
 30
0.0
 40
3.05
  0
LINE
  5
56
330
40
100
AcDbEntity
  8
3-1MA
  6
Continuous
 62
     7
100
AcDbLine
 10
421.0375363383
 20
381.4333028158
 30
0.0
 11
535.0375363383
 21
381.4333028158
 31
0.0
  0
LINE
  5
57
330
40
100
AcDbEntity
  8
3-1MA
  6
Continuous
 62
     7
100
AcDbLine
 10
535.0375363383
 20
346.4333028158
 30
0.0
 11
535.0375363383
 21
344.9333028158
 31
0.0
  0
ARC
  5
58
330
40
100
AcDbEntity
  8
3-1MA
  6
Continuous
 62
     7
100
AcDbCircle
 10
440.0375363383
 20
340.4333028158
 30
0.0
 40
11.00000000000038
100
AcDbArc
 50
24.147739917
 51
33.0557311509
  0
LINE
  5
59
330
40
100
AcDbEntity
  8
3-1MA
  6
Continuous
 62
     7
100
AcDbLine
 10
535.0375363383
 20
344.9333028158
 30
0.0
 11
450.0749662882
 21
344.9333028158
 31
0.0
  0
ARC
  5
5A
330
40
100
AcDbEntity
  8
3-1MA
  6
Continuous
 62
     7
100
AcDbCircle
 10
440.0375363383
 20
340.4333028158
 30
0.0
 40
10.99999999999998
100
AcDbArc
 50
155.852260083
 51
24.147739917
  0
LINE
  5
5B
330
40
100
AcDbEntity
  8
3-1MA
  6
Continuous
 62
     7
100
AcDbLine
 10
430.0001063883
 20
344.9333028158
 30
0.0
 11
421.0375363383
 21
344.9333028158
 31
0.0
  0
LINE
  5
5C
330
40
100
AcDbEntity
  8
3-1MA
  6
Continuous
 62
     7
100
AcDbLine
 10
421.0375363383
 20
300.283583016
 30
0.0
 11
421.0375363383
 21
344.9333028158
 31
0.0
  0
SPLINE
  5
5D
330
40
100
AcDbEntity
  8
3-1MA
  6
Continuous
 62
     7
100
AcDbSpline
210
0.0
220
0.0
230
1.0
 70
    12
 71
     3
 72
    17
 73
    13
 74
     0
 42
0.0000000051074395
 43
0.0000000001
 40
0.0
 40
0.0
 40
0.0
 40
0.0
 40
0.2501617007719872
 40
0.2501617007719872
 40
0.2501617007719872
 40
0.5002207878532875
 40
0.5002207878532875
 40
0.5002207878532875
 40
0.7501695165567679
 40
0.7501695165567679
 40
0.7501695165567679
 40
1.0
 40
1.0
 40
1.0
 40
1.0
 10
421.037536338274
 20
300.2835830160354
 30
0.0
 41
1.0
 10
421.1201109665426
 20
300.1427012847404
 30
0.0
 41
1.0
 10
421.2028822704784
 20
300.0019707632304
 30
0.0
 41
1.0
 10
421.2858449801789
 20
299.8613920754584
 30
0.0
 41
1.0
 10
421.3688076896611
 20
299.7208133880574
 30
0.0
 41
1.0
 10
421.4519618049993
 20
299.5803865342415
 30
0.0
 41
1.0
 10
421.5353020925643
 20
299.4401121728384
 30
0.0
 41
1.0
 10
421.6186423799811
 20
299.2998378116854
 30
0.0
 41
1.0
 10
421.7021688397695
 20
299.1597159427785
 30
0.0
 41
1.0
 10
421.7858762741228
 20
299.0197472588224
 30
0.0
 41
1.0
 10
421.8695837082777
 20
298.8797785751974
 30
0.0
 41
1.0
 10
421.9534721171128
 20
298.7399630764944
 30
0.0
 41
1.0
 10
422.037536338274
 20
298.6003014891014
 30
0.0
 41
1.0
  0
LINE
  5
5E
330
40
100
AcDbEntity
  8
3-1MA
  6
Continuous
 62
     7
100
AcDbLine
 10
422.0375363383
 20
247.9333028158
 30
0.0
 11
422.0375363383
 21
298.6003014891
 31
0.0
  0
ARC
  5
5F
330
40
100
AcDbEntity
  8
3-1MA
  6
Continuous
 62
     7
100
AcDbCircle
 10
486.0375363383
 20
277.4333028158
 30
0.0
 40
40.99999999999997
100
AcDbArc
 50
313.9857789619
 51
226.0142210381
  0
LINE
  5
60
330
40
100
AcDbEntity
  8
3-1MA
  6
Continuous
 62
     7
100
AcDbLine
 10
514.5112083881
 20
247.9333028158
 30
0.0
 11
535.0375363383
 21
247.9333028158
 31
0.0
  0
LINE
  5
61
330
40
100
AcDbEntity
  8
3-1MA
  6
Continuous
 62
     7
100
AcDbLine
 10
535.0375363383
 20
344.9333028158
 30
0.0
 11
535.0375363383
 21
247.9333028158
 31
0.0
  0
LINE
  5
62
330
40
100
AcDbEntity
  8
3-1MA
  6
Continuous
 62
     7
100
AcDbLine
 10
421.0375363383
 20
271.9333028158
 30
0.0
 11
421.0375363383
 21
300.283583016
 31
0.0
  0
LINE
  5
63
330
40
100
AcDbEntity
  8
3-1MA
  6
Continuous
 62
     7
100
AcDbLine
 10
535.0375363383
 20
215.4333028158
 30
0.0
 11
535.0375363383
 21
212.4333028158
 31
0.0
  0
LINE
  5
64
330
40
100
AcDbEntity
  8
3-1MA
  6
Continuous
 62
     7
100
AcDbLine
 10
422.0375363383
 20
212.4333028158
 30
0.0
 11
422.0375363383
 21
215.4333028158
 31
0.0
  0
LINE
  5
65
330
40
100
AcDbEntity
  8
3-1MA
  6
Continuous
 62
     7
100
AcDbLine
 10
535.0375363383
 20
212.4333028158
 30
0.0
 11
422.0375363383
 21
212.4333028158
 31
0.0
  0
LINE
  5
66
330
40
100
AcDbEntity
  8
3-1MA
  6
Continuous
 62
     7
100
AcDbLine
 10
535.0375363383
 20
381.4333028158
 30
0.0
 11
535.0375363383
 21
378.4333028158
 31
0.0
  0
LINE
  5
67
330
40
100
AcDbEntity
  8
3-1MA
  6
Continuous
 62
     7
100
AcDbLine
 10
421.0375363383
 20
378.4333028158
 30
0.0
 11
421.0375363383
 21
381.4333028158
 31
0.0
  0
LINE
  5
68
330
40
100
AcDbEntity
  8
3-1MA
  6
Continuous
 62
     7
100
AcDbLine
 10
535.0375363383
 20
247.9333028158
 30
0.0
 11
535.0375363383
 21
246.4333028158
 31
0.0
  0
LINE
  5
69
330
40
100
AcDbEntity
  8
3-1MA
  6
Continuous
 62
     7
100
AcDbLine
 10
421.0375363383
 20
344.9333028158
 30
0.0
 11
421.0375363383
 21
346.4333028158
 31
0.0
  0
ARC
  5
6A
330
40
100
AcDbEntity
  8
3-1MA
  6
Continuous
 62
     7
100
AcDbCircle
 10
486.0375363383
 20
277.4333028158
 30
0.0
 40
40.99999999997152
100
AcDbArc
 50
310.8786351465
 51
313.9857789619
  0
CIRCLE
  5
6B
330
40
100
AcDbEntity
  8
3-1MA
  6
Continuous
 62
     7
100
AcDbCircle
 10
526.0375363383
 20
372.4333028158
 30
0.0
 40
2.5
  0
CIRCLE
  5
6C
330
40
100
AcDbEntity
  8
3-1MA
  6
Continuous
 62
     7
100
AcDbCircle
 10
431.0375363383
 20
372.4333028158
 30
0.0
 40
2.5
  0
CIRCLE
  5
6D
330
40
100
AcDbEntity
  8
3-1MA
  6
Continuous
 62
     7
100
AcDbCircle
 10
526.0375363383
 20
220.4333028158
 30
0.0
 40
2.5
  0
CIRCLE
  5
6E
330
40
100
AcDbEntity
  8
3-1MA
  6
Continuous
 62
     7
100
AcDbCircle
 10
431.0375363383
 20
220.4333028158
 30
0.0
 40
2.5
  0
ARC
  5
6F
330
40
100
AcDbEntity
  8
3-1MA
  6
Continuous
 62
     7
100
AcDbCircle
 10
440.0375363383
 20
340.4333028158
 30
0.0
 40
11.00000000000106
100
AcDbArc
 50
146.9442688491
 51
155.852260083
  0
LINE
  5
70
330
40
100
AcDbEntity
  8
3-1MA
  6
Continuous
 62
     7
100
AcDbLine
 10
486.0375363383
 20
381.9333028158
 30
0.0
 11
477.5375363383
 21
381.9333028158
 31
0.0
  0
LINE
  5
71
330
40
100
AcDbEntity
  8
3-1MA
  6
Continuous
 62
     7
100
AcDbLine
 10
494.5375363383
 20
381.4333028158
 30
0.0
 11
494.5375363383
 21
381.9333028158
 31
0.0
  0
LINE
  5
72
330
40
100
AcDbEntity
  8
3-1MA
  6
Continuous
 62
     7
100
AcDbLine
 10
494.5375363383
 20
381.9333028158
 30
0.0
 11
486.0375363383
 21
381.9333028158
 31
0.0
  0
LINE
  5
73
330
40
100
AcDbEntity
  8
3-1MA
  6
Continuous
 62
     7
100
AcDbLine
 10
486.0375363383
 20
381.9333028158
 30
0.0
 11
486.0375363383
 21
381.4333028158
 31
0.0
  0
LINE
  5
74
330
40
100
AcDbEntity
  8
3-1MA
  6
Continuous
 62
     7
100
AcDbLine
 10
477.5375363383
 20
381.4333028158
 30
0.0
 11
477.5375363383
 21
381.9333028158
 31
0.0
  0
LINE
  5
75
330
40
100
AcDbEntity
  8
3-1MA
  6
Continuous
 62
     7
100
AcDbLine
 10
478.0375363383
 20
382.4333028158
 30
0.0
 11
486.0375363383
 21
382.4333028158
 31
0.0
  0
LINE
  5
76
330
40
100
AcDbEntity
  8
3-1MA
  6
Continuous
 62
     7
100
AcDbLine
 10
486.0375363383
 20
382.4333028158
 30
0.0
 11
494.0375363383
 21
382.4333028158
 31
0.0
  0
LINE
  5
77
330
40
100
AcDbEntity
  8
3-1MA
  6
Continuous
 62
     7
100
AcDbLine
 10
477.5190473383
 20
384.4333028158
 30
0.0
 11
494.5190473383
 21
384.4333028158
 31
0.0
  0
LINE
  5
78
330
40
100
AcDbEntity
  8
3-1MA
  6
Continuous
 62
     7
100
AcDbLine
 10
479.0190473383
 20
394.4333028158
 30
0.0
 11
493.0190473383
 21
394.4333028158
 31
0.0
  0
LINE
  5
79
330
40
100
AcDbEntity
  8
3-1MA
  6
Continuous
 62
     7
100
AcDbLine
 10
477.5190473383
 20
392.9333028158
 30
0.0
 11
494.5190473383
 21
392.9333028158
 31
0.0
  0
LINE
  5
7A
330
40
100
AcDbEntity
  8
3-1MA
  6
Continuous
 62
     7
100
AcDbLine
 10
486.0375363383
 20
382.4333028158
 30
0.0
 11
486.0375363383
 21
381.9333028158
 31
0.0
  0
LINE
  5
7B
330
40
100
AcDbEntity
  8
3-1MA
  6
Continuous
 62
     7
100
AcDbLine
 10
494.0375363383
 20
382.4333028158
 30
0.0
 11
494.5375363383
 21
381.9333028158
 31
0.0
  0
LINE
  5
7C
330
40
100
AcDbEntity
  8
3-1MA
  6
Continuous
 62
     7
100
AcDbLine
 10
477.5375363383
 20
381.9333028158
 30
0.0
 11
478.0375363383
 21
382.4333028158
 31
0.0
  0
LINE
  5
7D
330
40
100
AcDbEntity
  8
3-1MA
  6
Continuous
 62
     7
100
AcDbLine
 10
553.5390592707
 20
378.1512199886
 30
0.0
 11
535.0375363383
 21
378.4188381595
 31
0.0
  0
LINE
  5
7E
330
40
100
AcDbEntity
  8
3-1MA
  6
Continuous
 62
     7
100
AcDbLine
 10
553.5390592707
 20
378.1512199886
 30
0.0
 11
554.0836940563
 21
378.6883087983
 31
0.0
  0
LINE
  5
7F
330
40
100
AcDbEntity
  8
3-1MA
  6
Continuous
 62
     7
100
AcDbLine
 10
554.0836940563
 20
378.6883087983
 30
0.0
 11
553.5390592707
 21
379.2522946287
 31
0.0
  0
LINE
  5
80
330
40
100
AcDbEntity
  8
3-1MA
  6
Continuous
 62
     7
100
AcDbLine
 10
553.5390592707
 20
379.2522946287
 30
0.0
 11
535.0375363383
 21
379.8983820463
 31
0.0
  0
LINE
  5
81
330
40
100
AcDbEntity
  8
3-1MA
  6
Continuous
 62
     7
100
AcDbLine
 10
535.0375363383
 20
213.9682235853
 30
0.0
 11
553.5390592707
 21
214.6143110029
 31
0.0
  0
LINE
  5
82
330
40
100
AcDbEntity
  8
3-1MA
  6
Continuous
 62
     7
100
AcDbLine
 10
553.5390592707
 20
215.715385643
 30
0.0
 11
535.0375363383
 21
215.4477674721
 31
0.0
  0
LINE
  5
83
330
40
100
AcDbEntity
  8
3-1MA
  6
Continuous
 62
     7
100
AcDbLine
 10
555.0375363383
 20
216.1660294308
 30
0.0
 11
555.0375363383
 21
377.7005762008
 31
0.0
  0
LINE
  5
84
330
40
100
AcDbEntity
  8
3-1MA
  6
Continuous
 62
     7
100
AcDbLine
 10
555.0375363383
 20
377.7005762008
 30
0.0
 11
554.0836940563
 21
378.6883087983
 31
0.0
  0
LINE
  5
85
330
40
100
AcDbEntity
  8
3-1MA
  6
Continuous
 62
     7
100
AcDbLine
 10
553.5390592707
 20
378.1512199886
 30
0.0
 11
553.5390592707
 21
215.715385643
 31
0.0
  0
LINE
  5
86
330
40
100
AcDbEntity
  8
3-1MA
  6
Continuous
 62
     7
100
AcDbLine
 10
553.5390592707
 20
215.715385643
 30
0.0
 11
554.0836940563
 21
215.1782968333
 31
0.0
  0
LINE
  5
87
330
40
100
AcDbEntity
  8
3-1MA
  6
Continuous
 62
     7
100
AcDbLine
 10
555.0375363383
 20
216.1660294308
 30
0.0
 11
554.0836940563
 21
215.1782968333
 31
0.0
  0
LINE
  5
88
330
40
100
AcDbEntity
  8
3-1MA
  6
Continuous
 62
     7
100
AcDbLine
 10
554.0836940563
 20
215.1782968333
 30
0.0
 11
553.5390592707
 21
214.6143110029
 31
0.0
  0
LINE
  5
89
330
40
100
AcDbEntity
  8
3-1MA
  6
Continuous
 62
     7
100
AcDbLine
 10
555.0375363383
 20
303.9682235853
 30
0.0
 11
555.5375363383
 21
303.9682235853
 31
0.0
  0
LINE
  5
8A
330
40
100
AcDbEntity
  8
3-1MA
  6
Continuous
 62
     7
100
AcDbLine
 10
555.5375363383
 20
303.9682235853
 30
0.0
 11
555.5375363383
 21
312.4682235853
 31
0.0
  0
LINE
  5
8B
330
40
100
AcDbEntity
  8
3-1MA
  6
Continuous
 62
     7
100
AcDbLine
 10
555.0375363383
 20
295.4682235853
 30
0.0
 11
555.5375363383
 21
295.4682235853
 31
0.0
  0
LINE
  5
8C
330
40
100
AcDbEntity
  8
3-1MA
  6
Continuous
 62
     7
100
AcDbLine
 10
555.5375363383
 20
295.4682235853
 30
0.0
 11
555.5375363383
 21
303.9682235853
 31
0.0
  0
LINE
  5
8D
330
40
100
AcDbEntity
  8
3-1MA
  6
Continuous
 62
     7
100
AcDbLine
 10
555.0375363383
 20
312.4682235853
 30
0.0
 11
555.5375363383
 21
312.4682235853
 31
0.0
  0
LINE
  5
8E
330
40
100
AcDbEntity
  8
3-1MA
  6
Continuous
 62
     7
100
AcDbLine
 10
556.0375363383
 20
311.9682235853
 30
0.0
 11
556.0375363383
 21
303.9682235853
 31
0.0
  0
LINE
  5
8F
330
40
100
AcDbEntity
  8
3-1MA
  6
Continuous
 62
     7
100
AcDbLine
 10
556.0375363383
 20
303.9682235853
 30
0.0
 11
556.0375363383
 21
295.9682235853
 31
0.0
  0
LINE
  5
90
330
40
100
AcDbEntity
  8
3-1MA
  6
Continuous
 62
     7
100
AcDbLine
 10
557.0375363383
 20
310.4682235853
 30
0.0
 11
557.0375363383
 21
297.4682235853
 31
0.0
  0
LINE
  5
91
330
40
100
AcDbEntity
  8
3-1MA
  6
Continuous
 62
     7
100
AcDbLine
 10
556.0375363383
 20
311.9682235853
 30
0.0
 11
555.5375363383
 21
312.4682235853
 31
0.0
  0
LINE
  5
92
330
40
100
AcDbEntity
  8
3-1MA
  6
Continuous
 62
     7
100
AcDbLine
 10
555.5375363383
 20
303.9682235853
 30
0.0
 11
556.0375363383
 21
303.9682235853
 31
0.0
  0
LINE
  5
93
330
40
100
AcDbEntity
  8
3-1MA
  6
Continuous
 62
     7
100
AcDbLine
 10
556.0375363383
 20
295.9682235853
 30
0.0
 11
555.5375363383
 21
295.4682235853
 31
0.0
  0
CIRCLE
  5
94
330
40
100
AcDbEntity
  8
3-1MA
  6
Continuous
 62
     7
100
AcDbCircle
 10
486.0375363383
 20
277.4333028158
 30
0.0
 40
40.0
  0
CIRCLE
  5
95
330
40
100
AcDbEntity
  8
3-1MA
  6
Continuous
 62
     7
100
AcDbCircle
 10
486.0375363383
 20
277.4333028158
 30
0.0
 40
15.5
  0
CIRCLE
  5
96
330
40
100
AcDbEntity
  8
3-1MA
  6
Continuous
 62
     7
100
AcDbCircle
 10
510.0791668986
 20
253.3916722555
 30
0.0
 40
5.5
  0
CIRCLE
  5
97
330
40
100
AcDbEntity
  8
3-1MA
  6
Continuous
 62
     7
100
AcDbCircle
 10
486.0375363383
 20
243.4333028158
 30
0.0
 40
5.5
  0
CIRCLE
  5
98
330
40
100
AcDbEntity
  8
3-1MA
  6
Continuous
 62
     7
100
AcDbCircle
 10
461.9959057779
 20
253.3916722555
 30
0.0
 40
5.5
  0
CIRCLE
  5
99
330
40
100
AcDbEntity
  8
3-1MA
  6
Continuous
 62
     7
100
AcDbCircle
 10
452.0375363383
 20
277.4333028158
 30
0.0
 40
5.5
  0
CIRCLE
  5
9A
330
40
100
AcDbEntity
  8
3-1MA
  6
Continuous
 62
     7
100
AcDbCircle
 10
461.9959057779
 20
301.4749333761
 30
0.0
 40
5.5
  0
CIRCLE
  5
9B
330
40
100
AcDbEntity
  8
3-1MA
  6
Continuous
 62
     7
100
AcDbCircle
 10
486.0375363383
 20
311.4333028158
 30
0.0
 40
5.5
  0
CIRCLE
  5
9C
330
40
100
AcDbEntity
  8
3-1MA
  6
Continuous
 62
     7
100
AcDbCircle
 10
510.0791668986
 20
301.4749333761
 30
0.0
 40
5.5
  0
CIRCLE
  5
9D
330
40
100
AcDbEntity
  8
3-1MA
  6
Continuous
 62
     7
100
AcDbCircle
 10
520.0375363383
 20
277.4333028158
 30
0.0
 40
5.5
  0
CIRCLE
  5
9E
330
40
100
AcDbEntity
  8
3-1MA
  6
Continuous
 62
     7
100
AcDbCircle
 10
520.0375363383
 20
277.4333028158
 30
0.0
 40
5.0
  0
CIRCLE
  5
9F
330
40
100
AcDbEntity
  8
3-1MA
  6
Continuous
 62
     7
100
AcDbCircle
 10
520.0375363383
 20
277.4333028158
 30
0.0
 40
1.7425
  0
LINE
  5
A0
330
40
100
AcDbEntity
  8
3-1MA
  6
Continuous
 62
     7
100
AcDbLine
 10
518.8123832186
 20
278.6584559355
 30
0.0
 11
520.4859735036
 21
279.1068931008
 31
0.0
  0
LINE
  5
A1
330
40
100
AcDbEntity
  8
3-1MA
  6
Continuous
 62
     7
100
AcDbLine
 10
520.4859735036
 20
279.1068931008
 30
0.0
 11
521.7111266233
 21
277.8817399811
 31
0.0
  0
LINE
  5
A2
330
40
100
AcDbEntity
  8
3-1MA
  6
Continuous
 62
     7
100
AcDbLine
 10
521.7111266233
 20
277.8817399811
 30
0.0
 11
521.262689458
 21
276.2081496961
 31
0.0
  0
LINE
  5
A3
330
40
100
AcDbEntity
  8
3-1MA
  6
Continuous
 62
     7
100
AcDbLine
 10
521.262689458
 20
276.2081496961
 30
0.0
 11
519.5890991729
 21
275.7597125308
 31
0.0
  0
LINE
  5
A4
330
40
100
AcDbEntity
  8
3-1MA
  6
Continuous
 62
     7
100
AcDbLine
 10
519.5890991729
 20
275.7597125308
 30
0.0
 11
518.3639460533
 21
276.9848656505
 31
0.0
  0
LINE
  5
A5
330
40
100
AcDbEntity
  8
3-1MA
  6
Continuous
 62
     7
100
AcDbLine
 10
518.3639460533
 20
276.9848656505
 30
0.0
 11
518.8123832186
 21
278.6584559355
 31
0.0
  0
LINE
  5
A6
330
40
100
AcDbEntity
  8
3-1MA
  6
Continuous
 62
     7
100
AcDbLine
 10
496.3375363383
 20
279.9333028158
 30
0.0
 11
494.1615747429
 21
279.9333028158
 31
0.0
  0
LINE
  5
A7
330
40
100
AcDbEntity
  8
3-1MA
  6
Continuous
 62
     7
100
AcDbLine
 10
496.3375363383
 20
274.9333028158
 30
0.0
 11
496.3375363383
 21
279.9333028158
 31
0.0
  0
LINE
  5
A8
330
40
100
AcDbEntity
  8
3-1MA
  6
Continuous
 62
     7
100
AcDbLine
 10
494.1615747429
 20
274.9333028158
 30
0.0
 11
496.3375363383
 21
274.9333028158
 31
0.0
  0
CIRCLE
  5
A9
330
40
100
AcDbEntity
  8
3-1MA
  6
Continuous
 62
     7
100
AcDbCircle
 10
486.0375363383
 20
277.4333028158
 30
0.0
 40
15.0
  0
ARC
  5
AA
330
40
100
AcDbEntity
  8
3-1MA
  6
Continuous
 62
     7
100
AcDbCircle
 10
486.0375363383
 20
277.4333028158
 30
0.0
 40
8.000000000000611
100
AcDbArc
 50
18.2099568643
 51
341.7900431357
  0
CIRCLE
  5
AB
330
40
100
AcDbEntity
  8
3-1MA
  6
Continuous
 62
     7
100
AcDbCircle
 10
486.0375363383
 20
277.4333028158
 30
0.0
 40
14.2
  0
ARC
  5
AC
330
40
100
AcDbEntity
  8
3-1MA
  6
Continuous
 62
     7
100
AcDbCircle
 10
486.0375363383
 20
277.4333028158
 30
0.0
 40
8.500000000000082
100
AcDbArc
 50
17.1046351766
 51
342.8953648234
  0
LINE
  5
AD
330
40
100
AcDbEntity
  8
3-1MA
  6
Continuous
 62
     7
100
AcDbLine
 10
494.1615747429
 20
274.9333028158
 30
0.0
 11
493.6368784151
 21
274.9333028158
 31
0.0
  0
LINE
  5
AE
330
40
100
AcDbEntity
  8
3-1MA
  6
Continuous
 62
     7
100
AcDbLine
 10
493.6368784151
 20
279.9333028158
 30
0.0
 11
494.1615747429
 21
279.9333028158
 31
0.0
  0
LINE
  5
AF
330
40
100
AcDbEntity
  8
3-1MA
  6
Continuous
 62
     7
100
AcDbLine
 10
421.9375363383
 20
241.9333028158
 30
0.0
 11
421.9375363383
 21
222.9333028158
 31
0.0
  0
LINE
  5
B0
330
40
100
AcDbEntity
  8
3-1MA
  6
Continuous
 62
     7
100
AcDbLine
 10
421.4375363383
 20
241.4333028158
 30
0.0
 11
421.4375363383
 21
223.4333028158
 31
0.0
  0
CIRCLE
  5
B1
330
40
100
AcDbEntity
  8
3-1MA
  6
Continuous
 62
     7
100
AcDbCircle
 10
439.9774813383
 20
340.481865255
 30
0.0
 40
9.5
  0
LINE
  5
B2
330
40
100
AcDbEntity
  8
3-1MA
  6
Continuous
 62
     7
100
AcDbLine
 10
436.9774813383
 20
342.2139160626
 30
0.0
 11
439.9774813383
 21
343.9459668702
 31
0.0
  0
LINE
  5
B3
330
40
100
AcDbEntity
  8
3-1MA
  6
Continuous
 62
     7
100
AcDbLine
 10
439.9774813383
 20
343.9459668702
 30
0.0
 11
442.9774813383
 21
342.2139160626
 31
0.0
  0
LINE
  5
B4
330
40
100
AcDbEntity
  8
3-1MA
  6
Continuous
 62
     7
100
AcDbLine
 10
442.9774813383
 20
342.2139160626
 30
0.0
 11
442.9774813383
 21
338.7498144475
 31
0.0
  0
LINE
  5
B5
330
40
100
AcDbEntity
  8
3-1MA
  6
Continuous
 62
     7
100
AcDbLine
 10
442.9774813383
 20
338.7498144475
 30
0.0
 11
439.9774813383
 21
337.0177636399
 31
0.0
  0
LINE
  5
B6
330
40
100
AcDbEntity
  8
3-1MA
  6
Continuous
 62
     7
100
AcDbLine
 10
439.9774813383
 20
337.0177636399
 30
0.0
 11
436.9774813383
 21
338.7498144475
 31
0.0
  0
LINE
  5
B7
330
40
100
AcDbEntity
  8
3-1MA
  6
Continuous
 62
     7
100
AcDbLine
 10
436.9774813383
 20
338.7498144475
 30
0.0
 11
436.9774813383
 21
342.2139160626
 31
0.0
  0
CIRCLE
  5
B8
330
40
100
AcDbEntity
  8
3-1MA
  6
Continuous
 62
     7
100
AcDbCircle
 10
439.9774813383
 20
340.481865255
 30
0.0
 40
9.0
  0
LINE
  5
B9
330
40
100
AcDbEntity
  8
3-1MA
  6
Continuous
 62
     7
100
AcDbLine
 10
510.9454809775
 20
302.9754333761
 30
0.0
 11
511.8117950565
 21
301.4749333761
 31
0.0
  0
LINE
  5
BA
330
40
100
AcDbEntity
  8
3-1MA
  6
Continuous
 62
     7
100
AcDbLine
 10
508.3465387408
 20
301.4749333761
 30
0.0
 11
509.2128528197
 21
302.9754333761
 31
0.0
  0
LINE
  5
BB
330
40
100
AcDbEntity
  8
3-1MA
  6
Continuous
 62
     7
100
AcDbLine
 10
509.2128528197
 20
299.9744333761
 30
0.0
 11
508.3465387408
 21
301.4749333761
 31
0.0
  0
LINE
  5
BC
330
40
100
AcDbEntity
  8
3-1MA
  6
Continuous
 62
     7
100
AcDbLine
 10
510.9454809775
 20
299.9744333761
 30
0.0
 11
509.2128528197
 21
299.9744333761
 31
0.0
  0
LINE
  5
BD
330
40
100
AcDbEntity
  8
3-1MA
  6
Continuous
 62
     7
100
AcDbLine
 10
511.8117950565
 20
301.4749333761
 30
0.0
 11
510.9454809775
 21
299.9744333761
 31
0.0
  0
LINE
  5
BE
330
40
100
AcDbEntity
  8
3-1MA
  6
Continuous
 62
     7
100
AcDbLine
 10
509.2128528197
 20
302.9754333761
 30
0.0
 11
510.9454809775
 21
302.9754333761
 31
0.0
  0
CIRCLE
  5
BF
330
40
100
AcDbEntity
  8
3-1MA
  6
Continuous
 62
     7
100
AcDbCircle
 10
510.0791668986
 20
301.4749333761
 30
0.0
 40
1.7425
  0
CIRCLE
  5
C0
330
40
100
AcDbEntity
  8
3-1MA
  6
Continuous
 62
     7
100
AcDbCircle
 10
510.0791668986
 20
301.4749333761
 30
0.0
 40
5.0
  0
LINE
  5
C1
330
40
100
AcDbEntity
  8
3-1MA
  6
Continuous
 62
     7
100
AcDbLine
 10
485.5890991729
 20
313.1068931008
 30
0.0
 11
487.262689458
 21
312.6584559355
 31
0.0
  0
LINE
  5
C2
330
40
100
AcDbEntity
  8
3-1MA
  6
Continuous
 62
     7
100
AcDbLine
 10
484.8123832186
 20
310.2081496961
 30
0.0
 11
484.3639460533
 21
311.8817399811
 31
0.0
  0
LINE
  5
C3
330
40
100
AcDbEntity
  8
3-1MA
  6
Continuous
 62
     7
100
AcDbLine
 10
486.4859735036
 20
309.7597125308
 30
0.0
 11
484.8123832186
 21
310.2081496961
 31
0.0
  0
LINE
  5
C4
330
40
100
AcDbEntity
  8
3-1MA
  6
Continuous
 62
     7
100
AcDbLine
 10
487.7111266233
 20
310.9848656505
 30
0.0
 11
486.4859735036
 21
309.7597125308
 31
0.0
  0
LINE
  5
C5
330
40
100
AcDbEntity
  8
3-1MA
  6
Continuous
 62
     7
100
AcDbLine
 10
487.262689458
 20
312.6584559355
 30
0.0
 11
487.7111266233
 21
310.9848656505
 31
0.0
  0
LINE
  5
C6
330
40
100
AcDbEntity
  8
3-1MA
  6
Continuous
 62
     7
100
AcDbLine
 10
484.3639460533
 20
311.8817399811
 30
0.0
 11
485.5890991729
 21
313.1068931008
 31
0.0
  0
CIRCLE
  5
C7
330
40
100
AcDbEntity
  8
3-1MA
  6
Continuous
 62
     7
100
AcDbCircle
 10
486.0375363383
 20
311.4333028158
 30
0.0
 40
1.7425
  0
CIRCLE
  5
C8
330
40
100
AcDbEntity
  8
3-1MA
  6
Continuous
 62
     7
100
AcDbCircle
 10
486.0375363383
 20
311.4333028158
 30
0.0
 40
5.0
  0
LINE
  5
C9
330
40
100
AcDbEntity
  8
3-1MA
  6
Continuous
 62
     7
100
AcDbLine
 10
460.4954057779
 20
302.3412474551
 30
0.0
 11
461.9959057779
 21
303.207561534
 31
0.0
  0
LINE
  5
CA
330
40
100
AcDbEntity
  8
3-1MA
  6
Continuous
 62
     7
100
AcDbLine
 10
461.9959057779
 20
299.7423052183
 30
0.0
 11
460.4954057779
 21
300.6086192972
 31
0.0
  0
LINE
  5
CB
330
40
100
AcDbEntity
  8
3-1MA
  6
Continuous
 62
     7
100
AcDbLine
 10
463.4964057779
 20
300.6086192972
 30
0.0
 11
461.9959057779
 21
299.7423052183
 31
0.0
  0
LINE
  5
CC
330
40
100
AcDbEntity
  8
3-1MA
  6
Continuous
 62
     7
100
AcDbLine
 10
463.4964057779
 20
302.3412474551
 30
0.0
 11
463.4964057779
 21
300.6086192972
 31
0.0
  0
LINE
  5
CD
330
40
100
AcDbEntity
  8
3-1MA
  6
Continuous
 62
     7
100
AcDbLine
 10
461.9959057779
 20
303.207561534
 30
0.0
 11
463.4964057779
 21
302.3412474551
 31
0.0
  0
LINE
  5
CE
330
40
100
AcDbEntity
  8
3-1MA
  6
Continuous
 62
     7
100
AcDbLine
 10
460.4954057779
 20
300.6086192972
 30
0.0
 11
460.4954057779
 21
302.3412474551
 31
0.0
  0
CIRCLE
  5
CF
330
40
100
AcDbEntity
  8
3-1MA
  6
Continuous
 62
     7
100
AcDbCircle
 10
461.9959057779
 20
301.4749333761
 30
0.0
 40
1.7425
  0
CIRCLE
  5
D0
330
40
100
AcDbEntity
  8
3-1MA
  6
Continuous
 62
     7
100
AcDbCircle
 10
461.9959057779
 20
301.4749333761
 30
0.0
 40
5.0
  0
LINE
  5
D1
330
40
100
AcDbEntity
  8
3-1MA
  6
Continuous
 62
     7
100
AcDbLine
 10
450.3639460533
 20
276.9848656505
 30
0.0
 11
450.8123832186
 21
278.6584559355
 31
0.0
  0
LINE
  5
D2
330
40
100
AcDbEntity
  8
3-1MA
  6
Continuous
 62
     7
100
AcDbLine
 10
453.262689458
 20
276.2081496961
 30
0.0
 11
451.5890991729
 21
275.7597125308
 31
0.0
  0
LINE
  5
D3
330
40
100
AcDbEntity
  8
3-1MA
  6
Continuous
 62
     7
100
AcDbLine
 10
453.7111266233
 20
277.8817399811
 30
0.0
 11
453.262689458
 21
276.2081496961
 31
0.0
  0
LINE
  5
D4
330
40
100
AcDbEntity
  8
3-1MA
  6
Continuous
 62
     7
100
AcDbLine
 10
452.4859735036
 20
279.1068931008
 30
0.0
 11
453.7111266233
 21
277.8817399811
 31
0.0
  0
LINE
  5
D5
330
40
100
AcDbEntity
  8
3-1MA
  6
Continuous
 62
     7
100
AcDbLine
 10
450.8123832186
 20
278.6584559355
 30
0.0
 11
452.4859735036
 21
279.1068931008
 31
0.0
  0
LINE
  5
D6
330
40
100
AcDbEntity
  8
3-1MA
  6
Continuous
 62
     7
100
AcDbLine
 10
451.5890991729
 20
275.7597125308
 30
0.0
 11
450.3639460533
 21
276.9848656505
 31
0.0
  0
CIRCLE
  5
D7
330
40
100
AcDbEntity
  8
3-1MA
  6
Continuous
 62
     7
100
AcDbCircle
 10
452.0375363383
 20
277.4333028158
 30
0.0
 40
1.7425
  0
CIRCLE
  5
D8
330
40
100
AcDbEntity
  8
3-1MA
  6
Continuous
 62
     7
100
AcDbCircle
 10
452.0375363383
 20
277.4333028158
 30
0.0
 40
5.0
  0
LINE
  5
D9
330
40
100
AcDbEntity
  8
3-1MA
  6
Continuous
 62
     7
100
AcDbLine
 10
461.129591699
 20
251.8911722555
 30
0.0
 11
460.2632776201
 21
253.3916722555
 31
0.0
  0
LINE
  5
DA
330
40
100
AcDbEntity
  8
3-1MA
  6
Continuous
 62
     7
100
AcDbLine
 10
463.7285339358
 20
253.3916722555
 30
0.0
 11
462.8622198569
 21
251.8911722555
 31
0.0
  0
LINE
  5
DB
330
40
100
AcDbEntity
  8
3-1MA
  6
Continuous
 62
     7
100
AcDbLine
 10
462.8622198569
 20
254.8921722555
 30
0.0
 11
463.7285339358
 21
253.3916722555
 31
0.0
  0
LINE
  5
DC
330
40
100
AcDbEntity
  8
3-1MA
  6
Continuous
 62
     7
100
AcDbLine
 10
461.129591699
 20
254.8921722555
 30
0.0
 11
462.8622198569
 21
254.8921722555
 31
0.0
  0
LINE
  5
DD
330
40
100
AcDbEntity
  8
3-1MA
  6
Continuous
 62
     7
100
AcDbLine
 10
460.2632776201
 20
253.3916722555
 30
0.0
 11
461.129591699
 21
254.8921722555
 31
0.0
  0
LINE
  5
DE
330
40
100
AcDbEntity
  8
3-1MA
  6
Continuous
 62
     7
100
AcDbLine
 10
462.8622198569
 20
251.8911722555
 30
0.0
 11
461.129591699
 21
251.8911722555
 31
0.0
  0
CIRCLE
  5
DF
330
40
100
AcDbEntity
  8
3-1MA
  6
Continuous
 62
     7
100
AcDbCircle
 10
461.9959057779
 20
253.3916722555
 30
0.0
 40
1.7425
  0
CIRCLE
  5
E0
330
40
100
AcDbEntity
  8
3-1MA
  6
Continuous
 62
     7
100
AcDbCircle
 10
461.9959057779
 20
253.3916722555
 30
0.0
 40
5.0
  0
LINE
  5
E1
330
40
100
AcDbEntity
  8
3-1MA
  6
Continuous
 62
     7
100
AcDbLine
 10
486.4859735036
 20
241.7597125308
 30
0.0
 11
484.8123832186
 21
242.2081496961
 31
0.0
  0
LINE
  5
E2
330
40
100
AcDbEntity
  8
3-1MA
  6
Continuous
 62
     7
100
AcDbLine
 10
487.262689458
 20
244.6584559355
 30
0.0
 11
487.7111266233
 21
242.9848656505
 31
0.0
  0
LINE
  5
E3
330
40
100
AcDbEntity
  8
3-1MA
  6
Continuous
 62
     7
100
AcDbLine
 10
485.5890991729
 20
245.1068931008
 30
0.0
 11
487.262689458
 21
244.6584559355
 31
0.0
  0
LINE
  5
E4
330
40
100
AcDbEntity
  8
3-1MA
  6
Continuous
 62
     7
100
AcDbLine
 10
484.3639460533
 20
243.8817399811
 30
0.0
 11
485.5890991729
 21
245.1068931008
 31
0.0
  0
LINE
  5
E5
330
40
100
AcDbEntity
  8
3-1MA
  6
Continuous
 62
     7
100
AcDbLine
 10
484.8123832186
 20
242.2081496961
 30
0.0
 11
484.3639460533
 21
243.8817399811
 31
0.0
  0
LINE
  5
E6
330
40
100
AcDbEntity
  8
3-1MA
  6
Continuous
 62
     7
100
AcDbLine
 10
487.7111266233
 20
242.9848656505
 30
0.0
 11
486.4859735036
 21
241.7597125308
 31
0.0
  0
CIRCLE
  5
E7
330
40
100
AcDbEntity
  8
3-1MA
  6
Continuous
 62
     7
100
AcDbCircle
 10
486.0375363383
 20
243.4333028158
 30
0.0
 40
1.7425
  0
CIRCLE
  5
E8
330
40
100
AcDbEntity
  8
3-1MA
  6
Continuous
 62
     7
100
AcDbCircle
 10
486.0375363383
 20
243.4333028158
 30
0.0
 40
5.0
  0
LINE
  5
E9
330
40
100
AcDbEntity
  8
3-1MA
  6
Continuous
 62
     7
100
AcDbLine
 10
511.5796668986
 20
252.5253581765
 30
0.0
 11
510.0791668986
 21
251.6590440976
 31
0.0
  0
LINE
  5
EA
330
40
100
AcDbEntity
  8
3-1MA
  6
Continuous
 62
     7
100
AcDbLine
 10
510.0791668986
 20
255.1243004133
 30
0.0
 11
511.5796668986
 21
254.2579863344
 31
0.0
  0
LINE
  5
EB
330
40
100
AcDbEntity
  8
3-1MA
  6
Continuous
 62
     7
100
AcDbLine
 10
508.5786668986
 20
254.2579863344
 30
0.0
 11
510.0791668986
 21
255.1243004133
 31
0.0
  0
LINE
  5
EC
330
40
100
AcDbEntity
  8
3-1MA
  6
Continuous
 62
     7
100
AcDbLine
 10
508.5786668986
 20
252.5253581765
 30
0.0
 11
508.5786668986
 21
254.2579863344
 31
0.0
  0
LINE
  5
ED
330
40
100
AcDbEntity
  8
3-1MA
  6
Continuous
 62
     7
100
AcDbLine
 10
510.0791668986
 20
251.6590440976
 30
0.0
 11
508.5786668986
 21
252.5253581765
 31
0.0
  0
LINE
  5
EE
330
40
100
AcDbEntity
  8
3-1MA
  6
Continuous
 62
     7
100
AcDbLine
 10
511.5796668986
 20
254.2579863344
 30
0.0
 11
511.5796668986
 21
252.5253581765
 31
0.0
  0
CIRCLE
  5
EF
330
40
100
AcDbEntity
  8
3-1MA
  6
Continuous
 62
     7
100
AcDbCircle
 10
510.0791668986
 20
253.3916722555
 30
0.0
 40
1.7425
  0
CIRCLE
  5
F0
330
40
100
AcDbEntity
  8
3-1MA
  6
Continuous
 62
     7
100
AcDbCircle
 10
510.0791668986
 20
253.3916722555
 30
0.0
 40
5.0
  0
LINE
  5
F1
330
40
100
AcDbEntity
  8
3-1MA
  6
Continuous
 62
     7
100
AcDbLine
 10
421.0375363383
 20
271.9333028158
 30
0.0
 11
422.0375363383
 21
270.9333028158
 31
0.0
  0
LINE
  5
F2
330
40
100
AcDbEntity
  8
3-1MA
  6
Continuous
 62
     7
100
AcDbLine
 10
480.5375363383
 20
384.4333028158
 30
0.0
 11
480.5375363383
 21
382.4333028158
 31
0.0
  0
LINE
  5
F3
330
40
100
AcDbEntity
  8
3-1MA
  6
Continuous
 62
     7
100
AcDbLine
 10
491.5375363383
 20
382.4333028158
 30
0.0
 11
491.5375363383
 21
384.4333028158
 31
0.0
  0
LINE
  5
F4
330
40
100
AcDbEntity
  8
3-1MA
  6
Continuous
 62
     7
100
AcDbLine
 10
477.5190473383
 20
392.9333028158
 30
0.0
 11
477.5190473383
 21
384.4333028158
 31
0.0
  0
LINE
  5
F5
330
40
100
AcDbEntity
  8
3-1MA
  6
Continuous
 62
     7
100
AcDbLine
 10
494.5190473383
 20
384.4333028158
 30
0.0
 11
494.5190473383
 21
392.9333028158
 31
0.0
  0
ARC
  5
F6
330
40
100
AcDbEntity
  8
3-1MA
  6
Continuous
 62
     7
100
AcDbCircle
 10
479.0190473383
 20
392.9333028158
 30
0.0
 40
1.500000000000001
100
AcDbArc
 50
90.0
 51
180.0
  0
ARC
  5
F7
330
40
100
AcDbEntity
  8
3-1MA
  6
Continuous
 62
     7
100
AcDbCircle
 10
493.0190473383
 20
392.9333028158
 30
0.0
 40
1.499999999999988
100
AcDbArc
 50
0.0
 51
90.0
  0
ARC
  5
F8
330
40
100
AcDbEntity
  8
3-1MA
  6
Continuous
 62
     7
100
AcDbCircle
 10
556.0375363383
 20
310.4682235853
 30
0.0
 40
1.000000000000001
100
AcDbArc
 50
0.0
 51
90.0
  0
ARC
  5
F9
330
40
100
AcDbEntity
  8
3-1MA
  6
Continuous
 62
     7
100
AcDbCircle
 10
556.0375363383
 20
297.4682235853
 30
0.0
 40
1.000000000000001
100
AcDbArc
 50
270.0
 51
0.0
  0
LINE
  5
FA
330
40
100
AcDbEntity
  8
3-1MA
  6
Continuous
 62
     7
100
AcDbLine
 10
421.9375363383
 20
222.9333028158
 30
0.0
 11
422.0375363383
 21
222.9333028158
 31
0.0
  0
LINE
  5
FB
330
40
100
AcDbEntity
  8
3-1MA
  6
Continuous
 62
     7
100
AcDbLine
 10
422.0375363383
 20
241.9333028158
 30
0.0
 11
421.9375363383
 21
241.9333028158
 31
0.0
  0
LINE
  5
FC
330
40
100
AcDbEntity
  8
3-1MA
  6
Continuous
 62
     7
100
AcDbLine
 10
421.9375363383
 20
241.9333028158
 30
0.0
 11
421.4375363383
 21
241.4333028158
 31
0.0
  0
LINE
  5
FD
330
40
100
AcDbEntity
  8
3-1MA
  6
Continuous
 62
     7
100
AcDbLine
 10
421.4375363383
 20
223.4333028158
 30
0.0
 11
421.9375363383
 21
222.9333028158
 31
0.0
  0
ENDBLK
  5
FF
330
40
100
AcDbEntity
  8
0
100
AcDbBlockEnd
  0
BLOCK
  5
15B
330
100
100
AcDbEntity
  8
0
100
AcDbBlockBegin
  2
SE1
 70
     0
 10
0.0
 20
0.0
 30
0.0
  3
SE1
  1

  0
LINE
  5
102
330
100
100
AcDbEntity
  8
3-1MA
  6
Continuous
 62
     7
100
AcDbLine
 10
421.0375363383
 20
447.1175582027
 30
0.0
 11
421.0375363383
 21
448.6175582027
 31
0.0
  0
LINE
  5
103
330
100
100
AcDbEntity
  8
3-1MA
  6
Continuous
 62
     7
100
AcDbLine
 10
422.0375363383
 20
447.1175582027
 30
0.0
 11
421.0375363383
 21
447.1175582027
 31
0.0
  0
LINE
  5
104
330
100
100
AcDbEntity
  8
3-1MA
  6
Continuous
 62
     7
100
AcDbLine
 10
535.0375363383
 20
450.1175582027
 30
0.0
 11
535.0375363383
 21
447.1175582027
 31
0.0
  0
LINE
  5
105
330
100
100
AcDbEntity
  8
3-1MA
  6
Continuous
 62
     7
100
AcDbLine
 10
422.0375363383
 20
450.1175582027
 30
0.0
 11
535.0375363383
 21
450.1175582027
 31
0.0
  0
LINE
  5
106
330
100
100
AcDbEntity
  8
3-1MA
  6
Continuous
 62
     7
100
AcDbLine
 10
422.0375363383
 20
447.1175582027
 30
0.0
 11
422.0375363383
 21
450.1175582027
 31
0.0
  0
LINE
  5
107
330
100
100
AcDbEntity
  8
3-1MA
  6
Continuous
 62
     7
100
AcDbLine
 10
535.0375363383
 20
447.1175582027
 30
0.0
 11
422.0375363383
 21
447.1175582027
 31
0.0
  0
LINE
  5
108
330
100
100
AcDbEntity
  8
3-1MA
  6
Continuous
 62
     7
100
AcDbLine
 10
422.0375363383
 20
448.6175582027
 30
0.0
 11
421.0375363383
 21
448.6175582027
 31
0.0
  0
LINE
  5
109
330
100
100
AcDbEntity
  8
3-1MA
  6
Continuous
 62
     7
100
AcDbLine
 10
421.0375363383
 20
561.1175582027
 30
0.0
 11
422.0375363383
 21
561.1175582027
 31
0.0
  0
LINE
  5
10A
330
100
100
AcDbEntity
  8
3-1MA
  6
Continuous
 62
     7
100
AcDbLine
 10
422.0375363383
 20
483.6175582027
 30
0.0
 11
422.0375363383
 21
524.6175582027
 31
0.0
  0
LINE
  5
10B
330
100
100
AcDbEntity
  8
3-1MA
  6
Continuous
 62
     7
100
AcDbLine
 10
422.0375363383
 20
483.6175582027
 30
0.0
 11
535.0375363383
 21
483.6175582027
 31
0.0
  0
LINE
  5
10C
330
100
100
AcDbEntity
  8
3-1MA
  6
Continuous
 62
     7
100
AcDbLine
 10
535.0375363383
 20
524.6175582027
 30
0.0
 11
535.0375363383
 21
483.6175582027
 31
0.0
  0
LINE
  5
10D
330
100
100
AcDbEntity
  8
3-1MA
  6
Continuous
 62
     7
100
AcDbLine
 10
422.0375363383
 20
524.6175582027
 30
0.0
 11
535.0375363383
 21
524.6175582027
 31
0.0
  0
CIRCLE
  5
10E
330
100
100
AcDbEntity
  8
3-1MA
  6
Continuous
 62
     7
100
AcDbCircle
 10
442.0375363383
 20
504.1175582027
 30
0.0
 40
11.0
  0
LINE
  5
10F
330
100
100
AcDbEntity
  8
3-1MA
  6
Continuous
 62
     7
100
AcDbLine
 10
422.0375363383
 20
482.1175582027
 30
0.0
 11
422.0375363383
 21
483.6175582027
 31
0.0
  0
LINE
  5
110
330
100
100
AcDbEntity
  8
3-1MA
  6
Continuous
 62
     7
100
AcDbLine
 10
535.0375363383
 20
482.1175582027
 30
0.0
 11
422.0375363383
 21
482.1175582027
 31
0.0
  0
LINE
  5
111
330
100
100
AcDbEntity
  8
3-1MA
  6
Continuous
 62
     7
100
AcDbLine
 10
535.0375363383
 20
483.6175582027
 30
0.0
 11
535.0375363383
 21
482.1175582027
 31
0.0
  0
LINE
  5
112
330
100
100
AcDbEntity
  8
3-1MA
  6
Continuous
 62
     7
100
AcDbLine
 10
422.0375363383
 20
561.1175582027
 30
0.0
 11
535.0375363383
 21
561.1175582027
 31
0.0
  0
LINE
  5
113
330
100
100
AcDbEntity
  8
3-1MA
  6
Continuous
 62
     7
100
AcDbLine
 10
421.0375363383
 20
559.6175582027
 30
0.0
 11
422.0375363383
 21
559.6175582027
 31
0.0
  0
LINE
  5
114
330
100
100
AcDbEntity
  8
3-1MA
  6
Continuous
 62
     7
100
AcDbLine
 10
421.0375363383
 20
559.6175582027
 30
0.0
 11
421.0375363383
 21
448.6175582027
 31
0.0
  0
LINE
  5
115
330
100
100
AcDbEntity
  8
3-1MA
  6
Continuous
 62
     7
100
AcDbLine
 10
535.0375363383
 20
450.1175582027
 30
0.0
 11
535.0375363383
 21
482.1175582027
 31
0.0
  0
LINE
  5
116
330
100
100
AcDbEntity
  8
3-1MA
  6
Continuous
 62
     7
100
AcDbLine
 10
422.0375363383
 20
450.1175582027
 30
0.0
 11
422.0375363383
 21
482.1175582027
 31
0.0
  0
CIRCLE
  5
117
330
100
100
AcDbEntity
  8
3-1MA
  6
Continuous
 62
     7
100
AcDbCircle
 10
518.5375363383
 20
456.6175582027
 30
0.0
 40
3.05
  0
CIRCLE
  5
118
330
100
100
AcDbEntity
  8
3-1MA
  6
Continuous
 62
     7
100
AcDbCircle
 10
438.5375363383
 20
456.6175582027
 30
0.0
 40
3.05
  0
LINE
  5
119
330
100
100
AcDbEntity
  8
3-1MA
  6
Continuous
 62
     7
100
AcDbLine
 10
535.0375363383
 20
561.1175582027
 30
0.0
 11
535.0375363383
 21
558.1175582027
 31
0.0
  0
LINE
  5
11A
330
100
100
AcDbEntity
  8
3-1MA
  6
Continuous
 62
     7
100
AcDbLine
 10
422.0375363383
 20
558.1175582027
 30
0.0
 11
422.0375363383
 21
561.1175582027
 31
0.0
  0
LINE
  5
11B
330
100
100
AcDbEntity
  8
3-1MA
  6
Continuous
 62
     7
100
AcDbLine
 10
535.0375363383
 20
558.1175582027
 30
0.0
 11
422.0375363383
 21
558.1175582027
 31
0.0
  0
LINE
  5
11C
330
100
100
AcDbEntity
  8
3-1MA
  6
Continuous
 62
     7
100
AcDbLine
 10
422.0375363383
 20
526.1175582027
 30
0.0
 11
422.0375363383
 21
558.1175582027
 31
0.0
  0
LINE
  5
11D
330
100
100
AcDbEntity
  8
3-1MA
  6
Continuous
 62
     7
100
AcDbLine
 10
422.0375363383
 20
526.1175582027
 30
0.0
 11
535.0375363383
 21
526.1175582027
 31
0.0
  0
LINE
  5
11E
330
100
100
AcDbEntity
  8
3-1MA
  6
Continuous
 62
     7
100
AcDbLine
 10
535.0375363383
 20
526.1175582027
 30
0.0
 11
535.0375363383
 21
558.1175582027
 31
0.0
  0
CIRCLE
  5
11F
330
100
100
AcDbEntity
  8
3-1MA
  6
Continuous
 62
     7
100
AcDbCircle
 10
518.5375363383
 20
551.6175582027
 30
0.0
 40
3.05
  0
CIRCLE
  5
120
330
100
100
AcDbEntity
  8
3-1MA
  6
Continuous
 62
     7
100
AcDbCircle
 10
438.5375363383
 20
551.6175582027
 30
0.0
 40
3.05
  0
LINE
  5
121
330
100
100
AcDbEntity
  8
3-1MA
  6
Continuous
 62
     7
100
AcDbLine
 10
535.0375363383
 20
526.1175582027
 30
0.0
 11
535.0375363383
 21
524.6175582027
 31
0.0
  0
LINE
  5
122
330
100
100
AcDbEntity
  8
3-1MA
  6
Continuous
 62
     7
100
AcDbLine
 10
422.0375363383
 20
524.6175582027
 30
0.0
 11
422.0375363383
 21
526.1175582027
 31
0.0
  0
LINE
  5
123
330
100
100
AcDbEntity
  8
3-1MA
  6
Continuous
 62
     7
100
AcDbLine
 10
421.0375363383
 20
559.6175582027
 30
0.0
 11
421.0375363383
 21
561.1175582027
 31
0.0
  0
CIRCLE
  5
124
330
100
100
AcDbEntity
  8
3-1MA
  6
Continuous
 62
     7
100
AcDbCircle
 10
518.5375363383
 20
551.6175582027
 30
0.0
 40
2.5
  0
CIRCLE
  5
125
330
100
100
AcDbEntity
  8
3-1MA
  6
Continuous
 62
     7
100
AcDbCircle
 10
438.5375363383
 20
551.6175582027
 30
0.0
 40
2.5
  0
CIRCLE
  5
126
330
100
100
AcDbEntity
  8
3-1MA
  6
Continuous
 62
     7
100
AcDbCircle
 10
518.5375363383
 20
456.6175582027
 30
0.0
 40
2.5
  0
CIRCLE
  5
127
330
100
100
AcDbEntity
  8
3-1MA
  6
Continuous
 62
     7
100
AcDbCircle
 10
438.5375363383
 20
456.6175582027
 30
0.0
 40
2.5
  0
LINE
  5
128
330
100
100
AcDbEntity
  8
3-1MA
  6
Continuous
 62
     7
100
AcDbLine
 10
553.5390592707
 20
449.2985663898
 30
0.0
 11
554.0836940563
 21
449.8625522202
 31
0.0
  0
LINE
  5
129
330
100
100
AcDbEntity
  8
3-1MA
  6
Continuous
 62
     7
100
AcDbLine
 10
553.5390592707
 20
450.3996410299
 30
0.0
 11
535.0375363383
 21
450.132022859
 31
0.0
  0
LINE
  5
12A
330
100
100
AcDbEntity
  8
3-1MA
  6
Continuous
 62
     7
100
AcDbLine
 10
535.0375363383
 20
448.6524789722
 30
0.0
 11
553.5390592707
 21
449.2985663898
 31
0.0
  0
LINE
  5
12B
330
100
100
AcDbEntity
  8
3-1MA
  6
Continuous
 62
     7
100
AcDbLine
 10
535.0375363383
 20
558.1030935464
 30
0.0
 11
553.5390592707
 21
557.8354753755
 31
0.0
  0
LINE
  5
12C
330
100
100
AcDbEntity
  8
3-1MA
  6
Continuous
 62
     7
100
AcDbLine
 10
553.5390592707
 20
558.9365500156
 30
0.0
 11
535.0375363383
 21
559.5826374332
 31
0.0
  0
LINE
  5
12D
330
100
100
AcDbEntity
  8
3-1MA
  6
Continuous
 62
     7
100
AcDbLine
 10
550.6422348284
 20
488.5128597126
 30
0.0
 11
550.6422348284
 21
519.7222566928
 31
0.0
  0
LINE
  5
12E
330
100
100
AcDbEntity
  8
3-1MA
  6
Continuous
 62
     7
100
AcDbLine
 10
550.6422348284
 20
519.7222566928
 30
0.0
 11
553.5390592707
 21
522.6190811351
 31
0.0
  0
LINE
  5
12F
330
100
100
AcDbEntity
  8
3-1MA
  6
Continuous
 62
     7
100
AcDbLine
 10
553.5390592707
 20
485.6160352702
 30
0.0
 11
550.6422348284
 21
488.5128597126
 31
0.0
  0
LINE
  5
130
330
100
100
AcDbEntity
  8
3-1MA
  6
Continuous
 62
     7
100
AcDbLine
 10
553.5375363383
 20
485.6175582027
 30
0.0
 11
553.5375363383
 21
522.6175582027
 31
0.0
  0
LINE
  5
131
330
100
100
AcDbEntity
  8
3-1MA
  6
Continuous
 62
     7
100
AcDbLine
 10
553.5390592707
 20
558.9365500156
 30
0.0
 11
554.0836940563
 21
558.3725641852
 31
0.0
  0
LINE
  5
132
330
100
100
AcDbEntity
  8
3-1MA
  6
Continuous
 62
     7
100
AcDbLine
 10
555.0375363383
 20
450.8502848177
 30
0.0
 11
555.0375363383
 21
484.1175582027
 31
0.0
  0
LINE
  5
133
330
100
100
AcDbEntity
  8
3-1MA
  6
Continuous
 62
     7
100
AcDbLine
 10
555.0375363383
 20
484.1175582027
 30
0.0
 11
553.5390592707
 21
485.6160352702
 31
0.0
  0
LINE
  5
134
330
100
100
AcDbEntity
  8
3-1MA
  6
Continuous
 62
     7
100
AcDbLine
 10
553.5390592707
 20
485.6160352702
 30
0.0
 11
553.5390592707
 21
450.3996410299
 31
0.0
  0
LINE
  5
135
330
100
100
AcDbEntity
  8
3-1MA
  6
Continuous
 62
     7
100
AcDbLine
 10
553.5390592707
 20
450.3996410299
 30
0.0
 11
554.0836940563
 21
449.8625522202
 31
0.0
  0
LINE
  5
136
330
100
100
AcDbEntity
  8
3-1MA
  6
Continuous
 62
     7
100
AcDbLine
 10
554.0836940563
 20
449.8625522202
 30
0.0
 11
555.0375363383
 21
450.8502848177
 31
0.0
  0
LINE
  5
137
330
100
100
AcDbEntity
  8
3-1MA
  6
Continuous
 62
     7
100
AcDbLine
 10
555.0375363383
 20
524.1175582027
 30
0.0
 11
555.0375363383
 21
557.3848315877
 31
0.0
  0
LINE
  5
138
330
100
100
AcDbEntity
  8
3-1MA
  6
Continuous
 62
     7
100
AcDbLine
 10
555.0375363383
 20
557.3848315877
 30
0.0
 11
554.0836940563
 21
558.3725641852
 31
0.0
  0
LINE
  5
139
330
100
100
AcDbEntity
  8
3-1MA
  6
Continuous
 62
     7
100
AcDbLine
 10
554.0836940563
 20
558.3725641852
 30
0.0
 11
553.5390592707
 21
557.8354753755
 31
0.0
  0
LINE
  5
13A
330
100
100
AcDbEntity
  8
3-1MA
  6
Continuous
 62
     7
100
AcDbLine
 10
553.5390592707
 20
557.8354753755
 30
0.0
 11
553.5390592707
 21
522.6190811351
 31
0.0
  0
LINE
  5
13B
330
100
100
AcDbEntity
  8
3-1MA
  6
Continuous
 62
     7
100
AcDbLine
 10
553.5390592707
 20
522.6190811351
 30
0.0
 11
555.0375363383
 21
524.1175582027
 31
0.0
  0
LINE
  5
13C
330
100
100
AcDbEntity
  8
3-1MA
  6
Continuous
 62
     7
100
AcDbLine
 10
553.5375363383
 20
513.9325127789
 30
0.0
 11
555.5375363383
 21
513.9325127789
 31
0.0
  0
LINE
  5
13D
330
100
100
AcDbEntity
  8
3-1MA
  6
Continuous
 62
     7
100
AcDbLine
 10
553.5375363383
 20
509.0250354908
 30
0.0
 11
555.5375363383
 21
509.0250354908
 31
0.0
  0
LINE
  5
13E
330
100
100
AcDbEntity
  8
3-1MA
  6
Continuous
 62
     7
100
AcDbLine
 10
555.5375363383
 20
509.0250354908
 30
0.0
 11
555.5375363383
 21
513.9325127789
 31
0.0
  0
LINE
  5
13F
330
100
100
AcDbEntity
  8
3-1MA
  6
Continuous
 62
     7
100
AcDbLine
 10
553.5375363383
 20
499.2100809146
 30
0.0
 11
555.5375363383
 21
499.2100809146
 31
0.0
  0
LINE
  5
140
330
100
100
AcDbEntity
  8
3-1MA
  6
Continuous
 62
     7
100
AcDbLine
 10
555.5375363383
 20
499.2100809146
 30
0.0
 11
555.5375363383
 21
509.0250354908
 31
0.0
  0
LINE
  5
141
330
100
100
AcDbEntity
  8
3-1MA
  6
Continuous
 62
     7
100
AcDbLine
 10
553.5375363383
 20
494.3026036265
 30
0.0
 11
555.5375363383
 21
494.3026036265
 31
0.0
  0
LINE
  5
142
330
100
100
AcDbEntity
  8
3-1MA
  6
Continuous
 62
     7
100
AcDbLine
 10
555.5375363383
 20
494.3026036265
 30
0.0
 11
555.5375363383
 21
499.2100809146
 31
0.0
  0
LINE
  5
143
330
100
100
AcDbEntity
  8
3-1MA
  6
Continuous
 62
     7
100
AcDbLine
 10
556.0375363383
 20
508.7363603562
 30
0.0
 11
556.0375363383
 21
499.4987560492
 31
0.0
  0
LINE
  5
144
330
100
100
AcDbEntity
  8
3-1MA
  6
Continuous
 62
     7
100
AcDbLine
 10
556.0375363383
 20
499.4987560492
 30
0.0
 11
556.0375363383
 21
494.8799538957
 31
0.0
  0
LINE
  5
145
330
100
100
AcDbEntity
  8
3-1MA
  6
Continuous
 62
     7
100
AcDbLine
 10
556.0375363383
 20
513.3551625097
 30
0.0
 11
556.0375363383
 21
508.7363603562
 31
0.0
  0
LINE
  5
146
330
100
100
AcDbEntity
  8
3-1MA
  6
Continuous
 62
     7
100
AcDbLine
 10
557.0375363383
 20
510.6175582027
 30
0.0
 11
557.0375363383
 21
497.6175582027
 31
0.0
  0
LINE
  5
147
330
100
100
AcDbEntity
  8
3-1MA
  6
Continuous
 62
     7
100
AcDbLine
 10
555.5375363383
 20
513.9325127789
 30
0.0
 11
556.0375363383
 21
513.3551625097
 31
0.0
  0
LINE
  5
148
330
100
100
AcDbEntity
  8
3-1MA
  6
Continuous
 62
     7
100
AcDbLine
 10
555.5375363383
 20
494.3026036265
 30
0.0
 11
556.0375363383
 21
494.8799538957
 31
0.0
  0
LINE
  5
149
330
100
100
AcDbEntity
  8
3-1MA
  6
Continuous
 62
     7
100
AcDbLine
 10
556.0375363383
 20
508.7363603562
 30
0.0
 11
555.5375363383
 21
509.0250354908
 31
0.0
  0
LINE
  5
14A
330
100
100
AcDbEntity
  8
3-1MA
  6
Continuous
 62
     7
100
AcDbLine
 10
555.5375363383
 20
499.2100809146
 30
0.0
 11
556.0375363383
 21
499.4987560492
 31
0.0
  0
CIRCLE
  5
14B
330
100
100
AcDbEntity
  8
3-1MA
  6
Continuous
 62
     7
100
AcDbCircle
 10
442.0375363383
 20
504.1175582027
 30
0.0
 40
9.5
  0
LINE
  5
14C
330
100
100
AcDbEntity
  8
3-1MA
  6
Continuous
 62
     7
100
AcDbLine
 10
439.0375363383
 20
505.8496090103
 30
0.0
 11
442.0375363383
 21
507.5816598178
 31
0.0
  0
LINE
  5
14D
330
100
100
AcDbEntity
  8
3-1MA
  6
Continuous
 62
     7
100
AcDbLine
 10
442.0375363383
 20
507.5816598178
 30
0.0
 11
445.0375363383
 21
505.8496090103
 31
0.0
  0
LINE
  5
14E
330
100
100
AcDbEntity
  8
3-1MA
  6
Continuous
 62
     7
100
AcDbLine
 10
445.0375363383
 20
505.8496090103
 30
0.0
 11
445.0375363383
 21
502.3855073951
 31
0.0
  0
LINE
  5
14F
330
100
100
AcDbEntity
  8
3-1MA
  6
Continuous
 62
     7
100
AcDbLine
 10
445.0375363383
 20
502.3855073951
 30
0.0
 11
442.0375363383
 21
500.6534565876
 31
0.0
  0
LINE
  5
150
330
100
100
AcDbEntity
  8
3-1MA
  6
Continuous
 62
     7
100
AcDbLine
 10
442.0375363383
 20
500.6534565876
 30
0.0
 11
439.0375363383
 21
502.3855073951
 31
0.0
  0
LINE
  5
151
330
100
100
AcDbEntity
  8
3-1MA
  6
Continuous
 62
     7
100
AcDbLine
 10
439.0375363383
 20
502.3855073951
 30
0.0
 11
439.0375363383
 21
505.8496090103
 31
0.0
  0
CIRCLE
  5
152
330
100
100
AcDbEntity
  8
3-1MA
  6
Continuous
 62
     7
100
AcDbCircle
 10
442.0375363383
 20
504.1175582027
 30
0.0
 40
9.0
  0
LINE
  5
153
330
100
100
AcDbEntity
  8
3-1MA
  6
Continuous
 62
     7
100
AcDbLine
 10
421.9375363383
 20
471.6175582027
 30
0.0
 11
421.9375363383
 21
490.6175582027
 31
0.0
  0
LINE
  5
154
330
100
100
AcDbEntity
  8
3-1MA
  6
Continuous
 62
     7
100
AcDbLine
 10
421.4375363383
 20
472.1175582027
 30
0.0
 11
421.4375363383
 21
490.1175582027
 31
0.0
  0
ARC
  5
155
330
100
100
AcDbEntity
  8
3-1MA
  6
Continuous
 62
     7
100
AcDbCircle
 10
556.0375363383
 20
510.6175582027
 30
0.0
 40
1.000000000000001
100
AcDbArc
 50
0.0
 51
90.0
  0
ARC
  5
156
330
100
100
AcDbEntity
  8
3-1MA
  6
Continuous
 62
     7
100
AcDbCircle
 10
556.0375363383
 20
497.6175582027
 30
0.0
 40
0.999999999999987
100
AcDbArc
 50
270.0
 51
0.0
  0
LINE
  5
157
330
100
100
AcDbEntity
  8
3-1MA
  6
Continuous
 62
     7
100
AcDbLine
 10
421.9375363383
 20
471.6175582027
 30
0.0
 11
422.0375363383
 21
471.6175582027
 31
0.0
  0
LINE
  5
158
330
100
100
AcDbEntity
  8
3-1MA
  6
Continuous
 62
     7
100
AcDbLine
 10
422.0375363383
 20
490.6175582027
 30
0.0
 11
421.9375363383
 21
490.6175582027
 31
0.0
  0
LINE
  5
159
330
100
100
AcDbEntity
  8
3-1MA
  6
Continuous
 62
     7
100
AcDbLine
 10
421.9375363383
 20
490.6175582027
 30
0.0
 11
421.4375363383
 21
490.1175582027
 31
0.0
  0
LINE
  5
15A
330
100
100
AcDbEntity
  8
3-1MA
  6
Continuous
 62
     7
100
AcDbLine
 10
421.4375363383
 20
472.1175582027
 30
0.0
 11
421.9375363383
 21
471.6175582027
 31
0.0
  0
ENDBLK
  5
15C
330
100
100
AcDbEntity
  8
0
100
AcDbBlockEnd
  0
BLOCK
  5
1C9
330
15D
100
AcDbEntity
  8
0
100
AcDbBlockBegin
  2
SE2
 70
     0
 10
0.0
 20
0.0
 30
0.0
  3
SE2
  1

  0
LINE
  5
15F
330
15D
100
AcDbEntity
  8
3-1MA
  6
Continuous
 62
     7
100
AcDbLine
 10
535.0375363383
 20
46.3508250269
 30
0.0
 11
421.0375363383
 21
46.3508250269
 31
0.0
  0
LINE
  5
160
330
15D
100
AcDbEntity
  8
3-1MA
  6
Continuous
 62
     7
100
AcDbLine
 10
421.0375363383
 20
81.3508250269
 30
0.0
 11
421.0375363383
 21
82.8508250269
 31
0.0
  0
LINE
  5
161
330
15D
100
AcDbEntity
  8
3-1MA
  6
Continuous
 62
     7
100
AcDbLine
 10
535.0375363383
 20
81.3508250269
 30
0.0
 11
421.0375363383
 21
81.3508250269
 31
0.0
  0
LINE
  5
162
330
15D
100
AcDbEntity
  8
3-1MA
  6
Continuous
 62
     7
100
AcDbLine
 10
535.0375363383
 20
82.8508250269
 30
0.0
 11
535.0375363383
 21
81.3508250269
 31
0.0
  0
LINE
  5
163
330
15D
100
AcDbEntity
  8
3-1MA
  6
Continuous
 62
     7
100
AcDbLine
 10
535.0375363383
 20
82.8508250269
 30
0.0
 11
421.0375363383
 21
82.8508250269
 31
0.0
  0
LINE
  5
164
330
15D
100
AcDbEntity
  8
3-1MA
  6
Continuous
 62
     7
100
AcDbLine
 10
421.0375363383
 20
82.8508250269
 30
0.0
 11
421.0375363383
 21
123.8508250269
 31
0.0
  0
LINE
  5
165
330
15D
100
AcDbEntity
  8
3-1MA
  6
Continuous
 62
     7
100
AcDbLine
 10
535.0375363383
 20
123.8508250269
 30
0.0
 11
535.0375363383
 21
82.8508250269
 31
0.0
  0
LINE
  5
166
330
15D
100
AcDbEntity
  8
3-1MA
  6
Continuous
 62
     7
100
AcDbLine
 10
535.0375363383
 20
123.8508250269
 30
0.0
 11
421.0375363383
 21
123.8508250269
 31
0.0
  0
CIRCLE
  5
167
330
15D
100
AcDbEntity
  8
3-1MA
  6
Continuous
 62
     7
100
AcDbCircle
 10
486.0375363383
 20
103.3508250269
 30
0.0
 40
11.0
  0
CIRCLE
  5
168
330
15D
100
AcDbEntity
  8
3-1MA
  6
Continuous
 62
     7
100
AcDbCircle
 10
523.0375363383
 20
103.3508250269
 30
0.0
 40
11.0
  0
LINE
  5
169
330
15D
100
AcDbEntity
  8
3-1MA
  6
Continuous
 62
     7
100
AcDbLine
 10
421.0375363383
 20
123.8508250269
 30
0.0
 11
421.0375363383
 21
125.3508250269
 31
0.0
  0
LINE
  5
16A
330
15D
100
AcDbEntity
  8
3-1MA
  6
Continuous
 62
     7
100
AcDbLine
 10
535.0375363383
 20
125.3508250269
 30
0.0
 11
535.0375363383
 21
123.8508250269
 31
0.0
  0
LINE
  5
16B
330
15D
100
AcDbEntity
  8
3-1MA
  6
Continuous
 62
     7
100
AcDbLine
 10
421.0375363383
 20
125.3508250269
 30
0.0
 11
535.0375363383
 21
125.3508250269
 31
0.0
  0
LINE
  5
16C
330
15D
100
AcDbEntity
  8
3-1MA
  6
Continuous
 62
     7
100
AcDbLine
 10
535.0375363383
 20
160.3508250269
 30
0.0
 11
535.0375363383
 21
157.3508250269
 31
0.0
  0
LINE
  5
16D
330
15D
100
AcDbEntity
  8
3-1MA
  6
Continuous
 62
     7
100
AcDbLine
 10
421.0375363383
 20
160.3508250269
 30
0.0
 11
535.0375363383
 21
160.3508250269
 31
0.0
  0
LINE
  5
16E
330
15D
100
AcDbEntity
  8
3-1MA
  6
Continuous
 62
     7
100
AcDbLine
 10
421.0375363383
 20
157.3508250269
 30
0.0
 11
421.0375363383
 21
160.3508250269
 31
0.0
  0
LINE
  5
16F
330
15D
100
AcDbEntity
  8
3-1MA
  6
Continuous
 62
     7
100
AcDbLine
 10
535.0375363383
 20
157.3508250269
 30
0.0
 11
421.0375363383
 21
157.3508250269
 31
0.0
  0
LINE
  5
170
330
15D
100
AcDbEntity
  8
3-1MA
  6
Continuous
 62
     7
100
AcDbLine
 10
421.0375363383
 20
81.3508250269
 30
0.0
 11
421.0375363383
 21
49.3508250269
 31
0.0
  0
LINE
  5
171
330
15D
100
AcDbEntity
  8
3-1MA
  6
Continuous
 62
     7
100
AcDbLine
 10
421.0375363383
 20
49.3508250269
 30
0.0
 11
535.0375363383
 21
49.3508250269
 31
0.0
  0
LINE
  5
172
330
15D
100
AcDbEntity
  8
3-1MA
  6
Continuous
 62
     7
100
AcDbLine
 10
535.0375363383
 20
49.3508250269
 30
0.0
 11
535.0375363383
 21
81.3508250269
 31
0.0
  0
CIRCLE
  5
173
330
15D
100
AcDbEntity
  8
3-1MA
  6
Continuous
 62
     7
100
AcDbCircle
 10
518.5375363383
 20
55.8508250269
 30
0.0
 40
3.05
  0
CIRCLE
  5
174
330
15D
100
AcDbEntity
  8
3-1MA
  6
Continuous
 62
     7
100
AcDbCircle
 10
438.5375363383
 20
55.8508250269
 30
0.0
 40
3.05
  0
LINE
  5
175
330
15D
100
AcDbEntity
  8
3-1MA
  6
Continuous
 62
     7
100
AcDbLine
 10
535.0375363383
 20
125.3508250269
 30
0.0
 11
535.0375363383
 21
157.3508250269
 31
0.0
  0
LINE
  5
176
330
15D
100
AcDbEntity
  8
3-1MA
  6
Continuous
 62
     7
100
AcDbLine
 10
421.0375363383
 20
157.3508250269
 30
0.0
 11
421.0375363383
 21
125.3508250269
 31
0.0
  0
CIRCLE
  5
177
330
15D
100
AcDbEntity
  8
3-1MA
  6
Continuous
 62
     7
100
AcDbCircle
 10
518.5375363383
 20
150.8508250269
 30
0.0
 40
3.05
  0
CIRCLE
  5
178
330
15D
100
AcDbEntity
  8
3-1MA
  6
Continuous
 62
     7
100
AcDbCircle
 10
438.5375363383
 20
150.8508250269
 30
0.0
 40
3.05
  0
LINE
  5
179
330
15D
100
AcDbEntity
  8
3-1MA
  6
Continuous
 62
     7
100
AcDbLine
 10
535.0375363383
 20
49.3508250269
 30
0.0
 11
535.0375363383
 21
46.3508250269
 31
0.0
  0
LINE
  5
17A
330
15D
100
AcDbEntity
  8
3-1MA
  6
Continuous
 62
     7
100
AcDbLine
 10
421.0375363383
 20
46.3508250269
 30
0.0
 11
421.0375363383
 21
49.3508250269
 31
0.0
  0
CIRCLE
  5
17B
330
15D
100
AcDbEntity
  8
3-1MA
  6
Continuous
 62
     7
100
AcDbCircle
 10
518.5375363383
 20
150.8508250269
 30
0.0
 40
2.5
  0
CIRCLE
  5
17C
330
15D
100
AcDbEntity
  8
3-1MA
  6
Continuous
 62
     7
100
AcDbCircle
 10
438.5375363383
 20
150.8508250269
 30
0.0
 40
2.5
  0
CIRCLE
  5
17D
330
15D
100
AcDbEntity
  8
3-1MA
  6
Continuous
 62
     7
100
AcDbCircle
 10
518.5375363383
 20
55.8508250269
 30
0.0
 40
2.5
  0
CIRCLE
  5
17E
330
15D
100
AcDbEntity
  8
3-1MA
  6
Continuous
 62
     7
100
AcDbCircle
 10
438.5375363383
 20
55.8508250269
 30
0.0
 40
2.5
  0
LINE
  5
17F
330
15D
100
AcDbEntity
  8
3-1MA
  6
Continuous
 62
     7
100
AcDbLine
 10
486.0375363383
 20
93.5358704507
 30
0.0
 11
477.5375363383
 21
98.4433477388
 31
0.0
  0
LINE
  5
180
330
15D
100
AcDbEntity
  8
3-1MA
  6
Continuous
 62
     7
100
AcDbLine
 10
494.5375363383
 20
98.4433477388
 30
0.0
 11
486.0375363383
 21
93.5358704507
 31
0.0
  0
LINE
  5
181
330
15D
100
AcDbEntity
  8
3-1MA
  6
Continuous
 62
     7
100
AcDbLine
 10
494.5375363383
 20
108.258302315
 30
0.0
 11
494.5375363383
 21
98.4433477388
 31
0.0
  0
LINE
  5
182
330
15D
100
AcDbEntity
  8
3-1MA
  6
Continuous
 62
     7
100
AcDbLine
 10
486.0375363383
 20
113.1657796031
 30
0.0
 11
489.6238100607
 21
111.0952435041
 31
0.0
  0
LINE
  5
183
330
15D
100
AcDbEntity
  8
3-1MA
  6
Continuous
 62
     7
100
AcDbLine
 10
490.8831316288
 20
110.3681738578
 30
0.0
 11
494.5375363383
 21
108.258302315
 31
0.0
  0
LINE
  5
184
330
15D
100
AcDbEntity
  8
3-1MA
  6
Continuous
 62
     7
100
AcDbLine
 10
477.5375363383
 20
108.258302315
 30
0.0
 11
480.9994584318
 21
110.2570439676
 31
0.0
  0
LINE
  5
185
330
15D
100
AcDbEntity
  8
3-1MA
  6
Continuous
 62
     7
100
AcDbLine
 10
482.5882782318
 20
111.1743495069
 30
0.0
 11
486.0375363383
 21
113.1657796031
 31
0.0
  0
LINE
  5
186
330
15D
100
AcDbEntity
  8
3-1MA
  6
Continuous
 62
     7
100
AcDbLine
 10
477.5375363383
 20
98.4433477388
 30
0.0
 11
477.5375363383
 21
102.8371407348
 31
0.0
  0
LINE
  5
187
330
15D
100
AcDbEntity
  8
3-1MA
  6
Continuous
 62
     7
100
AcDbLine
 10
477.5375363383
 20
103.957803319
 30
0.0
 11
477.5375363383
 21
108.258302315
 31
0.0
  0
LINE
  5
188
330
15D
100
AcDbEntity
  8
3-1MA
  6
Continuous
 62
     7
100
AcDbLine
 10
486.0375363383
 20
112.588429334
 30
0.0
 11
484.6479719394
 21
111.7861639542
 31
0.0
  0
LINE
  5
189
330
15D
100
AcDbEntity
  8
3-1MA
  6
Continuous
 62
     7
100
AcDbLine
 10
479.4397647242
 20
108.7792041165
 30
0.0
 11
478.0375363383
 21
107.9696271804
 31
0.0
  0
LINE
  5
18A
330
15D
100
AcDbEntity
  8
3-1MA
  6
Continuous
 62
     7
100
AcDbLine
 10
478.0375363383
 20
107.9696271804
 30
0.0
 11
478.0375363383
 21
106.3207376934
 31
0.0
  0
LINE
  5
18B
330
15D
100
AcDbEntity
  8
3-1MA
  6
Continuous
 62
     7
100
AcDbLine
 10
478.0375363383
 20
100.4742063604
 30
0.0
 11
478.0375363383
 21
98.7320228734
 31
0.0
  0
LINE
  5
18C
330
15D
100
AcDbEntity
  8
3-1MA
  6
Continuous
 62
     7
100
AcDbLine
 10
478.0375363383
 20
98.7320228734
 30
0.0
 11
479.5924676771
 21
97.8342828464
 31
0.0
  0
LINE
  5
18D
330
15D
100
AcDbEntity
  8
3-1MA
  6
Continuous
 62
     7
100
AcDbLine
 10
484.4144740124
 20
95.0502961906
 30
0.0
 11
486.0375363383
 21
94.1132207199
 31
0.0
  0
LINE
  5
18E
330
15D
100
AcDbEntity
  8
3-1MA
  6
Continuous
 62
     7
100
AcDbLine
 10
486.0375363383
 20
94.1132207199
 30
0.0
 11
487.679561264
 21
95.0612442528
 31
0.0
  0
LINE
  5
18F
330
15D
100
AcDbEntity
  8
3-1MA
  6
Continuous
 62
     7
100
AcDbLine
 10
492.4081753996
 20
97.7913108968
 30
0.0
 11
494.0375363383
 21
98.7320228734
 31
0.0
  0
LINE
  5
190
330
15D
100
AcDbEntity
  8
3-1MA
  6
Continuous
 62
     7
100
AcDbLine
 10
494.0375363383
 20
98.7320228734
 30
0.0
 11
494.0375363383
 21
100.5772177552
 31
0.0
  0
LINE
  5
191
330
15D
100
AcDbEntity
  8
3-1MA
  6
Continuous
 62
     7
100
AcDbLine
 10
494.0375363383
 20
106.2177262986
 30
0.0
 11
494.0375363383
 21
107.9696271804
 31
0.0
  0
LINE
  5
192
330
15D
100
AcDbEntity
  8
3-1MA
  6
Continuous
 62
     7
100
AcDbLine
 10
494.0375363383
 20
107.9696271804
 30
0.0
 11
492.5648392218
 21
108.8198892571
 31
0.0
  0
LINE
  5
193
330
15D
100
AcDbEntity
  8
3-1MA
  6
Continuous
 62
     7
100
AcDbLine
 10
487.4421024678
 20
111.777502701
 30
0.0
 11
486.0375363383
 21
112.588429334
 31
0.0
  0
CIRCLE
  5
194
330
15D
100
AcDbEntity
  8
3-1MA
  6
Continuous
 62
     7
100
AcDbCircle
 10
486.0190473383
 20
103.3974720269
 30
0.0
 40
7.0
  0
CIRCLE
  5
195
330
15D
100
AcDbEntity
  8
3-1MA
  6
Continuous
 62
     7
100
AcDbCircle
 10
486.0190473383
 20
103.3974720269
 30
0.0
 40
8.5
  0
LINE
  5
196
330
15D
100
AcDbEntity
  8
3-1MA
  6
Continuous
 62
     7
100
AcDbLine
 10
486.0375363383
 20
94.1132207199
 30
0.0
 11
486.0375363383
 21
93.5358704507
 31
0.0
  0
LINE
  5
197
330
15D
100
AcDbEntity
  8
3-1MA
  6
Continuous
 62
     7
100
AcDbLine
 10
494.0375363383
 20
98.7320228734
 30
0.0
 11
494.5375363383
 21
98.4433477388
 31
0.0
  0
LINE
  5
198
330
15D
100
AcDbEntity
  8
3-1MA
  6
Continuous
 62
     7
100
AcDbLine
 10
494.5375363383
 20
108.258302315
 30
0.0
 11
494.0375363383
 21
107.9696271804
 31
0.0
  0
LINE
  5
199
330
15D
100
AcDbEntity
  8
3-1MA
  6
Continuous
 62
     7
100
AcDbLine
 10
477.5375363383
 20
98.4433477388
 30
0.0
 11
478.0375363383
 21
98.7320228734
 31
0.0
  0
LINE
  5
19A
330
15D
100
AcDbEntity
  8
3-1MA
  6
Continuous
 62
     7
100
AcDbLine
 10
486.0375363383
 20
112.588429334
 30
0.0
 11
486.0375363383
 21
113.1657796031
 31
0.0
  0
LINE
  5
19B
330
15D
100
AcDbEntity
  8
3-1MA
  6
Continuous
 62
     7
100
AcDbLine
 10
477.5375363383
 20
108.258302315
 30
0.0
 11
478.0375363383
 21
107.9696271804
 31
0.0
  0
CIRCLE
  5
19C
330
15D
100
AcDbEntity
  8
3-1MA
  6
Continuous
 62
     7
100
AcDbCircle
 10
523.0375363383
 20
103.3508250269
 30
0.0
 40
9.5
  0
LINE
  5
19D
330
15D
100
AcDbEntity
  8
3-1MA
  6
Continuous
 62
     7
100
AcDbLine
 10
520.0375363383
 20
105.0828758345
 30
0.0
 11
523.0375363383
 21
106.8149266421
 31
0.0
  0
LINE
  5
19E
330
15D
100
AcDbEntity
  8
3-1MA
  6
Continuous
 62
     7
100
AcDbLine
 10
523.0375363383
 20
106.8149266421
 30
0.0
 11
526.0375363383
 21
105.0828758345
 31
0.0
  0
LINE
  5
19F
330
15D
100
AcDbEntity
  8
3-1MA
  6
Continuous
 62
     7
100
AcDbLine
 10
526.0375363383
 20
105.0828758345
 30
0.0
 11
526.0375363383
 21
101.6187742194
 31
0.0
  0
LINE
  5
1A0
330
15D
100
AcDbEntity
  8
3-1MA
  6
Continuous
 62
     7
100
AcDbLine
 10
526.0375363383
 20
101.6187742194
 30
0.0
 11
523.0375363383
 21
99.8867234118
 31
0.0
  0
LINE
  5
1A1
330
15D
100
AcDbEntity
  8
3-1MA
  6
Continuous
 62
     7
100
AcDbLine
 10
523.0375363383
 20
99.8867234118
 30
0.0
 11
520.0375363383
 21
101.6187742194
 31
0.0
  0
LINE
  5
1A2
330
15D
100
AcDbEntity
  8
3-1MA
  6
Continuous
 62
     7
100
AcDbLine
 10
520.0375363383
 20
101.6187742194
 30
0.0
 11
520.0375363383
 21
105.0828758345
 31
0.0
  0
CIRCLE
  5
1A3
330
15D
100
AcDbEntity
  8
3-1MA
  6
Continuous
 62
     7
100
AcDbCircle
 10
523.0375363383
 20
103.3508250269
 30
0.0
 40
9.0
  0
LINE
  5
1A4
330
15D
100
AcDbEntity
  8
3-1MA
  6
Continuous
 62
     7
100
AcDbLine
 10
553.5390592707
 20
48.531833214
 30
0.0
 11
535.0375363383
 21
47.8857457964
 31
0.0
  0
LINE
  5
1A5
330
15D
100
AcDbEntity
  8
3-1MA
  6
Continuous
 62
     7
100
AcDbLine
 10
535.0375363383
 20
157.3363603706
 30
0.0
 11
553.5390592707
 21
157.0687421998
 31
0.0
  0
LINE
  5
1A6
330
15D
100
AcDbEntity
  8
3-1MA
  6
Continuous
 62
     7
100
AcDbLine
 10
554.0836940563
 20
157.6058310094
 30
0.0
 11
553.5390592707
 21
158.1698168399
 31
0.0
  0
LINE
  5
1A7
330
15D
100
AcDbEntity
  8
3-1MA
  6
Continuous
 62
     7
100
AcDbLine
 10
553.5390592707
 20
158.1698168399
 30
0.0
 11
535.0375363383
 21
158.8159042574
 31
0.0
  0
LINE
  5
1A8
330
15D
100
AcDbEntity
  8
3-1MA
  6
Continuous
 62
     7
100
AcDbLine
 10
550.6422348284
 20
87.7461265368
 30
0.0
 11
550.6422348284
 21
118.955523517
 31
0.0
  0
LINE
  5
1A9
330
15D
100
AcDbEntity
  8
3-1MA
  6
Continuous
 62
     7
100
AcDbLine
 10
550.6422348284
 20
118.955523517
 30
0.0
 11
553.5390592707
 21
121.8523479594
 31
0.0
  0
LINE
  5
1AA
330
15D
100
AcDbEntity
  8
3-1MA
  6
Continuous
 62
     7
100
AcDbLine
 10
553.5390592707
 20
49.6329078541
 30
0.0
 11
553.5390592707
 21
84.8493020945
 31
0.0
  0
LINE
  5
1AB
330
15D
100
AcDbEntity
  8
3-1MA
  6
Continuous
 62
     7
100
AcDbLine
 10
553.5390592707
 20
84.8493020945
 30
0.0
 11
550.6422348284
 21
87.7461265368
 31
0.0
  0
LINE
  5
1AC
330
15D
100
AcDbEntity
  8
3-1MA
  6
Continuous
 62
     7
100
AcDbLine
 10
553.5390592707
 20
48.531833214
 30
0.0
 11
554.0836940563
 21
49.0958190444
 31
0.0
  0
LINE
  5
1AD
330
15D
100
AcDbEntity
  8
3-1MA
  6
Continuous
 62
     7
100
AcDbLine
 10
554.0836940563
 20
49.0958190444
 30
0.0
 11
553.5390592707
 21
49.6329078541
 31
0.0
  0
LINE
  5
1AE
330
15D
100
AcDbEntity
  8
3-1MA
  6
Continuous
 62
     7
100
AcDbLine
 10
553.5390592707
 20
49.6329078541
 30
0.0
 11
535.0375363383
 21
49.3652896833
 31
0.0
  0
LINE
  5
1AF
330
15D
100
AcDbEntity
  8
3-1MA
  6
Continuous
 62
     7
100
AcDbLine
 10
553.5390592707
 20
84.8493020945
 30
0.0
 11
555.0375363383
 21
83.3508250269
 31
0.0
  0
LINE
  5
1B0
330
15D
100
AcDbEntity
  8
3-1MA
  6
Continuous
 62
     7
100
AcDbLine
 10
553.5375363383
 20
84.8508250269
 30
0.0
 11
553.5375363383
 21
121.8508250269
 31
0.0
  0
LINE
  5
1B1
330
15D
100
AcDbEntity
  8
3-1MA
  6
Continuous
 62
     7
100
AcDbLine
 10
555.0375363383
 20
50.0835516419
 30
0.0
 11
554.0836940563
 21
49.0958190444
 31
0.0
  0
LINE
  5
1B2
330
15D
100
AcDbEntity
  8
3-1MA
  6
Continuous
 62
     7
100
AcDbLine
 10
553.5390592707
 20
157.0687421998
 30
0.0
 11
553.5390592707
 21
121.8523479594
 31
0.0
  0
LINE
  5
1B3
330
15D
100
AcDbEntity
  8
3-1MA
  6
Continuous
 62
     7
100
AcDbLine
 10
553.5390592707
 20
121.8523479594
 30
0.0
 11
555.0375363383
 21
123.3508250269
 31
0.0
  0
LINE
  5
1B4
330
15D
100
AcDbEntity
  8
3-1MA
  6
Continuous
 62
     7
100
AcDbLine
 10
555.0375363383
 20
123.3508250269
 30
0.0
 11
555.0375363383
 21
156.6180984119
 31
0.0
  0
LINE
  5
1B5
330
15D
100
AcDbEntity
  8
3-1MA
  6
Continuous
 62
     7
100
AcDbLine
 10
555.0375363383
 20
156.6180984119
 30
0.0
 11
554.0836940563
 21
157.6058310094
 31
0.0
  0
LINE
  5
1B6
330
15D
100
AcDbEntity
  8
3-1MA
  6
Continuous
 62
     7
100
AcDbLine
 10
554.0836940563
 20
157.6058310094
 30
0.0
 11
553.5390592707
 21
157.0687421998
 31
0.0
  0
LINE
  5
1B7
330
15D
100
AcDbEntity
  8
3-1MA
  6
Continuous
 62
     7
100
AcDbLine
 10
555.0375363383
 20
83.3508250269
 30
0.0
 11
555.0375363383
 21
50.0835516419
 31
0.0
  0
LINE
  5
1B8
330
15D
100
AcDbEntity
  8
3-1MA
  6
Continuous
 62
     7
100
AcDbLine
 10
553.5375363383
 20
93.5358704507
 30
0.0
 11
555.5375363383
 21
93.5358704507
 31
0.0
  0
LINE
  5
1B9
330
15D
100
AcDbEntity
  8
3-1MA
  6
Continuous
 62
     7
100
AcDbLine
 10
555.5375363383
 20
93.5358704507
 30
0.0
 11
555.5375363383
 21
98.4433477388
 31
0.0
  0
LINE
  5
1BA
330
15D
100
AcDbEntity
  8
3-1MA
  6
Continuous
 62
     7
100
AcDbLine
 10
553.5375363383
 20
113.1657796031
 30
0.0
 11
555.5375363383
 21
113.1657796031
 31
0.0
  0
LINE
  5
1BB
330
15D
100
AcDbEntity
  8
3-1MA
  6
Continuous
 62
     7
100
AcDbLine
 10
553.5375363383
 20
108.258302315
 30
0.0
 11
555.5375363383
 21
108.258302315
 31
0.0
  0
LINE
  5
1BC
330
15D
100
AcDbEntity
  8
3-1MA
  6
Continuous
 62
     7
100
AcDbLine
 10
555.5375363383
 20
108.258302315
 30
0.0
 11
555.5375363383
 21
113.1657796031
 31
0.0
  0
LINE
  5
1BD
330
15D
100
AcDbEntity
  8
3-1MA
  6
Continuous
 62
     7
100
AcDbLine
 10
553.5375363383
 20
98.4433477388
 30
0.0
 11
555.5375363383
 21
98.4433477388
 31
0.0
  0
LINE
  5
1BE
330
15D
100
AcDbEntity
  8
3-1MA
  6
Continuous
 62
     7
100
AcDbLine
 10
555.5375363383
 20
98.4433477388
 30
0.0
 11
555.5375363383
 21
108.258302315
 31
0.0
  0
LINE
  5
1BF
330
15D
100
AcDbEntity
  8
3-1MA
  6
Continuous
 62
     7
100
AcDbLine
 10
556.0375363383
 20
112.588429334
 30
0.0
 11
556.0375363383
 21
107.9696271804
 31
0.0
  0
LINE
  5
1C0
330
15D
100
AcDbEntity
  8
3-1MA
  6
Continuous
 62
     7
100
AcDbLine
 10
556.0375363383
 20
107.9696271804
 30
0.0
 11
556.0375363383
 21
98.7320228734
 31
0.0
  0
LINE
  5
1C1
330
15D
100
AcDbEntity
  8
3-1MA
  6
Continuous
 62
     7
100
AcDbLine
 10
556.0375363383
 20
98.7320228734
 30
0.0
 11
556.0375363383
 21
94.1132207199
 31
0.0
  0
LINE
  5
1C2
330
15D
100
AcDbEntity
  8
3-1MA
  6
Continuous
 62
     7
100
AcDbLine
 10
557.0375363383
 20
96.8508250269
 30
0.0
 11
557.0375363383
 21
109.8508250269
 31
0.0
  0
LINE
  5
1C3
330
15D
100
AcDbEntity
  8
3-1MA
  6
Continuous
 62
     7
100
AcDbLine
 10
556.0375363383
 20
98.7320228734
 30
0.0
 11
555.5375363383
 21
98.4433477388
 31
0.0
  0
LINE
  5
1C4
330
15D
100
AcDbEntity
  8
3-1MA
  6
Continuous
 62
     7
100
AcDbLine
 10
555.5375363383
 20
93.5358704507
 30
0.0
 11
556.0375363383
 21
94.1132207199
 31
0.0
  0
LINE
  5
1C5
330
15D
100
AcDbEntity
  8
3-1MA
  6
Continuous
 62
     7
100
AcDbLine
 10
556.0375363383
 20
107.9696271804
 30
0.0
 11
555.5375363383
 21
108.258302315
 31
0.0
  0
LINE
  5
1C6
330
15D
100
AcDbEntity
  8
3-1MA
  6
Continuous
 62
     7
100
AcDbLine
 10
555.5375363383
 20
113.1657796031
 30
0.0
 11
556.0375363383
 21
112.588429334
 31
0.0
  0
ARC
  5
1C7
330
15D
100
AcDbEntity
  8
3-1MA
  6
Continuous
 62
     7
100
AcDbCircle
 10
556.0375363383
 20
109.8508250269
 30
0.0
 40
1.000000000000001
100
AcDbArc
 50
0.0
 51
90.0
  0
ARC
  5
1C8
330
15D
100
AcDbEntity
  8
3-1MA
  6
Continuous
 62
     7
100
AcDbCircle
 10
556.0375363383
 20
96.8508250269
 30
0.0
 40
0.999999999999987
100
AcDbArc
 50
270.0
 51
0.0
  0
ENDBLK
  5
1CA
330
15D
100
AcDbEntity
  8
0
100
AcDbBlockEnd
  0
BLOCK
  5
22F
330
1CB
100
AcDbEntity
  8
0
100
AcDbBlockBegin
  2
SE3
 70
     0
 10
0.0
 20
0.0
 30
0.0
  3
SE3
  1

  0
LINE
  5
1CD
330
1CB
100
AcDbEntity
  8
3-1MA
  6
Continuous
 62
     7
100
AcDbLine
 10
725.9976041477
 20
246.4333028158
 30
0.0
 11
724.4976041477
 21
247.9333028158
 31
0.0
  0
LINE
  5
1CE
330
1CB
100
AcDbEntity
  8
3-1MA
  6
Continuous
 62
     7
100
AcDbLine
 10
611.9976041477
 20
346.4333028158
 30
0.0
 11
613.4976041477
 21
344.9333028158
 31
0.0
  0
LINE
  5
1CF
330
1CB
100
AcDbEntity
  8
3-1MA
  6
Continuous
 62
     7
100
AcDbLine
 10
611.9976041477
 20
215.4333028158
 30
0.0
 11
614.9976041477
 21
212.4333028158
 31
0.0
  0
LINE
  5
1D0
330
1CB
100
AcDbEntity
  8
3-1MA
  6
Continuous
 62
     7
100
AcDbLine
 10
613.4976041477
 20
344.9333028158
 30
0.0
 11
613.4976041477
 21
300.283583016
 31
0.0
  0
LINE
  5
1D1
330
1CB
100
AcDbEntity
  8
3-1MA
  6
Continuous
 62
     7
100
AcDbLine
 10
613.4976041477
 20
298.6003014891
 30
0.0
 11
613.4976041477
 21
247.9333028158
 31
0.0
  0
LINE
  5
1D2
330
1CB
100
AcDbEntity
  8
3-1MA
  6
Continuous
 62
     7
100
AcDbLine
 10
613.4976041477
 20
298.6003014891
 30
0.0
 11
613.4976041477
 21
300.283583016
 31
0.0
  0
LINE
  5
1D3
330
1CB
100
AcDbEntity
  8
3-1MA
  6
Continuous
 62
     7
100
AcDbLine
 10
725.9976041477
 20
378.4333028158
 30
0.0
 11
725.9976041477
 21
346.4333028158
 31
0.0
  0
LINE
  5
1D4
330
1CB
100
AcDbEntity
  8
3-1MA
  6
Continuous
 62
     7
100
AcDbLine
 10
648.4976041477
 20
213.9333028158
 30
0.0
 11
689.4976041477
 21
213.9333028158
 31
0.0
  0
LINE
  5
1D5
330
1CB
100
AcDbEntity
  8
3-1MA
  6
Continuous
 62
     7
100
AcDbLine
 10
646.9976041477
 20
212.4333028158
 30
0.0
 11
648.4976041477
 21
213.9333028158
 31
0.0
  0
LINE
  5
1D6
330
1CB
100
AcDbEntity
  8
3-1MA
  6
Continuous
 62
     7
100
AcDbLine
 10
725.9976041477
 20
215.4333028158
 30
0.0
 11
725.9976041477
 21
246.4333028158
 31
0.0
  0
LINE
  5
1D7
330
1CB
100
AcDbEntity
  8
3-1MA
  6
Continuous
 62
     7
100
AcDbLine
 10
690.9976041477
 20
381.4333028158
 30
0.0
 11
689.4976041477
 21
379.9333028158
 31
0.0
  0
LINE
  5
1D8
330
1CB
100
AcDbEntity
  8
3-1MA
  6
Continuous
 62
     7
100
AcDbLine
 10
689.4976041477
 20
379.9333028158
 30
0.0
 11
648.4976041477
 21
379.9333028158
 31
0.0
  0
LINE
  5
1D9
330
1CB
100
AcDbEntity
  8
3-1MA
  6
Continuous
 62
     7
100
AcDbLine
 10
648.4976041477
 20
379.9333028158
 30
0.0
 11
646.9976041477
 21
381.4333028158
 31
0.0
  0
LINE
  5
1DA
330
1CB
100
AcDbEntity
  8
3-1MA
  6
Continuous
 62
     7
100
AcDbLine
 10
614.9976041477
 20
381.4333028158
 30
0.0
 11
611.9976041477
 21
378.4333028158
 31
0.0
  0
LINE
  5
1DB
330
1CB
100
AcDbEntity
  8
3-1MA
  6
Continuous
 62
     7
100
AcDbLine
 10
690.9976041477
 20
381.4333028158
 30
0.0
 11
722.9976041477
 21
381.4333028158
 31
0.0
  0
LINE
  5
1DC
330
1CB
100
AcDbEntity
  8
3-1MA
  6
Continuous
 62
     7
100
AcDbLine
 10
724.4976041477
 20
300.283583016
 30
0.0
 11
724.4976041477
 21
344.9333028158
 31
0.0
  0
LINE
  5
1DD
330
1CB
100
AcDbEntity
  8
3-1MA
  6
Continuous
 62
     7
100
AcDbLine
 10
724.4976041477
 20
300.283583016
 30
0.0
 11
724.4976041477
 21
298.6003014891
 31
0.0
  0
LINE
  5
1DE
330
1CB
100
AcDbEntity
  8
3-1MA
  6
Continuous
 62
     7
100
AcDbLine
 10
724.4976041477
 20
247.9333028158
 30
0.0
 11
724.4976041477
 21
298.6003014891
 31
0.0
  0
ARC
  5
1DF
330
1CB
100
AcDbEntity
  8
3-1MA
  6
Continuous
 62
     7
100
AcDbCircle
 10
668.9976041477
 20
340.4333028158
 30
0.0
 40
69.50000000000014
100
AcDbArc
 50
217.0070787628
 51
322.9929212372
  0
ARC
  5
1E0
330
1CB
100
AcDbEntity
  8
3-1MA
  6
Continuous
 62
     7
100
AcDbCircle
 10
668.9976041477
 20
340.4333028158
 30
0.0
 40
68.50000000000033
100
AcDbArc
 50
215.8826683118
 51
324.1173316882
  0
LINE
  5
1E1
330
1CB
100
AcDbEntity
  8
3-1MA
  6
Continuous
 62
     7
100
AcDbLine
 10
614.9976041477
 20
381.4333028158
 30
0.0
 11
646.9976041477
 21
381.4333028158
 31
0.0
  0
LINE
  5
1E2
330
1CB
100
AcDbEntity
  8
3-1MA
  6
Continuous
 62
     7
100
AcDbLine
 10
614.9976041477
 20
212.4333028158
 30
0.0
 11
646.9976041477
 21
212.4333028158
 31
0.0
  0
LINE
  5
1E3
330
1CB
100
AcDbEntity
  8
3-1MA
  6
Continuous
 62
     7
100
AcDbLine
 10
722.9976041477
 20
212.4333028158
 30
0.0
 11
725.9976041477
 21
215.4333028158
 31
0.0
  0
LINE
  5
1E4
330
1CB
100
AcDbEntity
  8
3-1MA
  6
Continuous
 62
     7
100
AcDbLine
 10
611.9976041477
 20
246.4333028158
 30
0.0
 11
611.9976041477
 21
215.4333028158
 31
0.0
  0
LINE
  5
1E5
330
1CB
100
AcDbEntity
  8
3-1MA
  6
Continuous
 62
     7
100
AcDbLine
 10
690.9976041477
 20
212.4333028158
 30
0.0
 11
722.9976041477
 21
212.4333028158
 31
0.0
  0
LINE
  5
1E6
330
1CB
100
AcDbEntity
  8
3-1MA
  6
Continuous
 62
     7
100
AcDbLine
 10
689.4976041477
 20
213.9333028158
 30
0.0
 11
690.9976041477
 21
212.4333028158
 31
0.0
  0
LINE
  5
1E7
330
1CB
100
AcDbEntity
  8
3-1MA
  6
Continuous
 62
     7
100
AcDbLine
 10
611.9976041477
 20
346.4333028158
 30
0.0
 11
611.9976041477
 21
378.4333028158
 31
0.0
  0
LINE
  5
1E8
330
1CB
100
AcDbEntity
  8
3-1MA
  6
Continuous
 62
     7
100
AcDbLine
 10
725.9976041477
 20
378.4333028158
 30
0.0
 11
722.9976041477
 21
381.4333028158
 31
0.0
  0
LINE
  5
1E9
330
1CB
100
AcDbEntity
  8
3-1MA
  6
Continuous
 62
     7
100
AcDbLine
 10
724.4976041477
 20
344.9333028158
 30
0.0
 11
725.9976041477
 21
346.4333028158
 31
0.0
  0
LINE
  5
1EA
330
1CB
100
AcDbEntity
  8
3-1MA
  6
Continuous
 62
     7
100
AcDbLine
 10
613.4976041477
 20
247.9333028158
 30
0.0
 11
611.9976041477
 21
246.4333028158
 31
0.0
  0
CIRCLE
  5
1EB
330
1CB
100
AcDbEntity
  8
3-1MA
  6
Continuous
 62
     7
100
AcDbCircle
 10
645.9976041477
 20
232.4333028158
 30
0.0
 40
11.0
  0
LINE
  5
1EC
330
1CB
100
AcDbEntity
  8
3-1MA
  6
Continuous
 62
     7
100
AcDbLine
 10
678.8125587239
 20
381.9333028158
 30
0.0
 11
673.9050814358
 21
381.9333028158
 31
0.0
  0
LINE
  5
1ED
330
1CB
100
AcDbEntity
  8
3-1MA
  6
Continuous
 62
     7
100
AcDbLine
 10
678.8125587239
 20
381.9333028158
 30
0.0
 11
678.8125587239
 21
379.9333028158
 31
0.0
  0
LINE
  5
1EE
330
1CB
100
AcDbEntity
  8
3-1MA
  6
Continuous
 62
     7
100
AcDbLine
 10
664.0901268596
 20
381.9333028158
 30
0.0
 11
659.1826495715
 21
381.9333028158
 31
0.0
  0
LINE
  5
1EF
330
1CB
100
AcDbEntity
  8
3-1MA
  6
Continuous
 62
     7
100
AcDbLine
 10
659.1826495715
 20
381.9333028158
 30
0.0
 11
659.1826495715
 21
379.9333028158
 31
0.0
  0
LINE
  5
1F0
330
1CB
100
AcDbEntity
  8
3-1MA
  6
Continuous
 62
     7
100
AcDbLine
 10
673.9050814358
 20
379.9333028158
 30
0.0
 11
673.9050814358
 21
381.9333028158
 31
0.0
  0
LINE
  5
1F1
330
1CB
100
AcDbEntity
  8
3-1MA
  6
Continuous
 62
     7
100
AcDbLine
 10
673.9050814358
 20
381.9333028158
 30
0.0
 11
664.0901268596
 21
381.9333028158
 31
0.0
  0
LINE
  5
1F2
330
1CB
100
AcDbEntity
  8
3-1MA
  6
Continuous
 62
     7
100
AcDbLine
 10
664.0901268596
 20
381.9333028158
 30
0.0
 11
664.0901268596
 21
379.9333028158
 31
0.0
  0
LINE
  5
1F3
330
1CB
100
AcDbEntity
  8
3-1MA
  6
Continuous
 62
     7
100
AcDbLine
 10
659.7599998407
 20
382.4333028158
 30
0.0
 11
664.3788019942
 21
382.4333028158
 31
0.0
  0
LINE
  5
1F4
330
1CB
100
AcDbEntity
  8
3-1MA
  6
Continuous
 62
     7
100
AcDbLine
 10
664.3788019942
 20
382.4333028158
 30
0.0
 11
673.6164063012
 21
382.4333028158
 31
0.0
  0
LINE
  5
1F5
330
1CB
100
AcDbEntity
  8
3-1MA
  6
Continuous
 62
     7
100
AcDbLine
 10
673.6164063012
 20
382.4333028158
 30
0.0
 11
678.2352084547
 21
382.4333028158
 31
0.0
  0
LINE
  5
1F6
330
1CB
100
AcDbEntity
  8
3-1MA
  6
Continuous
 62
     7
100
AcDbLine
 10
677.4509571477
 20
384.4333028158
 30
0.0
 11
660.4509571477
 21
384.4333028158
 31
0.0
  0
LINE
  5
1F7
330
1CB
100
AcDbEntity
  8
3-1MA
  6
Continuous
 62
     7
100
AcDbLine
 10
675.9509571477
 20
394.4333028158
 30
0.0
 11
661.9509571477
 21
394.4333028158
 31
0.0
  0
LINE
  5
1F8
330
1CB
100
AcDbEntity
  8
3-1MA
  6
Continuous
 62
     7
100
AcDbLine
 10
677.4509571477
 20
392.9333028158
 30
0.0
 11
660.4509571477
 21
392.9333028158
 31
0.0
  0
LINE
  5
1F9
330
1CB
100
AcDbEntity
  8
3-1MA
  6
Continuous
 62
     7
100
AcDbLine
 10
678.2352084547
 20
382.4333028158
 30
0.0
 11
678.8125587239
 21
381.9333028158
 31
0.0
  0
LINE
  5
1FA
330
1CB
100
AcDbEntity
  8
3-1MA
  6
Continuous
 62
     7
100
AcDbLine
 10
673.9050814358
 20
381.9333028158
 30
0.0
 11
673.6164063012
 21
382.4333028158
 31
0.0
  0
LINE
  5
1FB
330
1CB
100
AcDbEntity
  8
3-1MA
  6
Continuous
 62
     7
100
AcDbLine
 10
659.7599998407
 20
382.4333028158
 30
0.0
 11
659.1826495715
 21
381.9333028158
 31
0.0
  0
LINE
  5
1FC
330
1CB
100
AcDbEntity
  8
3-1MA
  6
Continuous
 62
     7
100
AcDbLine
 10
664.0901268596
 20
381.9333028158
 30
0.0
 11
664.3788019942
 21
382.4333028158
 31
0.0
  0
LINE
  5
1FD
330
1CB
100
AcDbEntity
  8
3-1MA
  6
Continuous
 62
     7
100
AcDbLine
 10
724.9976041477
 20
317.4333028158
 30
0.0
 11
724.9976041477
 21
247.4333028158
 31
0.0
  0
LINE
  5
1FE
330
1CB
100
AcDbEntity
  8
3-1MA
  6
Continuous
 62
     7
100
AcDbLine
 10
678.4976041477
 20
213.8333028158
 30
0.0
 11
659.4976041477
 21
213.8333028158
 31
0.0
  0
LINE
  5
1FF
330
1CB
100
AcDbEntity
  8
3-1MA
  6
Continuous
 62
     7
100
AcDbLine
 10
677.9976041477
 20
213.3333028158
 30
0.0
 11
659.9976041477
 21
213.3333028158
 31
0.0
  0
LINE
  5
200
330
1CB
100
AcDbEntity
  8
3-1MA
  6
Continuous
 62
     7
100
AcDbLine
 10
612.9976041477
 20
317.4333028158
 30
0.0
 11
612.9976041477
 21
247.4333028158
 31
0.0
  0
LINE
  5
201
330
1CB
100
AcDbEntity
  8
3-1MA
  6
Continuous
 62
     7
100
AcDbLine
 10
725.1976041477
 20
292.4333028158
 30
0.0
 11
725.1976041477
 21
262.4333028158
 31
0.0
  0
LINE
  5
202
330
1CB
100
AcDbEntity
  8
3-1MA
  6
Continuous
 62
     7
100
AcDbLine
 10
612.7976041477
 20
292.4333028158
 30
0.0
 11
612.7976041477
 21
262.4333028158
 31
0.0
  0
LINE
  5
203
330
1CB
100
AcDbEntity
  8
3-1MA
  6
Continuous
 62
     7
100
AcDbLine
 10
725.9976041477
 20
291.6333028158
 30
0.0
 11
725.9976041477
 21
263.2333028158
 31
0.0
  0
LINE
  5
204
330
1CB
100
AcDbEntity
  8
3-1MA
  6
Continuous
 62
     7
100
AcDbLine
 10
611.9976041477
 20
291.6333028158
 30
0.0
 11
611.9976041477
 21
263.2333028158
 31
0.0
  0
LINE
  5
205
330
1CB
100
AcDbEntity
  8
3-1MA
  6
Continuous
 62
     7
100
AcDbLine
 10
613.3976041477
 20
330.9333028158
 30
0.0
 11
613.3976041477
 21
345.0333028158
 31
0.0
  0
LINE
  5
206
330
1CB
100
AcDbEntity
  8
3-1MA
  6
Continuous
 62
     7
100
AcDbLine
 10
612.8976041477
 20
331.4333028158
 30
0.0
 11
612.8976041477
 21
345.5333028158
 31
0.0
  0
CIRCLE
  5
207
330
1CB
100
AcDbEntity
  8
3-1MA
  6
Continuous
 62
     7
100
AcDbCircle
 10
645.9976041477
 20
232.4333028158
 30
0.0
 40
9.5
  0
LINE
  5
208
330
1CB
100
AcDbEntity
  8
3-1MA
  6
Continuous
 62
     7
100
AcDbLine
 10
644.2655533401
 20
229.4333028158
 30
0.0
 11
642.5335025326
 21
232.4333028158
 31
0.0
  0
LINE
  5
209
330
1CB
100
AcDbEntity
  8
3-1MA
  6
Continuous
 62
     7
100
AcDbLine
 10
642.5335025326
 20
232.4333028158
 30
0.0
 11
644.2655533401
 21
235.4333028158
 31
0.0
  0
LINE
  5
20A
330
1CB
100
AcDbEntity
  8
3-1MA
  6
Continuous
 62
     7
100
AcDbLine
 10
644.2655533401
 20
235.4333028158
 30
0.0
 11
647.7296549553
 21
235.4333028158
 31
0.0
  0
LINE
  5
20B
330
1CB
100
AcDbEntity
  8
3-1MA
  6
Continuous
 62
     7
100
AcDbLine
 10
647.7296549553
 20
235.4333028158
 30
0.0
 11
649.4617057628
 21
232.4333028158
 31
0.0
  0
LINE
  5
20C
330
1CB
100
AcDbEntity
  8
3-1MA
  6
Continuous
 62
     7
100
AcDbLine
 10
649.4617057628
 20
232.4333028158
 30
0.0
 11
647.7296549553
 21
229.4333028158
 31
0.0
  0
LINE
  5
20D
330
1CB
100
AcDbEntity
  8
3-1MA
  6
Continuous
 62
     7
100
AcDbLine
 10
647.7296549553
 20
229.4333028158
 30
0.0
 11
644.2655533401
 21
229.4333028158
 31
0.0
  0
CIRCLE
  5
20E
330
1CB
100
AcDbEntity
  8
3-1MA
  6
Continuous
 62
     7
100
AcDbCircle
 10
645.9976041477
 20
232.4333028158
 30
0.0
 40
9.0
  0
LINE
  5
20F
330
1CB
100
AcDbEntity
  8
3-1MA
  6
Continuous
 62
     7
100
AcDbLine
 10
724.5976041477
 20
345.0333028158
 30
0.0
 11
724.5976041477
 21
330.981865255
 31
0.0
  0
LINE
  5
210
330
1CB
100
AcDbEntity
  8
3-1MA
  6
Continuous
 62
     7
100
AcDbLine
 10
725.0976041477
 20
345.5333028158
 30
0.0
 11
725.0976041477
 21
331.481865255
 31
0.0
  0
CIRCLE
  5
211
330
1CB
100
AcDbEntity
  8
3-1MA
  6
Continuous
 62
     7
100
AcDbCircle
 10
668.9976041477
 20
340.4333028158
 30
0.0
 40
25.0
  0
CIRCLE
  5
212
330
1CB
100
AcDbEntity
  8
3-1MA
  6
Continuous
 62
     7
100
AcDbCircle
 10
691.9785745363
 20
363.4142732044
 30
0.0
 40
3.5
  0
CIRCLE
  5
213
330
1CB
100
AcDbEntity
  8
3-1MA
  6
Continuous
 62
     7
100
AcDbCircle
 10
646.0166337591
 20
363.4142732044
 30
0.0
 40
3.5
  0
CIRCLE
  5
214
330
1CB
100
AcDbEntity
  8
3-1MA
  6
Continuous
 62
     7
100
AcDbCircle
 10
691.9785745363
 20
317.4523324272
 30
0.0
 40
3.5
  0
CIRCLE
  5
215
330
1CB
100
AcDbEntity
  8
3-1MA
  6
Continuous
 62
     7
100
AcDbCircle
 10
646.0166337591
 20
317.4523324272
 30
0.0
 40
3.5
  0
CIRCLE
  5
216
330
1CB
100
AcDbEntity
  8
3-1MA
  6
Continuous
 62
     7
100
AcDbCircle
 10
668.9976041477
 20
340.4333028158
 30
0.0
 40
7.000000000000006
  0
LINE
  5
217
330
1CB
100
AcDbEntity
  8
3-1MA
  6
Continuous
 62
     7
100
AcDbLine
 10
663.4976041477
 20
384.4333028158
 30
0.0
 11
663.4976041477
 21
382.4333028158
 31
0.0
  0
LINE
  5
218
330
1CB
100
AcDbEntity
  8
3-1MA
  6
Continuous
 62
     7
100
AcDbLine
 10
674.4976041477
 20
382.4333028158
 30
0.0
 11
674.4976041477
 21
384.4333028158
 31
0.0
  0
LINE
  5
219
330
1CB
100
AcDbEntity
  8
3-1MA
  6
Continuous
 62
     7
100
AcDbLine
 10
660.4509571477
 20
392.9333028158
 30
0.0
 11
660.4509571477
 21
384.4333028158
 31
0.0
  0
LINE
  5
21A
330
1CB
100
AcDbEntity
  8
3-1MA
  6
Continuous
 62
     7
100
AcDbLine
 10
677.4509571477
 20
384.4333028158
 30
0.0
 11
677.4509571477
 21
392.9333028158
 31
0.0
  0
ARC
  5
21B
330
1CB
100
AcDbEntity
  8
3-1MA
  6
Continuous
 62
     7
100
AcDbCircle
 10
661.9509571477
 20
392.9333028158
 30
0.0
 40
1.500000000000001
100
AcDbArc
 50
90.0
 51
180.0
  0
ARC
  5
21C
330
1CB
100
AcDbEntity
  8
3-1MA
  6
Continuous
 62
     7
100
AcDbCircle
 10
675.9509571477
 20
392.9333028158
 30
0.0
 40
1.500000000000001
100
AcDbArc
 50
0.0
 51
90.0
  0
LINE
  5
21D
330
1CB
100
AcDbEntity
  8
3-1MA
  6
Continuous
 62
     7
100
AcDbLine
 10
724.9976041477
 20
317.4333028158
 30
0.0
 11
724.4976041477
 21
317.4333028158
 31
0.0
  0
LINE
  5
21E
330
1CB
100
AcDbEntity
  8
3-1MA
  6
Continuous
 62
     7
100
AcDbLine
 10
678.4976041477
 20
213.8333028158
 30
0.0
 11
678.4976041477
 21
213.9333028158
 31
0.0
  0
LINE
  5
21F
330
1CB
100
AcDbEntity
  8
3-1MA
  6
Continuous
 62
     7
100
AcDbLine
 10
659.4976041477
 20
213.9333028158
 30
0.0
 11
659.4976041477
 21
213.8333028158
 31
0.0
  0
LINE
  5
220
330
1CB
100
AcDbEntity
  8
3-1MA
  6
Continuous
 62
     7
100
AcDbLine
 10
659.4976041477
 20
213.8333028158
 30
0.0
 11
659.9976041477
 21
213.3333028158
 31
0.0
  0
LINE
  5
221
330
1CB
100
AcDbEntity
  8
3-1MA
  6
Continuous
 62
     7
100
AcDbLine
 10
677.9976041477
 20
213.3333028158
 30
0.0
 11
678.4976041477
 21
213.8333028158
 31
0.0
  0
LINE
  5
222
330
1CB
100
AcDbEntity
  8
3-1MA
  6
Continuous
 62
     7
100
AcDbLine
 10
613.4976041477
 20
317.4333028158
 30
0.0
 11
612.9976041477
 21
317.4333028158
 31
0.0
  0
LINE
  5
223
330
1CB
100
AcDbEntity
  8
3-1MA
  6
Continuous
 62
     7
100
AcDbLine
 10
724.9976041477
 20
262.4333028158
 30
0.0
 11
725.1976041477
 21
262.4333028158
 31
0.0
  0
LINE
  5
224
330
1CB
100
AcDbEntity
  8
3-1MA
  6
Continuous
 62
     7
100
AcDbLine
 10
725.1976041477
 20
292.4333028158
 30
0.0
 11
724.9976041477
 21
292.4333028158
 31
0.0
  0
LINE
  5
225
330
1CB
100
AcDbEntity
  8
3-1MA
  6
Continuous
 62
     7
100
AcDbLine
 10
612.7976041477
 20
262.4333028158
 30
0.0
 11
612.9976041477
 21
262.4333028158
 31
0.0
  0
LINE
  5
226
330
1CB
100
AcDbEntity
  8
3-1MA
  6
Continuous
 62
     7
100
AcDbLine
 10
612.9976041477
 20
292.4333028158
 30
0.0
 11
612.7976041477
 21
292.4333028158
 31
0.0
  0
LINE
  5
227
330
1CB
100
AcDbEntity
  8
3-1MA
  6
Continuous
 62
     7
100
AcDbLine
 10
725.1976041477
 20
262.4333028158
 30
0.0
 11
725.9976041477
 21
263.2333028158
 31
0.0
  0
LINE
  5
228
330
1CB
100
AcDbEntity
  8
3-1MA
  6
Continuous
 62
     7
100
AcDbLine
 10
725.9976041477
 20
291.6333028158
 30
0.0
 11
725.1976041477
 21
292.4333028158
 31
0.0
  0
LINE
  5
229
330
1CB
100
AcDbEntity
  8
3-1MA
  6
Continuous
 62
     7
100
AcDbLine
 10
612.7976041477
 20
292.4333028158
 30
0.0
 11
611.9976041477
 21
291.6333028158
 31
0.0
  0
LINE
  5
22A
330
1CB
100
AcDbEntity
  8
3-1MA
  6
Continuous
 62
     7
100
AcDbLine
 10
611.9976041477
 20
263.2333028158
 30
0.0
 11
612.7976041477
 21
262.4333028158
 31
0.0
  0
LINE
  5
22B
330
1CB
100
AcDbEntity
  8
3-1MA
  6
Continuous
 62
     7
100
AcDbLine
 10
613.3976041477
 20
330.9333028158
 30
0.0
 11
613.4976041477
 21
330.9333028158
 31
0.0
  0
LINE
  5
22C
330
1CB
100
AcDbEntity
  8
3-1MA
  6
Continuous
 62
     7
100
AcDbLine
 10
612.8976041477
 20
331.4333028158
 30
0.0
 11
613.3976041477
 21
330.9333028158
 31
0.0
  0
LINE
  5
22D
330
1CB
100
AcDbEntity
  8
3-1MA
  6
Continuous
 62
     7
100
AcDbLine
 10
724.4976041477
 20
330.981865255
 30
0.0
 11
724.5976041477
 21
330.981865255
 31
0.0
  0
LINE
  5
22E
330
1CB
100
AcDbEntity
  8
3-1MA
  6
Continuous
 62
     7
100
AcDbLine
 10
724.5976041477
 20
330.981865255
 30
0.0
 11
725.0976041477
 21
331.481865255
 31
0.0
  0
ENDBLK
  5
230
330
1CB
100
AcDbEntity
  8
0
100
AcDbBlockEnd
  0
BLOCK
  5
33F
330
231
100
AcDbEntity
  8
0
100
AcDbBlockBegin
  2
SE4
 70
     0
 10
0.0
 20
0.0
 30
0.0
  3
SE4
  1

  0
LINE
  5
233
330
231
100
AcDbEntity
  8
3-1MA
  6
Continuous
 62
     7
100
AcDbLine
 10
353.4102460343
 20
212.4333028158
 30
0.0
 11
356.4102460343
 21
215.4333028158
 31
0.0
  0
LINE
  5
234
330
231
100
AcDbEntity
  8
3-1MA
  6
Continuous
 62
     7
100
AcDbLine
 10
354.9102460343
 20
247.9333028158
 30
0.0
 11
354.9102460343
 21
344.9333028158
 31
0.0
  0
LINE
  5
235
330
231
100
AcDbEntity
  8
3-1MA
  6
Continuous
 62
     7
100
AcDbLine
 10
242.4102460343
 20
346.4333028158
 30
0.0
 11
242.4102460343
 21
378.4333028158
 31
0.0
  0
LINE
  5
236
330
231
100
AcDbEntity
  8
3-1MA
  6
Continuous
 62
     7
100
AcDbLine
 10
278.9102460343
 20
213.9333028158
 30
0.0
 11
319.9102460343
 21
213.9333028158
 31
0.0
  0
LINE
  5
237
330
231
100
AcDbEntity
  8
3-1MA
  6
Continuous
 62
     7
100
AcDbLine
 10
319.9102460343
 20
213.9333028158
 30
0.0
 11
321.4102460343
 21
212.4333028158
 31
0.0
  0
LINE
  5
238
330
231
100
AcDbEntity
  8
3-1MA
  6
Continuous
 62
     7
100
AcDbLine
 10
242.4102460343
 20
215.4333028158
 30
0.0
 11
242.4102460343
 21
246.4333028158
 31
0.0
  0
LINE
  5
239
330
231
100
AcDbEntity
  8
3-1MA
  6
Continuous
 62
     7
100
AcDbLine
 10
278.9102460343
 20
379.9333028158
 30
0.0
 11
277.4102460343
 21
381.4333028158
 31
0.0
  0
LINE
  5
23A
330
231
100
AcDbEntity
  8
3-1MA
  6
Continuous
 62
     7
100
AcDbLine
 10
319.9102460343
 20
379.9333028158
 30
0.0
 11
278.9102460343
 21
379.9333028158
 31
0.0
  0
LINE
  5
23B
330
231
100
AcDbEntity
  8
3-1MA
  6
Continuous
 62
     7
100
AcDbLine
 10
321.4102460343
 20
381.4333028158
 30
0.0
 11
319.9102460343
 21
379.9333028158
 31
0.0
  0
LINE
  5
23C
330
231
100
AcDbEntity
  8
3-1MA
  6
Continuous
 62
     7
100
AcDbLine
 10
356.4102460343
 20
378.4333028158
 30
0.0
 11
353.4102460343
 21
381.4333028158
 31
0.0
  0
LINE
  5
23D
330
231
100
AcDbEntity
  8
3-1MA
  6
Continuous
 62
     7
100
AcDbLine
 10
245.4102460343
 20
381.4333028158
 30
0.0
 11
277.4102460343
 21
381.4333028158
 31
0.0
  0
LINE
  5
23E
330
231
100
AcDbEntity
  8
3-1MA
  6
Continuous
 62
     7
100
AcDbLine
 10
242.4102460343
 20
346.4333028158
 30
0.0
 11
243.9102460343
 21
344.9333028158
 31
0.0
  0
LINE
  5
23F
330
231
100
AcDbEntity
  8
3-1MA
  6
Continuous
 62
     7
100
AcDbLine
 10
243.9102460343
 20
344.9333028158
 30
0.0
 11
243.9102460343
 21
247.9333028158
 31
0.0
  0
LINE
  5
240
330
231
100
AcDbEntity
  8
3-1MA
  6
Continuous
 62
     7
100
AcDbLine
 10
321.4102460343
 20
381.4333028158
 30
0.0
 11
353.4102460343
 21
381.4333028158
 31
0.0
  0
LINE
  5
241
330
231
100
AcDbEntity
  8
3-1MA
  6
Continuous
 62
     7
100
AcDbLine
 10
353.4102460343
 20
212.4333028158
 30
0.0
 11
321.4102460343
 21
212.4333028158
 31
0.0
  0
LINE
  5
242
330
231
100
AcDbEntity
  8
3-1MA
  6
Continuous
 62
     7
100
AcDbLine
 10
242.4102460343
 20
215.4333028158
 30
0.0
 11
245.4102460343
 21
212.4333028158
 31
0.0
  0
LINE
  5
243
330
231
100
AcDbEntity
  8
3-1MA
  6
Continuous
 62
     7
100
AcDbLine
 10
356.4102460343
 20
246.4333028158
 30
0.0
 11
354.9102460343
 21
247.9333028158
 31
0.0
  0
LINE
  5
244
330
231
100
AcDbEntity
  8
3-1MA
  6
Continuous
 62
     7
100
AcDbLine
 10
356.4102460343
 20
246.4333028158
 30
0.0
 11
356.4102460343
 21
215.4333028158
 31
0.0
  0
LINE
  5
245
330
231
100
AcDbEntity
  8
3-1MA
  6
Continuous
 62
     7
100
AcDbLine
 10
277.4102460343
 20
212.4333028158
 30
0.0
 11
245.4102460343
 21
212.4333028158
 31
0.0
  0
LINE
  5
246
330
231
100
AcDbEntity
  8
3-1MA
  6
Continuous
 62
     7
100
AcDbLine
 10
277.4102460343
 20
212.4333028158
 30
0.0
 11
278.9102460343
 21
213.9333028158
 31
0.0
  0
LINE
  5
247
330
231
100
AcDbEntity
  8
3-1MA
  6
Continuous
 62
     7
100
AcDbLine
 10
356.4102460343
 20
378.4333028158
 30
0.0
 11
356.4102460343
 21
346.4333028158
 31
0.0
  0
LINE
  5
248
330
231
100
AcDbEntity
  8
3-1MA
  6
Continuous
 62
     7
100
AcDbLine
 10
245.4102460343
 20
381.4333028158
 30
0.0
 11
242.4102460343
 21
378.4333028158
 31
0.0
  0
LINE
  5
249
330
231
100
AcDbEntity
  8
3-1MA
  6
Continuous
 62
     7
100
AcDbLine
 10
354.9102460343
 20
344.9333028158
 30
0.0
 11
356.4102460343
 21
346.4333028158
 31
0.0
  0
LINE
  5
24A
330
231
100
AcDbEntity
  8
3-1MA
  6
Continuous
 62
     7
100
AcDbLine
 10
243.9102460343
 20
247.9333028158
 30
0.0
 11
242.4102460343
 21
246.4333028158
 31
0.0
  0
LINE
  5
24B
330
231
100
AcDbEntity
  8
3-1MA
  6
Continuous
 62
     7
100
AcDbLine
 10
294.5027687462
 20
380.5333028158
 30
0.0
 11
294.5027687462
 21
381.9333028158
 31
0.0
  0
LINE
  5
24C
330
231
100
AcDbEntity
  8
3-1MA
  6
Continuous
 62
     7
100
AcDbLine
 10
294.5027687462
 20
381.9333028158
 30
0.0
 11
289.5952914581
 21
381.9333028158
 31
0.0
  0
LINE
  5
24D
330
231
100
AcDbEntity
  8
3-1MA
  6
Continuous
 62
     7
100
AcDbLine
 10
289.5952914581
 20
381.9333028158
 30
0.0
 11
289.5952914581
 21
379.9333028158
 31
0.0
  0
LINE
  5
24E
330
231
100
AcDbEntity
  8
3-1MA
  6
Continuous
 62
     7
100
AcDbLine
 10
304.3177233224
 20
380.5333028158
 30
0.0
 11
304.3177233224
 21
381.9333028158
 31
0.0
  0
LINE
  5
24F
330
231
100
AcDbEntity
  8
3-1MA
  6
Continuous
 62
     7
100
AcDbLine
 10
304.3177233224
 20
381.9333028158
 30
0.0
 11
294.5027687462
 21
381.9333028158
 31
0.0
  0
LINE
  5
250
330
231
100
AcDbEntity
  8
3-1MA
  6
Continuous
 62
     7
100
AcDbLine
 10
309.2252006105
 20
381.9333028158
 30
0.0
 11
304.3177233224
 21
381.9333028158
 31
0.0
  0
LINE
  5
251
330
231
100
AcDbEntity
  8
3-1MA
  6
Continuous
 62
     7
100
AcDbLine
 10
309.2252006105
 20
381.9333028158
 30
0.0
 11
309.2252006105
 21
379.9333028158
 31
0.0
  0
LINE
  5
252
330
231
100
AcDbEntity
  8
3-1MA
  6
Continuous
 62
     7
100
AcDbLine
 10
290.1726417273
 20
382.4333028158
 30
0.0
 11
294.7914438808
 21
382.4333028158
 31
0.0
  0
LINE
  5
253
330
231
100
AcDbEntity
  8
3-1MA
  6
Continuous
 62
     7
100
AcDbLine
 10
294.7914438808
 20
382.4333028158
 30
0.0
 11
304.0290481878
 21
382.4333028158
 31
0.0
  0
LINE
  5
254
330
231
100
AcDbEntity
  8
3-1MA
  6
Continuous
 62
     7
100
AcDbLine
 10
304.0290481878
 20
382.4333028158
 30
0.0
 11
308.6478503414
 21
382.4333028158
 31
0.0
  0
LINE
  5
255
330
231
100
AcDbEntity
  8
3-1MA
  6
Continuous
 62
     7
100
AcDbLine
 10
290.9568930343
 20
384.4333028158
 30
0.0
 11
307.9568930343
 21
384.4333028158
 31
0.0
  0
LINE
  5
256
330
231
100
AcDbEntity
  8
3-1MA
  6
Continuous
 62
     7
100
AcDbLine
 10
292.4568930343
 20
394.4333028158
 30
0.0
 11
306.4568930343
 21
394.4333028158
 31
0.0
  0
LINE
  5
257
330
231
100
AcDbEntity
  8
3-1MA
  6
Continuous
 62
     7
100
AcDbLine
 10
290.9568930343
 20
392.9333028158
 30
0.0
 11
307.9568930343
 21
392.9333028158
 31
0.0
  0
LINE
  5
258
330
231
100
AcDbEntity
  8
3-1MA
  6
Continuous
 62
     7
100
AcDbLine
 10
290.1726417273
 20
382.4333028158
 30
0.0
 11
289.5952914581
 21
381.9333028158
 31
0.0
  0
LINE
  5
259
330
231
100
AcDbEntity
  8
3-1MA
  6
Continuous
 62
     7
100
AcDbLine
 10
294.7914438808
 20
382.4333028158
 30
0.0
 11
294.5027687462
 21
381.9333028158
 31
0.0
  0
LINE
  5
25A
330
231
100
AcDbEntity
  8
3-1MA
  6
Continuous
 62
     7
100
AcDbLine
 10
304.3177233224
 20
381.9333028158
 30
0.0
 11
304.0290481878
 21
382.4333028158
 31
0.0
  0
LINE
  5
25B
330
231
100
AcDbEntity
  8
3-1MA
  6
Continuous
 62
     7
100
AcDbLine
 10
308.6478503414
 20
382.4333028158
 30
0.0
 11
309.2252006105
 21
381.9333028158
 31
0.0
  0
LINE
  5
25C
330
231
100
AcDbEntity
  8
3-1MA
  6
Continuous
 62
     7
100
AcDbLine
 10
289.9102460343
 20
380.0333028158
 30
0.0
 11
308.9102460343
 21
380.0333028158
 31
0.0
  0
LINE
  5
25D
330
231
100
AcDbEntity
  8
3-1MA
  6
Continuous
 62
     7
100
AcDbLine
 10
290.4102460343
 20
380.5333028158
 30
0.0
 11
308.4102460343
 21
380.5333028158
 31
0.0
  0
CIRCLE
  5
25E
330
231
100
AcDbEntity
  8
3-1MA
  6
Continuous
 62
     7
100
AcDbCircle
 10
344.8753252648
 20
354.8983820463
 30
0.0
 40
2.5
  0
CIRCLE
  5
25F
330
231
100
AcDbEntity
  8
3-1MA
  6
Continuous
 62
     7
100
AcDbCircle
 10
344.8753252648
 20
237.9682235853
 30
0.0
 40
2.5
  0
CIRCLE
  5
260
330
231
100
AcDbEntity
  8
3-1MA
  6
Continuous
 62
     7
100
AcDbCircle
 10
253.9451668038
 20
354.8983820463
 30
0.0
 40
2.5
  0
CIRCLE
  5
261
330
231
100
AcDbEntity
  8
3-1MA
  6
Continuous
 62
     7
100
AcDbCircle
 10
253.9451668038
 20
237.9682235853
 30
0.0
 40
2.5
  0
LINE
  5
262
330
231
100
AcDbEntity
  8
3-1MA
  6
Continuous
 62
     7
100
AcDbLine
 10
354.2292378473
 20
215.715385643
 30
0.0
 11
353.6652520168
 21
215.1782968333
 31
0.0
  0
LINE
  5
263
330
231
100
AcDbEntity
  8
3-1MA
  6
Continuous
 62
     7
100
AcDbLine
 10
353.1281632072
 20
214.6143110029
 30
0.0
 11
353.395781378
 21
213.9682235853
 31
0.0
  0
LINE
  5
264
330
231
100
AcDbEntity
  8
3-1MA
  6
Continuous
 62
     7
100
AcDbLine
 10
353.395781378
 20
213.9682235853
 30
0.0
 11
354.8753252648
 21
215.4477674721
 31
0.0
  0
LINE
  5
265
330
231
100
AcDbEntity
  8
3-1MA
  6
Continuous
 62
     7
100
AcDbLine
 10
354.8753252648
 20
215.4477674721
 30
0.0
 11
354.2292378473
 21
215.715385643
 31
0.0
  0
LINE
  5
266
330
231
100
AcDbEntity
  8
3-1MA
  6
Continuous
 62
     7
100
AcDbLine
 10
243.9451668038
 20
378.4188381595
 30
0.0
 11
243.9451668038
 21
215.4477674721
 31
0.0
  0
LINE
  5
267
330
231
100
AcDbEntity
  8
3-1MA
  6
Continuous
 62
     7
100
AcDbLine
 10
244.5912542214
 20
378.1512199886
 30
0.0
 11
243.9451668038
 21
378.4188381595
 31
0.0
  0
LINE
  5
268
330
231
100
AcDbEntity
  8
3-1MA
  6
Continuous
 62
     7
100
AcDbLine
 10
353.395781378
 20
379.8983820463
 30
0.0
 11
353.1281632072
 21
379.2522946287
 31
0.0
  0
LINE
  5
269
330
231
100
AcDbEntity
  8
3-1MA
  6
Continuous
 62
     7
100
AcDbLine
 10
353.6652520168
 20
378.6883087983
 30
0.0
 11
354.2292378473
 21
378.1512199886
 31
0.0
  0
LINE
  5
26A
330
231
100
AcDbEntity
  8
3-1MA
  6
Continuous
 62
     7
100
AcDbLine
 10
354.2292378473
 20
378.1512199886
 30
0.0
 11
354.8753252648
 21
378.4188381595
 31
0.0
  0
LINE
  5
26B
330
231
100
AcDbEntity
  8
3-1MA
  6
Continuous
 62
     7
100
AcDbLine
 10
354.8753252648
 20
378.4188381595
 30
0.0
 11
353.395781378
 21
379.8983820463
 31
0.0
  0
LINE
  5
26C
330
231
100
AcDbEntity
  8
3-1MA
  6
Continuous
 62
     7
100
AcDbLine
 10
283.8055475442
 20
379.3534539674
 30
0.0
 11
315.0149445244
 21
379.3534539674
 31
0.0
  0
LINE
  5
26D
330
231
100
AcDbEntity
  8
3-1MA
  6
Continuous
 62
     7
100
AcDbLine
 10
315.0149445244
 20
379.3534539674
 30
0.0
 11
317.9117689668
 21
379.2522946287
 31
0.0
  0
LINE
  5
26E
330
231
100
AcDbEntity
  8
3-1MA
  6
Continuous
 62
     7
100
AcDbLine
 10
353.395781378
 20
379.8983820463
 30
0.0
 11
245.4247106907
 21
379.8983820463
 31
0.0
  0
LINE
  5
26F
330
231
100
AcDbEntity
  8
3-1MA
  6
Continuous
 62
     7
100
AcDbLine
 10
245.6923288615
 20
379.2522946287
 30
0.0
 11
280.9087231019
 21
379.2522946287
 31
0.0
  0
LINE
  5
270
330
231
100
AcDbEntity
  8
3-1MA
  6
Continuous
 62
     7
100
AcDbLine
 10
280.9087231019
 20
379.2522946287
 30
0.0
 11
283.8055475442
 21
379.3534539674
 31
0.0
  0
LINE
  5
271
330
231
100
AcDbEntity
  8
3-1MA
  6
Continuous
 62
     7
100
AcDbLine
 10
244.5912542214
 20
378.1512199886
 30
0.0
 11
245.1552400518
 21
378.6883087983
 31
0.0
  0
LINE
  5
272
330
231
100
AcDbEntity
  8
3-1MA
  6
Continuous
 62
     7
100
AcDbLine
 10
245.1552400518
 20
378.6883087983
 30
0.0
 11
245.6923288615
 21
379.2522946287
 31
0.0
  0
LINE
  5
273
330
231
100
AcDbEntity
  8
3-1MA
  6
Continuous
 62
     7
100
AcDbLine
 10
245.6923288615
 20
379.2522946287
 30
0.0
 11
245.4247106907
 21
379.8983820463
 31
0.0
  0
LINE
  5
274
330
231
100
AcDbEntity
  8
3-1MA
  6
Continuous
 62
     7
100
AcDbLine
 10
245.4247106907
 20
379.8983820463
 30
0.0
 11
243.9451668038
 21
378.4188381595
 31
0.0
  0
LINE
  5
275
330
231
100
AcDbEntity
  8
3-1MA
  6
Continuous
 62
     7
100
AcDbLine
 10
354.8753252648
 20
215.4477674721
 30
0.0
 11
354.8753252648
 21
378.4188381595
 31
0.0
  0
LINE
  5
276
330
231
100
AcDbEntity
  8
3-1MA
  6
Continuous
 62
     7
100
AcDbLine
 10
245.4247106907
 20
213.9682235853
 30
0.0
 11
245.6923288615
 21
214.6143110029
 31
0.0
  0
LINE
  5
277
330
231
100
AcDbEntity
  8
3-1MA
  6
Continuous
 62
     7
100
AcDbLine
 10
244.5912542214
 20
215.715385643
 30
0.0
 11
243.9451668038
 21
215.4477674721
 31
0.0
  0
LINE
  5
278
330
231
100
AcDbEntity
  8
3-1MA
  6
Continuous
 62
     7
100
AcDbLine
 10
243.9451668038
 20
215.4477674721
 30
0.0
 11
245.4247106907
 21
213.9682235853
 31
0.0
  0
LINE
  5
279
330
231
100
AcDbEntity
  8
3-1MA
  6
Continuous
 62
     7
100
AcDbLine
 10
315.0149445244
 20
214.5131516643
 30
0.0
 11
283.8055475442
 21
214.5131516643
 31
0.0
  0
LINE
  5
27A
330
231
100
AcDbEntity
  8
3-1MA
  6
Continuous
 62
     7
100
AcDbLine
 10
283.8055475442
 20
214.5131516643
 30
0.0
 11
280.9087231019
 21
214.6143110029
 31
0.0
  0
LINE
  5
27B
330
231
100
AcDbEntity
  8
3-1MA
  6
Continuous
 62
     7
100
AcDbLine
 10
245.4247106907
 20
213.9682235853
 30
0.0
 11
353.395781378
 21
213.9682235853
 31
0.0
  0
LINE
  5
27C
330
231
100
AcDbEntity
  8
3-1MA
  6
Continuous
 62
     7
100
AcDbLine
 10
317.9117689668
 20
214.6143110029
 30
0.0
 11
315.0149445244
 21
214.5131516643
 31
0.0
  0
ARC
  5
27D
330
231
100
AcDbEntity
  8
3-1MA
  6
Continuous
 62
     7
100
AcDbCircle
 10
283.9102460343
 20
217.5113241453
 30
0.0
 40
2.999999999999975
100
AcDbArc
 50
180.0
 51
268.0
  0
LINE
  5
27E
330
231
100
AcDbEntity
  8
3-1MA
  6
Continuous
 62
     7
100
AcDbLine
 10
280.9102460343
 20
217.5113241453
 30
0.0
 11
280.9102460343
 21
376.3552814863
 31
0.0
  0
ARC
  5
27F
330
231
100
AcDbEntity
  8
3-1MA
  6
Continuous
 62
     7
100
AcDbCircle
 10
283.9102460343
 20
376.3552814863
 30
0.0
 40
2.999999999999989
100
AcDbArc
 50
92.0
 51
180.0
  0
LINE
  5
280
330
231
100
AcDbEntity
  8
3-1MA
  6
Continuous
 62
     7
100
AcDbLine
 10
280.9087231019
 20
379.2522946287
 30
0.0
 11
279.4102460343
 21
377.7005762008
 31
0.0
  0
LINE
  5
281
330
231
100
AcDbEntity
  8
3-1MA
  6
Continuous
 62
     7
100
AcDbLine
 10
280.9102460343
 20
376.3552814863
 30
0.0
 11
317.9102460343
 21
376.3552814863
 31
0.0
  0
LINE
  5
282
330
231
100
AcDbEntity
  8
3-1MA
  6
Continuous
 62
     7
100
AcDbLine
 10
317.9102460343
 20
217.5113241453
 30
0.0
 11
280.9102460343
 21
217.5113241453
 31
0.0
  0
LINE
  5
283
330
231
100
AcDbEntity
  8
3-1MA
  6
Continuous
 62
     7
100
AcDbLine
 10
352.6775194193
 20
377.7005762008
 30
0.0
 11
352.6775194193
 21
216.1660294308
 31
0.0
  0
LINE
  5
284
330
231
100
AcDbEntity
  8
3-1MA
  6
Continuous
 62
     7
100
AcDbLine
 10
354.2292378473
 20
215.715385643
 30
0.0
 11
354.2292378473
 21
378.1512199886
 31
0.0
  0
ARC
  5
285
330
231
100
AcDbEntity
  8
3-1MA
  6
Continuous
 62
     7
100
AcDbCircle
 10
314.9102460343
 20
376.3552814863
 30
0.0
 40
3.000000000000013
100
AcDbArc
 50
0.0
 51
88.0
  0
LINE
  5
286
330
231
100
AcDbEntity
  8
3-1MA
  6
Continuous
 62
     7
100
AcDbLine
 10
317.9102460343
 20
376.3552814863
 30
0.0
 11
317.9102460343
 21
217.5113241453
 31
0.0
  0
ARC
  5
287
330
231
100
AcDbEntity
  8
3-1MA
  6
Continuous
 62
     7
100
AcDbCircle
 10
314.9102460343
 20
217.5113241453
 30
0.0
 40
2.999999999999961
100
AcDbArc
 50
272.0
 51
0.0
  0
LINE
  5
288
330
231
100
AcDbEntity
  8
3-1MA
  6
Continuous
 62
     7
100
AcDbLine
 10
246.1429726493
 20
216.1660294308
 30
0.0
 11
246.1429726493
 21
377.7005762008
 31
0.0
  0
LINE
  5
289
330
231
100
AcDbEntity
  8
3-1MA
  6
Continuous
 62
     7
100
AcDbLine
 10
246.1429726493
 20
377.7005762008
 30
0.0
 11
245.1552400518
 21
378.6883087983
 31
0.0
  0
LINE
  5
28A
330
231
100
AcDbEntity
  8
3-1MA
  6
Continuous
 62
     7
100
AcDbLine
 10
244.5912542214
 20
378.1512199886
 30
0.0
 11
244.5912542214
 21
215.715385643
 31
0.0
  0
LINE
  5
28B
330
231
100
AcDbEntity
  8
3-1MA
  6
Continuous
 62
     7
100
AcDbLine
 10
244.5912542214
 20
215.715385643
 30
0.0
 11
245.1552400518
 21
215.1782968333
 31
0.0
  0
LINE
  5
28C
330
231
100
AcDbEntity
  8
3-1MA
  6
Continuous
 62
     7
100
AcDbLine
 10
353.1281632072
 20
379.2522946287
 30
0.0
 11
317.9117689668
 21
379.2522946287
 31
0.0
  0
LINE
  5
28D
330
231
100
AcDbEntity
  8
3-1MA
  6
Continuous
 62
     7
100
AcDbLine
 10
317.9117689668
 20
379.2522946287
 30
0.0
 11
319.4102460343
 21
377.7005762008
 31
0.0
  0
LINE
  5
28E
330
231
100
AcDbEntity
  8
3-1MA
  6
Continuous
 62
     7
100
AcDbLine
 10
319.4102460343
 20
377.7005762008
 30
0.0
 11
352.6775194193
 21
377.7005762008
 31
0.0
  0
LINE
  5
28F
330
231
100
AcDbEntity
  8
3-1MA
  6
Continuous
 62
     7
100
AcDbLine
 10
352.6775194193
 20
377.7005762008
 30
0.0
 11
353.6652520168
 21
378.6883087983
 31
0.0
  0
LINE
  5
290
330
231
100
AcDbEntity
  8
3-1MA
  6
Continuous
 62
     7
100
AcDbLine
 10
353.6652520168
 20
378.6883087983
 30
0.0
 11
353.1281632072
 21
379.2522946287
 31
0.0
  0
LINE
  5
291
330
231
100
AcDbEntity
  8
3-1MA
  6
Continuous
 62
     7
100
AcDbLine
 10
352.6775194193
 20
216.1660294308
 30
0.0
 11
319.4102460343
 21
216.1660294308
 31
0.0
  0
LINE
  5
292
330
231
100
AcDbEntity
  8
3-1MA
  6
Continuous
 62
     7
100
AcDbLine
 10
319.4102460343
 20
216.1660294308
 30
0.0
 11
317.9117689668
 21
214.6143110029
 31
0.0
  0
LINE
  5
293
330
231
100
AcDbEntity
  8
3-1MA
  6
Continuous
 62
     7
100
AcDbLine
 10
317.9117689668
 20
214.6143110029
 30
0.0
 11
353.1281632072
 21
214.6143110029
 31
0.0
  0
LINE
  5
294
330
231
100
AcDbEntity
  8
3-1MA
  6
Continuous
 62
     7
100
AcDbLine
 10
353.1281632072
 20
214.6143110029
 30
0.0
 11
353.6652520168
 21
215.1782968333
 31
0.0
  0
LINE
  5
295
330
231
100
AcDbEntity
  8
3-1MA
  6
Continuous
 62
     7
100
AcDbLine
 10
353.6652520168
 20
215.1782968333
 30
0.0
 11
352.6775194193
 21
216.1660294308
 31
0.0
  0
LINE
  5
296
330
231
100
AcDbEntity
  8
3-1MA
  6
Continuous
 62
     7
100
AcDbLine
 10
279.4102460343
 20
216.1660294308
 30
0.0
 11
246.1429726493
 21
216.1660294308
 31
0.0
  0
LINE
  5
297
330
231
100
AcDbEntity
  8
3-1MA
  6
Continuous
 62
     7
100
AcDbLine
 10
246.1429726493
 20
216.1660294308
 30
0.0
 11
245.1552400518
 21
215.1782968333
 31
0.0
  0
LINE
  5
298
330
231
100
AcDbEntity
  8
3-1MA
  6
Continuous
 62
     7
100
AcDbLine
 10
245.1552400518
 20
215.1782968333
 30
0.0
 11
245.6923288615
 21
214.6143110029
 31
0.0
  0
LINE
  5
299
330
231
100
AcDbEntity
  8
3-1MA
  6
Continuous
 62
     7
100
AcDbLine
 10
245.6923288615
 20
214.6143110029
 30
0.0
 11
280.9087231019
 21
214.6143110029
 31
0.0
  0
LINE
  5
29A
330
231
100
AcDbEntity
  8
3-1MA
  6
Continuous
 62
     7
100
AcDbLine
 10
280.9087231019
 20
214.6143110029
 30
0.0
 11
279.4102460343
 21
216.1660294308
 31
0.0
  0
LINE
  5
29B
330
231
100
AcDbEntity
  8
3-1MA
  6
Continuous
 62
     7
100
AcDbLine
 10
319.4102460343
 20
377.7005762008
 30
0.0
 11
319.4102460343
 21
216.1660294308
 31
0.0
  0
CIRCLE
  5
29C
330
231
100
AcDbEntity
  8
3-1MA
  6
Continuous
 62
     7
100
AcDbCircle
 10
258.9102460343
 20
365.4333028158
 30
0.0
 40
6.5
  0
CIRCLE
  5
29D
330
231
100
AcDbEntity
  8
3-1MA
  6
Continuous
 62
     7
100
AcDbCircle
 10
258.9102460343
 20
321.4333028158
 30
0.0
 40
6.5
  0
CIRCLE
  5
29E
330
231
100
AcDbEntity
  8
3-1MA
  6
Continuous
 62
     7
100
AcDbCircle
 10
258.9102460343
 20
271.4333028158
 30
0.0
 40
6.5
  0
CIRCLE
  5
29F
330
231
100
AcDbEntity
  8
3-1MA
  6
Continuous
 62
     7
100
AcDbCircle
 10
258.9102460343
 20
227.4333028158
 30
0.0
 40
6.5
  0
CIRCLE
  5
2A0
330
231
100
AcDbEntity
  8
3-1MA
  6
Continuous
 62
     7
100
AcDbCircle
 10
339.9102460343
 20
365.4333028158
 30
0.0
 40
6.5
  0
CIRCLE
  5
2A1
330
231
100
AcDbEntity
  8
3-1MA
  6
Continuous
 62
     7
100
AcDbCircle
 10
339.9102460343
 20
321.4333028158
 30
0.0
 40
6.5
  0
CIRCLE
  5
2A2
330
231
100
AcDbEntity
  8
3-1MA
  6
Continuous
 62
     7
100
AcDbCircle
 10
339.9102460343
 20
271.4333028158
 30
0.0
 40
6.5
  0
CIRCLE
  5
2A3
330
231
100
AcDbEntity
  8
3-1MA
  6
Continuous
 62
     7
100
AcDbCircle
 10
339.9102460343
 20
227.4333028158
 30
0.0
 40
6.5
  0
CIRCLE
  5
2A4
330
231
100
AcDbEntity
  8
3-1MA
  6
Continuous
 62
     7
100
AcDbCircle
 10
299.4102460343
 20
303.9682235853
 30
0.0
 40
11.0
  0
CIRCLE
  5
2A5
330
231
100
AcDbEntity
  8
3-1MA
  6
Continuous
 62
     7
100
AcDbCircle
 10
344.8753252648
 20
354.8983820463
 30
0.0
 40
3.0
  0
CIRCLE
  5
2A6
330
231
100
AcDbEntity
  8
3-1MA
  6
Continuous
 62
     7
100
AcDbCircle
 10
344.8753252648
 20
237.9682235853
 30
0.0
 40
3.0
  0
CIRCLE
  5
2A7
330
231
100
AcDbEntity
  8
3-1MA
  6
Continuous
 62
     7
100
AcDbCircle
 10
253.9451668038
 20
354.8983820463
 30
0.0
 40
3.0
  0
CIRCLE
  5
2A8
330
231
100
AcDbEntity
  8
3-1MA
  6
Continuous
 62
     7
100
AcDbCircle
 10
253.9451668038
 20
237.9682235853
 30
0.0
 40
3.0
  0
LINE
  5
2A9
330
231
100
AcDbEntity
  8
3-1MA
  6
Continuous
 62
     7
100
AcDbLine
 10
279.4102460343
 20
216.1660294308
 30
0.0
 11
279.4102460343
 21
377.7005762008
 31
0.0
  0
LINE
  5
2AA
330
231
100
AcDbEntity
  8
3-1MA
  6
Continuous
 62
     7
100
AcDbLine
 10
279.4102460343
 20
377.7005762008
 30
0.0
 11
246.1429726493
 21
377.7005762008
 31
0.0
  0
LINE
  5
2AB
330
231
100
AcDbEntity
  8
3-1MA
  6
Continuous
 62
     7
100
AcDbLine
 10
289.5952914581
 20
303.9682235853
 30
0.0
 11
294.5027687462
 21
312.4682235853
 31
0.0
  0
LINE
  5
2AC
330
231
100
AcDbEntity
  8
3-1MA
  6
Continuous
 62
     7
100
AcDbLine
 10
294.5027687462
 20
295.4682235853
 30
0.0
 11
289.5952914581
 21
303.9682235853
 31
0.0
  0
LINE
  5
2AD
330
231
100
AcDbEntity
  8
3-1MA
  6
Continuous
 62
     7
100
AcDbLine
 10
304.3177233224
 20
295.4682235853
 30
0.0
 11
294.5027687462
 21
295.4682235853
 31
0.0
  0
LINE
  5
2AE
330
231
100
AcDbEntity
  8
3-1MA
  6
Continuous
 62
     7
100
AcDbLine
 10
309.2252006105
 20
303.9682235853
 30
0.0
 11
304.3177233224
 21
295.4682235853
 31
0.0
  0
LINE
  5
2AF
330
231
100
AcDbEntity
  8
3-1MA
  6
Continuous
 62
     7
100
AcDbLine
 10
304.3177233224
 20
312.4682235853
 30
0.0
 11
309.2252006105
 21
303.9682235853
 31
0.0
  0
LINE
  5
2B0
330
231
100
AcDbEntity
  8
3-1MA
  6
Continuous
 62
     7
100
AcDbLine
 10
294.5027687462
 20
312.4682235853
 30
0.0
 11
304.3177233224
 21
312.4682235853
 31
0.0
  0
LINE
  5
2B1
330
231
100
AcDbEntity
  8
3-1MA
  6
Continuous
 62
     7
100
AcDbLine
 10
294.7914438808
 20
295.9682235853
 30
0.0
 11
304.0290481878
 21
295.9682235853
 31
0.0
  0
LINE
  5
2B2
330
231
100
AcDbEntity
  8
3-1MA
  6
Continuous
 62
     7
100
AcDbLine
 10
304.0290481878
 20
295.9682235853
 30
0.0
 11
308.6478503414
 21
303.9682235853
 31
0.0
  0
LINE
  5
2B3
330
231
100
AcDbEntity
  8
3-1MA
  6
Continuous
 62
     7
100
AcDbLine
 10
308.6478503414
 20
303.9682235853
 30
0.0
 11
304.0290481878
 21
311.9682235853
 31
0.0
  0
LINE
  5
2B4
330
231
100
AcDbEntity
  8
3-1MA
  6
Continuous
 62
     7
100
AcDbLine
 10
304.0290481878
 20
311.9682235853
 30
0.0
 11
294.7914438808
 21
311.9682235853
 31
0.0
  0
LINE
  5
2B5
330
231
100
AcDbEntity
  8
3-1MA
  6
Continuous
 62
     7
100
AcDbLine
 10
294.7914438808
 20
311.9682235853
 30
0.0
 11
290.1726417273
 21
303.9682235853
 31
0.0
  0
LINE
  5
2B6
330
231
100
AcDbEntity
  8
3-1MA
  6
Continuous
 62
     7
100
AcDbLine
 10
290.1726417273
 20
303.9682235853
 30
0.0
 11
294.7914438808
 21
295.9682235853
 31
0.0
  0
CIRCLE
  5
2B7
330
231
100
AcDbEntity
  8
3-1MA
  6
Continuous
 62
     7
100
AcDbCircle
 10
299.4102460343
 20
303.9682235853
 30
0.0
 40
7.5
  0
CIRCLE
  5
2B8
330
231
100
AcDbEntity
  8
3-1MA
  6
Continuous
 62
     7
100
AcDbCircle
 10
299.4102460343
 20
303.9682235853
 30
0.0
 40
6.5
  0
ARC
  5
2B9
330
231
100
AcDbEntity
  8
3-1MA
  6
Continuous
 62
     7
100
AcDbCircle
 10
299.4102460343
 20
303.9682235853
 30
0.0
 40
4.999999999999956
100
AcDbArc
 50
338.6269265587
 51
81.3730734413
  0
ARC
  5
2BA
330
231
100
AcDbEntity
  8
3-1MA
  6
Continuous
 62
     7
100
AcDbCircle
 10
299.4102460343
 20
303.9682235853
 30
0.0
 40
4.999999999999713
100
AcDbArc
 50
98.6269265587
 51
201.3730734413
  0
CIRCLE
  5
2BB
330
231
100
AcDbEntity
  8
3-1MA
  6
Continuous
 62
     7
100
AcDbCircle
 10
299.4102460343
 20
303.9682235853
 30
0.0
 40
5.5
  0
LINE
  5
2BC
330
231
100
AcDbEntity
  8
3-1MA
  6
Continuous
 62
     7
100
AcDbLine
 10
296.9246973867
 20
301.6671660007
 30
0.0
 11
295.5041100869
 21
300.8469895408
 31
0.0
  0
LINE
  5
2BD
330
231
100
AcDbEntity
  8
3-1MA
  6
Continuous
 62
     7
100
AcDbLine
 10
294.7914438808
 20
311.9682235853
 30
0.0
 11
294.5027687462
 21
312.4682235853
 31
0.0
  0
LINE
  5
2BE
330
231
100
AcDbEntity
  8
3-1MA
  6
Continuous
 62
     7
100
AcDbLine
 10
289.5952914581
 20
303.9682235853
 30
0.0
 11
290.1726417273
 21
303.9682235853
 31
0.0
  0
LINE
  5
2BF
330
231
100
AcDbEntity
  8
3-1MA
  6
Continuous
 62
     7
100
AcDbLine
 10
304.0290481878
 20
311.9682235853
 30
0.0
 11
304.3177233224
 21
312.4682235853
 31
0.0
  0
LINE
  5
2C0
330
231
100
AcDbEntity
  8
3-1MA
  6
Continuous
 62
     7
100
AcDbLine
 10
309.2252006105
 20
303.9682235853
 30
0.0
 11
308.6478503414
 21
303.9682235853
 31
0.0
  0
LINE
  5
2C1
330
231
100
AcDbEntity
  8
3-1MA
  6
Continuous
 62
     7
100
AcDbLine
 10
294.7914438808
 20
295.9682235853
 30
0.0
 11
294.5027687462
 21
295.4682235853
 31
0.0
  0
LINE
  5
2C2
330
231
100
AcDbEntity
  8
3-1MA
  6
Continuous
 62
     7
100
AcDbLine
 10
304.3177233224
 20
295.4682235853
 30
0.0
 11
304.0290481878
 21
295.9682235853
 31
0.0
  0
ARC
  5
2C3
330
231
100
AcDbEntity
  8
3-1MA
  6
Continuous
 62
     7
100
AcDbCircle
 10
299.4102460343
 20
303.9682235853
 30
0.0
 40
5.000000000000081
100
AcDbArc
 50
218.6269265587
 51
321.3730734413
  0
ARC
  5
2C4
330
231
100
AcDbEntity
  8
3-1MA
  6
Continuous
 62
     7
100
AcDbCircle
 10
299.4102460343
 20
297.4829992415
 30
0.0
 40
4.86674465620371
100
AcDbArc
 50
60.711866447
 51
120.711866447
  0
ARC
  5
2C5
330
231
100
AcDbEntity
  8
3-1MA
  6
Continuous
 62
     7
100
AcDbCircle
 10
299.4102460343
 20
303.9682235853
 30
0.0
 40
5.000000000000069
100
AcDbArc
 50
321.3730734413
 51
338.6269265587
  0
LINE
  5
2C6
330
231
100
AcDbEntity
  8
3-1MA
  6
Continuous
 62
     7
100
AcDbLine
 10
304.0663819817
 20
302.1460276465
 30
0.0
 11
302.6457946819
 21
302.9662041064
 31
0.0
  0
LINE
  5
2C7
330
231
100
AcDbEntity
  8
3-1MA
  6
Continuous
 62
     7
100
AcDbLine
 10
300.1602460343
 20
307.1503708656
 30
0.0
 11
300.1602460343
 21
308.9116535686
 31
0.0
  0
ARC
  5
2C8
330
231
100
AcDbEntity
  8
3-1MA
  6
Continuous
 62
     7
100
AcDbCircle
 10
299.4102460343
 20
303.9682235853
 30
0.0
 40
4.999999999999713
100
AcDbArc
 50
81.3730734413
 51
98.6269265587
  0
LINE
  5
2C9
330
231
100
AcDbEntity
  8
3-1MA
  6
Continuous
 62
     7
100
AcDbLine
 10
296.279425651
 20
303.026668998
 30
0.0
 11
294.7541100869
 21
302.1460276465
 31
0.0
  0
ARC
  5
2CA
330
231
100
AcDbEntity
  8
3-1MA
  6
Continuous
 62
     7
100
AcDbCircle
 10
299.4102460343
 20
303.9682235853
 30
0.0
 40
4.999999999999969
100
AcDbArc
 50
201.3730734413
 51
218.6269265587
  0
ARC
  5
2CB
330
231
100
AcDbEntity
  8
3-1MA
  6
Continuous
 62
     7
100
AcDbCircle
 10
305.0266150653
 20
307.2108357572
 30
0.0
 40
4.86674465620341
100
AcDbArc
 50
180.711866447
 51
240.711866447
  0
LINE
  5
2CC
330
231
100
AcDbEntity
  8
3-1MA
  6
Continuous
 62
     7
100
AcDbLine
 10
303.3163819817
 20
300.8469895408
 30
0.0
 11
301.7910664177
 21
301.7276308923
 31
0.0
  0
ARC
  5
2CD
330
231
100
AcDbEntity
  8
3-1MA
  6
Continuous
 62
     7
100
AcDbCircle
 10
293.7938770034
 20
307.2108357572
 30
0.0
 40
4.8667446562031
100
AcDbArc
 50
300.711866447
 51
0.711866447
  0
LINE
  5
2CE
330
231
100
AcDbEntity
  8
3-1MA
  6
Continuous
 62
     7
100
AcDbLine
 10
298.6602460343
 20
307.2713006487
 30
0.0
 11
298.6602460343
 21
308.9116535686
 31
0.0
  0
CIRCLE
  5
2CF
330
231
100
AcDbEntity
  8
3-1MA
  6
Continuous
 62
     7
100
AcDbCircle
 10
339.9102460343
 20
227.4333028158
 30
0.0
 40
5.0
  0
CIRCLE
  5
2D0
330
231
100
AcDbEntity
  8
3-1MA
  6
Continuous
 62
     7
100
AcDbCircle
 10
339.9102460343
 20
227.4333028158
 30
0.0
 40
4.5
  0
CIRCLE
  5
2D1
330
231
100
AcDbEntity
  8
3-1MA
  6
Continuous
 62
     7
100
AcDbCircle
 10
339.9102460343
 20
227.4333028158
 30
0.0
 40
2.8875
  0
LINE
  5
2D2
330
231
100
AcDbEntity
  8
3-1MA
  6
Continuous
 62
     7
100
AcDbLine
 10
339.9102460343
 20
230.320631512
 30
0.0
 11
342.4107460343
 21
228.8769671639
 31
0.0
  0
LINE
  5
2D3
330
231
100
AcDbEntity
  8
3-1MA
  6
Continuous
 62
     7
100
AcDbLine
 10
342.4107460343
 20
228.8769671639
 30
0.0
 11
342.4107460343
 21
225.9896384677
 31
0.0
  0
LINE
  5
2D4
330
231
100
AcDbEntity
  8
3-1MA
  6
Continuous
 62
     7
100
AcDbLine
 10
342.4107460343
 20
225.9896384677
 30
0.0
 11
339.9102460343
 21
224.5459741196
 31
0.0
  0
LINE
  5
2D5
330
231
100
AcDbEntity
  8
3-1MA
  6
Continuous
 62
     7
100
AcDbLine
 10
339.9102460343
 20
224.5459741196
 30
0.0
 11
337.4097460343
 21
225.9896384677
 31
0.0
  0
LINE
  5
2D6
330
231
100
AcDbEntity
  8
3-1MA
  6
Continuous
 62
     7
100
AcDbLine
 10
337.4097460343
 20
225.9896384677
 30
0.0
 11
337.4097460343
 21
228.8769671639
 31
0.0
  0
LINE
  5
2D7
330
231
100
AcDbEntity
  8
3-1MA
  6
Continuous
 62
     7
100
AcDbLine
 10
337.4097460343
 20
228.8769671639
 30
0.0
 11
339.9102460343
 21
230.320631512
 31
0.0
  0
LINE
  5
2D8
330
231
100
AcDbEntity
  8
3-1MA
  6
Continuous
 62
     7
100
AcDbLine
 10
243.4102460343
 20
317.4333028158
 30
0.0
 11
243.4102460343
 21
247.4333028158
 31
0.0
  0
LINE
  5
2D9
330
231
100
AcDbEntity
  8
3-1MA
  6
Continuous
 62
     7
100
AcDbLine
 10
289.9102460343
 20
213.8333028158
 30
0.0
 11
308.9102460343
 21
213.8333028158
 31
0.0
  0
LINE
  5
2DA
330
231
100
AcDbEntity
  8
3-1MA
  6
Continuous
 62
     7
100
AcDbLine
 10
290.4102460343
 20
213.3333028158
 30
0.0
 11
308.4102460343
 21
213.3333028158
 31
0.0
  0
LINE
  5
2DB
330
231
100
AcDbEntity
  8
3-1MA
  6
Continuous
 62
     7
100
AcDbLine
 10
355.4102460343
 20
317.4333028158
 30
0.0
 11
355.4102460343
 21
247.4333028158
 31
0.0
  0
LINE
  5
2DC
330
231
100
AcDbEntity
  8
3-1MA
  6
Continuous
 62
     7
100
AcDbLine
 10
243.2102460343
 20
292.4333028158
 30
0.0
 11
243.2102460343
 21
262.4333028158
 31
0.0
  0
LINE
  5
2DD
330
231
100
AcDbEntity
  8
3-1MA
  6
Continuous
 62
     7
100
AcDbLine
 10
355.6102460343
 20
292.4333028158
 30
0.0
 11
355.6102460343
 21
262.4333028158
 31
0.0
  0
LINE
  5
2DE
330
231
100
AcDbEntity
  8
3-1MA
  6
Continuous
 62
     7
100
AcDbLine
 10
242.4102460343
 20
291.6333028158
 30
0.0
 11
242.4102460343
 21
263.2333028158
 31
0.0
  0
LINE
  5
2DF
330
231
100
AcDbEntity
  8
3-1MA
  6
Continuous
 62
     7
100
AcDbLine
 10
356.4102460343
 20
291.6333028158
 30
0.0
 11
356.4102460343
 21
263.2333028158
 31
0.0
  0
LINE
  5
2E0
330
231
100
AcDbEntity
  8
3-1MA
  6
Continuous
 62
     7
100
AcDbLine
 10
355.0102460343
 20
330.9333028158
 30
0.0
 11
355.0102460343
 21
345.0333028158
 31
0.0
  0
LINE
  5
2E1
330
231
100
AcDbEntity
  8
3-1MA
  6
Continuous
 62
     7
100
AcDbLine
 10
355.5102460343
 20
331.4333028158
 30
0.0
 11
355.5102460343
 21
345.5333028158
 31
0.0
  0
LINE
  5
2E2
330
231
100
AcDbEntity
  8
3-1MA
  6
Continuous
 62
     7
100
AcDbLine
 10
243.8102460343
 20
345.0333028158
 30
0.0
 11
243.8102460343
 21
330.981865255
 31
0.0
  0
LINE
  5
2E3
330
231
100
AcDbEntity
  8
3-1MA
  6
Continuous
 62
     7
100
AcDbLine
 10
243.3102460343
 20
345.5333028158
 30
0.0
 11
243.3102460343
 21
331.481865255
 31
0.0
  0
LINE
  5
2E4
330
231
100
AcDbEntity
  8
3-1MA
  6
Continuous
 62
     7
100
AcDbLine
 10
342.4107460343
 20
363.9896384677
 30
0.0
 11
339.9102460343
 21
362.5459741196
 31
0.0
  0
LINE
  5
2E5
330
231
100
AcDbEntity
  8
3-1MA
  6
Continuous
 62
     7
100
AcDbLine
 10
337.4097460343
 20
366.8769671639
 30
0.0
 11
339.9102460343
 21
368.320631512
 31
0.0
  0
LINE
  5
2E6
330
231
100
AcDbEntity
  8
3-1MA
  6
Continuous
 62
     7
100
AcDbLine
 10
337.4097460343
 20
363.9896384677
 30
0.0
 11
337.4097460343
 21
366.8769671639
 31
0.0
  0
LINE
  5
2E7
330
231
100
AcDbEntity
  8
3-1MA
  6
Continuous
 62
     7
100
AcDbLine
 10
339.9102460343
 20
362.5459741196
 30
0.0
 11
337.4097460343
 21
363.9896384677
 31
0.0
  0
LINE
  5
2E8
330
231
100
AcDbEntity
  8
3-1MA
  6
Continuous
 62
     7
100
AcDbLine
 10
339.9102460343
 20
368.320631512
 30
0.0
 11
342.4107460343
 21
366.8769671639
 31
0.0
  0
LINE
  5
2E9
330
231
100
AcDbEntity
  8
3-1MA
  6
Continuous
 62
     7
100
AcDbLine
 10
342.4107460343
 20
366.8769671639
 30
0.0
 11
342.4107460343
 21
363.9896384677
 31
0.0
  0
CIRCLE
  5
2EA
330
231
100
AcDbEntity
  8
3-1MA
  6
Continuous
 62
     7
100
AcDbCircle
 10
339.9102460343
 20
365.4333028158
 30
0.0
 40
2.8875
  0
CIRCLE
  5
2EB
330
231
100
AcDbEntity
  8
3-1MA
  6
Continuous
 62
     7
100
AcDbCircle
 10
339.9102460343
 20
365.4333028158
 30
0.0
 40
4.5
  0
CIRCLE
  5
2EC
330
231
100
AcDbEntity
  8
3-1MA
  6
Continuous
 62
     7
100
AcDbCircle
 10
339.9102460343
 20
365.4333028158
 30
0.0
 40
5.0
  0
LINE
  5
2ED
330
231
100
AcDbEntity
  8
3-1MA
  6
Continuous
 62
     7
100
AcDbLine
 10
261.4107460343
 20
225.9896384677
 30
0.0
 11
258.9102460343
 21
224.5459741196
 31
0.0
  0
LINE
  5
2EE
330
231
100
AcDbEntity
  8
3-1MA
  6
Continuous
 62
     7
100
AcDbLine
 10
256.4097460343
 20
228.8769671639
 30
0.0
 11
258.9102460343
 21
230.320631512
 31
0.0
  0
LINE
  5
2EF
330
231
100
AcDbEntity
  8
3-1MA
  6
Continuous
 62
     7
100
AcDbLine
 10
256.4097460343
 20
225.9896384677
 30
0.0
 11
256.4097460343
 21
228.8769671639
 31
0.0
  0
LINE
  5
2F0
330
231
100
AcDbEntity
  8
3-1MA
  6
Continuous
 62
     7
100
AcDbLine
 10
258.9102460343
 20
224.5459741196
 30
0.0
 11
256.4097460343
 21
225.9896384677
 31
0.0
  0
LINE
  5
2F1
330
231
100
AcDbEntity
  8
3-1MA
  6
Continuous
 62
     7
100
AcDbLine
 10
258.9102460343
 20
230.320631512
 30
0.0
 11
261.4107460343
 21
228.8769671639
 31
0.0
  0
LINE
  5
2F2
330
231
100
AcDbEntity
  8
3-1MA
  6
Continuous
 62
     7
100
AcDbLine
 10
261.4107460343
 20
228.8769671639
 30
0.0
 11
261.4107460343
 21
225.9896384677
 31
0.0
  0
CIRCLE
  5
2F3
330
231
100
AcDbEntity
  8
3-1MA
  6
Continuous
 62
     7
100
AcDbCircle
 10
258.9102460343
 20
227.4333028158
 30
0.0
 40
2.8875
  0
CIRCLE
  5
2F4
330
231
100
AcDbEntity
  8
3-1MA
  6
Continuous
 62
     7
100
AcDbCircle
 10
258.9102460343
 20
227.4333028158
 30
0.0
 40
4.5
  0
CIRCLE
  5
2F5
330
231
100
AcDbEntity
  8
3-1MA
  6
Continuous
 62
     7
100
AcDbCircle
 10
258.9102460343
 20
227.4333028158
 30
0.0
 40
5.0
  0
LINE
  5
2F6
330
231
100
AcDbEntity
  8
3-1MA
  6
Continuous
 62
     7
100
AcDbLine
 10
261.4107460343
 20
363.9896384677
 30
0.0
 11
258.9102460343
 21
362.5459741196
 31
0.0
  0
LINE
  5
2F7
330
231
100
AcDbEntity
  8
3-1MA
  6
Continuous
 62
     7
100
AcDbLine
 10
256.4097460343
 20
366.8769671639
 30
0.0
 11
258.9102460343
 21
368.320631512
 31
0.0
  0
LINE
  5
2F8
330
231
100
AcDbEntity
  8
3-1MA
  6
Continuous
 62
     7
100
AcDbLine
 10
256.4097460343
 20
363.9896384677
 30
0.0
 11
256.4097460343
 21
366.8769671639
 31
0.0
  0
LINE
  5
2F9
330
231
100
AcDbEntity
  8
3-1MA
  6
Continuous
 62
     7
100
AcDbLine
 10
258.9102460343
 20
362.5459741196
 30
0.0
 11
256.4097460343
 21
363.9896384677
 31
0.0
  0
LINE
  5
2FA
330
231
100
AcDbEntity
  8
3-1MA
  6
Continuous
 62
     7
100
AcDbLine
 10
258.9102460343
 20
368.320631512
 30
0.0
 11
261.4107460343
 21
366.8769671639
 31
0.0
  0
LINE
  5
2FB
330
231
100
AcDbEntity
  8
3-1MA
  6
Continuous
 62
     7
100
AcDbLine
 10
261.4107460343
 20
366.8769671639
 30
0.0
 11
261.4107460343
 21
363.9896384677
 31
0.0
  0
CIRCLE
  5
2FC
330
231
100
AcDbEntity
  8
3-1MA
  6
Continuous
 62
     7
100
AcDbCircle
 10
258.9102460343
 20
365.4333028158
 30
0.0
 40
2.8875
  0
CIRCLE
  5
2FD
330
231
100
AcDbEntity
  8
3-1MA
  6
Continuous
 62
     7
100
AcDbCircle
 10
258.9102460343
 20
365.4333028158
 30
0.0
 40
4.5
  0
CIRCLE
  5
2FE
330
231
100
AcDbEntity
  8
3-1MA
  6
Continuous
 62
     7
100
AcDbCircle
 10
258.9102460343
 20
365.4333028158
 30
0.0
 40
5.0
  0
CIRCLE
  5
2FF
330
231
100
AcDbEntity
  8
3-1MA
  6
Continuous
 62
     7
100
AcDbCircle
 10
339.9102460343
 20
271.4333028158
 30
0.0
 40
5.0
  0
CIRCLE
  5
300
330
231
100
AcDbEntity
  8
3-1MA
  6
Continuous
 62
     7
100
AcDbCircle
 10
339.9102460343
 20
271.4333028158
 30
0.0
 40
4.5
  0
LINE
  5
301
330
231
100
AcDbEntity
  8
3-1MA
  6
Continuous
 62
     7
100
AcDbLine
 10
337.4097460343
 20
272.8769671639
 30
0.0
 11
339.9102460343
 21
274.320631512
 31
0.0
  0
LINE
  5
302
330
231
100
AcDbEntity
  8
3-1MA
  6
Continuous
 62
     7
100
AcDbLine
 10
337.4097460343
 20
269.9896384677
 30
0.0
 11
337.4097460343
 21
272.8769671639
 31
0.0
  0
LINE
  5
303
330
231
100
AcDbEntity
  8
3-1MA
  6
Continuous
 62
     7
100
AcDbLine
 10
339.9102460343
 20
268.5459741196
 30
0.0
 11
337.4097460343
 21
269.9896384677
 31
0.0
  0
LINE
  5
304
330
231
100
AcDbEntity
  8
3-1MA
  6
Continuous
 62
     7
100
AcDbLine
 10
342.4107460343
 20
272.8769671639
 30
0.0
 11
342.4107460343
 21
269.9896384677
 31
0.0
  0
LINE
  5
305
330
231
100
AcDbEntity
  8
3-1MA
  6
Continuous
 62
     7
100
AcDbLine
 10
339.9102460343
 20
274.320631512
 30
0.0
 11
342.4107460343
 21
272.8769671639
 31
0.0
  0
CIRCLE
  5
306
330
231
100
AcDbEntity
  8
3-1MA
  6
Continuous
 62
     7
100
AcDbCircle
 10
339.9102460343
 20
271.4333028158
 30
0.0
 40
2.8875
  0
LINE
  5
307
330
231
100
AcDbEntity
  8
3-1MA
  6
Continuous
 62
     7
100
AcDbLine
 10
342.4107460343
 20
269.9896384677
 30
0.0
 11
339.9102460343
 21
268.5459741196
 31
0.0
  0
LINE
  5
308
330
231
100
AcDbEntity
  8
3-1MA
  6
Continuous
 62
     7
100
AcDbLine
 10
342.4107460343
 20
319.9896384677
 30
0.0
 11
339.9102460343
 21
318.5459741196
 31
0.0
  0
LINE
  5
309
330
231
100
AcDbEntity
  8
3-1MA
  6
Continuous
 62
     7
100
AcDbLine
 10
339.9102460343
 20
318.5459741196
 30
0.0
 11
337.4097460343
 21
319.9896384677
 31
0.0
  0
CIRCLE
  5
30A
330
231
100
AcDbEntity
  8
3-1MA
  6
Continuous
 62
     7
100
AcDbCircle
 10
339.9102460343
 20
321.4333028158
 30
0.0
 40
2.8875
  0
CIRCLE
  5
30B
330
231
100
AcDbEntity
  8
3-1MA
  6
Continuous
 62
     7
100
AcDbCircle
 10
339.9102460343
 20
321.4333028158
 30
0.0
 40
4.5
  0
CIRCLE
  5
30C
330
231
100
AcDbEntity
  8
3-1MA
  6
Continuous
 62
     7
100
AcDbCircle
 10
339.9102460343
 20
321.4333028158
 30
0.0
 40
5.0
  0
LINE
  5
30D
330
231
100
AcDbEntity
  8
3-1MA
  6
Continuous
 62
     7
100
AcDbLine
 10
342.4107460343
 20
322.8769671639
 30
0.0
 11
342.4107460343
 21
319.9896384677
 31
0.0
  0
LINE
  5
30E
330
231
100
AcDbEntity
  8
3-1MA
  6
Continuous
 62
     7
100
AcDbLine
 10
339.9102460343
 20
324.320631512
 30
0.0
 11
342.4107460343
 21
322.8769671639
 31
0.0
  0
LINE
  5
30F
330
231
100
AcDbEntity
  8
3-1MA
  6
Continuous
 62
     7
100
AcDbLine
 10
337.4097460343
 20
319.9896384677
 30
0.0
 11
337.4097460343
 21
322.8769671639
 31
0.0
  0
LINE
  5
310
330
231
100
AcDbEntity
  8
3-1MA
  6
Continuous
 62
     7
100
AcDbLine
 10
337.4097460343
 20
322.8769671639
 30
0.0
 11
339.9102460343
 21
324.320631512
 31
0.0
  0
LINE
  5
311
330
231
100
AcDbEntity
  8
3-1MA
  6
Continuous
 62
     7
100
AcDbLine
 10
261.4107460343
 20
269.9896384677
 30
0.0
 11
258.9102460343
 21
268.5459741196
 31
0.0
  0
LINE
  5
312
330
231
100
AcDbEntity
  8
3-1MA
  6
Continuous
 62
     7
100
AcDbLine
 10
258.9102460343
 20
268.5459741196
 30
0.0
 11
256.4097460343
 21
269.9896384677
 31
0.0
  0
CIRCLE
  5
313
330
231
100
AcDbEntity
  8
3-1MA
  6
Continuous
 62
     7
100
AcDbCircle
 10
258.9102460343
 20
271.4333028158
 30
0.0
 40
2.8875
  0
CIRCLE
  5
314
330
231
100
AcDbEntity
  8
3-1MA
  6
Continuous
 62
     7
100
AcDbCircle
 10
258.9102460343
 20
271.4333028158
 30
0.0
 40
4.5
  0
CIRCLE
  5
315
330
231
100
AcDbEntity
  8
3-1MA
  6
Continuous
 62
     7
100
AcDbCircle
 10
258.9102460343
 20
271.4333028158
 30
0.0
 40
5.0
  0
LINE
  5
316
330
231
100
AcDbEntity
  8
3-1MA
  6
Continuous
 62
     7
100
AcDbLine
 10
261.4107460343
 20
272.8769671639
 30
0.0
 11
261.4107460343
 21
269.9896384677
 31
0.0
  0
LINE
  5
317
330
231
100
AcDbEntity
  8
3-1MA
  6
Continuous
 62
     7
100
AcDbLine
 10
258.9102460343
 20
274.320631512
 30
0.0
 11
261.4107460343
 21
272.8769671639
 31
0.0
  0
LINE
  5
318
330
231
100
AcDbEntity
  8
3-1MA
  6
Continuous
 62
     7
100
AcDbLine
 10
256.4097460343
 20
269.9896384677
 30
0.0
 11
256.4097460343
 21
272.8769671639
 31
0.0
  0
LINE
  5
319
330
231
100
AcDbEntity
  8
3-1MA
  6
Continuous
 62
     7
100
AcDbLine
 10
256.4097460343
 20
272.8769671639
 30
0.0
 11
258.9102460343
 21
274.320631512
 31
0.0
  0
LINE
  5
31A
330
231
100
AcDbEntity
  8
3-1MA
  6
Continuous
 62
     7
100
AcDbLine
 10
261.4107460343
 20
319.9896384677
 30
0.0
 11
258.9102460343
 21
318.5459741196
 31
0.0
  0
LINE
  5
31B
330
231
100
AcDbEntity
  8
3-1MA
  6
Continuous
 62
     7
100
AcDbLine
 10
258.9102460343
 20
318.5459741196
 30
0.0
 11
256.4097460343
 21
319.9896384677
 31
0.0
  0
CIRCLE
  5
31C
330
231
100
AcDbEntity
  8
3-1MA
  6
Continuous
 62
     7
100
AcDbCircle
 10
258.9102460343
 20
321.4333028158
 30
0.0
 40
2.8875
  0
CIRCLE
  5
31D
330
231
100
AcDbEntity
  8
3-1MA
  6
Continuous
 62
     7
100
AcDbCircle
 10
258.9102460343
 20
321.4333028158
 30
0.0
 40
4.5
  0
CIRCLE
  5
31E
330
231
100
AcDbEntity
  8
3-1MA
  6
Continuous
 62
     7
100
AcDbCircle
 10
258.9102460343
 20
321.4333028158
 30
0.0
 40
5.0
  0
LINE
  5
31F
330
231
100
AcDbEntity
  8
3-1MA
  6
Continuous
 62
     7
100
AcDbLine
 10
261.4107460343
 20
322.8769671639
 30
0.0
 11
261.4107460343
 21
319.9896384677
 31
0.0
  0
LINE
  5
320
330
231
100
AcDbEntity
  8
3-1MA
  6
Continuous
 62
     7
100
AcDbLine
 10
258.9102460343
 20
324.320631512
 30
0.0
 11
261.4107460343
 21
322.8769671639
 31
0.0
  0
LINE
  5
321
330
231
100
AcDbEntity
  8
3-1MA
  6
Continuous
 62
     7
100
AcDbLine
 10
256.4097460343
 20
319.9896384677
 30
0.0
 11
256.4097460343
 21
322.8769671639
 31
0.0
  0
LINE
  5
322
330
231
100
AcDbEntity
  8
3-1MA
  6
Continuous
 62
     7
100
AcDbLine
 10
256.4097460343
 20
322.8769671639
 30
0.0
 11
258.9102460343
 21
324.320631512
 31
0.0
  0
LINE
  5
323
330
231
100
AcDbEntity
  8
3-1MA
  6
Continuous
 62
     7
100
AcDbLine
 10
293.9102460343
 20
384.4333028158
 30
0.0
 11
293.9102460343
 21
382.4333028158
 31
0.0
  0
LINE
  5
324
330
231
100
AcDbEntity
  8
3-1MA
  6
Continuous
 62
     7
100
AcDbLine
 10
304.9102460343
 20
382.4333028158
 30
0.0
 11
304.9102460343
 21
384.4333028158
 31
0.0
  0
LINE
  5
325
330
231
100
AcDbEntity
  8
3-1MA
  6
Continuous
 62
     7
100
AcDbLine
 10
290.9568930343
 20
392.9333028158
 30
0.0
 11
290.9568930343
 21
384.4333028158
 31
0.0
  0
LINE
  5
326
330
231
100
AcDbEntity
  8
3-1MA
  6
Continuous
 62
     7
100
AcDbLine
 10
307.9568930343
 20
384.4333028158
 30
0.0
 11
307.9568930343
 21
392.9333028158
 31
0.0
  0
ARC
  5
327
330
231
100
AcDbEntity
  8
3-1MA
  6
Continuous
 62
     7
100
AcDbCircle
 10
292.4568930343
 20
392.9333028158
 30
0.0
 40
1.500000000000001
100
AcDbArc
 50
90.0
 51
180.0
  0
ARC
  5
328
330
231
100
AcDbEntity
  8
3-1MA
  6
Continuous
 62
     7
100
AcDbCircle
 10
306.4568930343
 20
392.9333028158
 30
0.0
 40
1.500000000000001
100
AcDbArc
 50
0.0
 51
90.0
  0
LINE
  5
329
330
231
100
AcDbEntity
  8
3-1MA
  6
Continuous
 62
     7
100
AcDbLine
 10
289.9102460343
 20
380.0333028158
 30
0.0
 11
289.9102460343
 21
379.9333028158
 31
0.0
  0
LINE
  5
32A
330
231
100
AcDbEntity
  8
3-1MA
  6
Continuous
 62
     7
100
AcDbLine
 10
308.9102460343
 20
379.9333028158
 30
0.0
 11
308.9102460343
 21
380.0333028158
 31
0.0
  0
LINE
  5
32B
330
231
100
AcDbEntity
  8
3-1MA
  6
Continuous
 62
     7
100
AcDbLine
 10
308.9102460343
 20
380.0333028158
 30
0.0
 11
308.4102460343
 21
380.5333028158
 31
0.0
  0
LINE
  5
32C
330
231
100
AcDbEntity
  8
3-1MA
  6
Continuous
 62
     7
100
AcDbLine
 10
290.4102460343
 20
380.5333028158
 30
0.0
 11
289.9102460343
 21
380.0333028158
 31
0.0
  0
LINE
  5
32D
330
231
100
AcDbEntity
  8
3-1MA
  6
Continuous
 62
     7
100
AcDbLine
 10
243.9102460343
 20
317.4333028158
 30
0.0
 11
243.4102460343
 21
317.4333028158
 31
0.0
  0
LINE
  5
32E
330
231
100
AcDbEntity
  8
3-1MA
  6
Continuous
 62
     7
100
AcDbLine
 10
308.9102460343
 20
213.8333028158
 30
0.0
 11
308.9102460343
 21
213.9333028158
 31
0.0
  0
LINE
  5
32F
330
231
100
AcDbEntity
  8
3-1MA
  6
Continuous
 62
     7
100
AcDbLine
 10
289.9102460343
 20
213.9333028158
 30
0.0
 11
289.9102460343
 21
213.8333028158
 31
0.0
  0
LINE
  5
330
330
231
100
AcDbEntity
  8
3-1MA
  6
Continuous
 62
     7
100
AcDbLine
 10
289.9102460343
 20
213.8333028158
 30
0.0
 11
290.4102460343
 21
213.3333028158
 31
0.0
  0
LINE
  5
331
330
231
100
AcDbEntity
  8
3-1MA
  6
Continuous
 62
     7
100
AcDbLine
 10
308.4102460343
 20
213.3333028158
 30
0.0
 11
308.9102460343
 21
213.8333028158
 31
0.0
  0
LINE
  5
332
330
231
100
AcDbEntity
  8
3-1MA
  6
Continuous
 62
     7
100
AcDbLine
 10
355.4102460343
 20
317.4333028158
 30
0.0
 11
354.9102460343
 21
317.4333028158
 31
0.0
  0
LINE
  5
333
330
231
100
AcDbEntity
  8
3-1MA
  6
Continuous
 62
     7
100
AcDbLine
 10
243.4102460343
 20
292.4333028158
 30
0.0
 11
243.2102460343
 21
292.4333028158
 31
0.0
  0
LINE
  5
334
330
231
100
AcDbEntity
  8
3-1MA
  6
Continuous
 62
     7
100
AcDbLine
 10
243.2102460343
 20
262.4333028158
 30
0.0
 11
243.4102460343
 21
262.4333028158
 31
0.0
  0
LINE
  5
335
330
231
100
AcDbEntity
  8
3-1MA
  6
Continuous
 62
     7
100
AcDbLine
 10
355.6102460343
 20
292.4333028158
 30
0.0
 11
355.4102460343
 21
292.4333028158
 31
0.0
  0
LINE
  5
336
330
231
100
AcDbEntity
  8
3-1MA
  6
Continuous
 62
     7
100
AcDbLine
 10
355.4102460343
 20
262.4333028158
 30
0.0
 11
355.6102460343
 21
262.4333028158
 31
0.0
  0
LINE
  5
337
330
231
100
AcDbEntity
  8
3-1MA
  6
Continuous
 62
     7
100
AcDbLine
 10
243.2102460343
 20
292.4333028158
 30
0.0
 11
242.4102460343
 21
291.6333028158
 31
0.0
  0
LINE
  5
338
330
231
100
AcDbEntity
  8
3-1MA
  6
Continuous
 62
     7
100
AcDbLine
 10
242.4102460343
 20
263.2333028158
 30
0.0
 11
243.2102460343
 21
262.4333028158
 31
0.0
  0
LINE
  5
339
330
231
100
AcDbEntity
  8
3-1MA
  6
Continuous
 62
     7
100
AcDbLine
 10
355.6102460343
 20
262.4333028158
 30
0.0
 11
356.4102460343
 21
263.2333028158
 31
0.0
  0
LINE
  5
33A
330
231
100
AcDbEntity
  8
3-1MA
  6
Continuous
 62
     7
100
AcDbLine
 10
356.4102460343
 20
291.6333028158
 30
0.0
 11
355.6102460343
 21
292.4333028158
 31
0.0
  0
LINE
  5
33B
330
231
100
AcDbEntity
  8
3-1MA
  6
Continuous
 62
     7
100
AcDbLine
 10
354.9102460343
 20
330.9333028158
 30
0.0
 11
355.0102460343
 21
330.9333028158
 31
0.0
  0
LINE
  5
33C
330
231
100
AcDbEntity
  8
3-1MA
  6
Continuous
 62
     7
100
AcDbLine
 10
355.0102460343
 20
330.9333028158
 30
0.0
 11
355.5102460343
 21
331.4333028158
 31
0.0
  0
LINE
  5
33D
330
231
100
AcDbEntity
  8
3-1MA
  6
Continuous
 62
     7
100
AcDbLine
 10
243.8102460343
 20
330.981865255
 30
0.0
 11
243.9102460343
 21
330.981865255
 31
0.0
  0
LINE
  5
33E
330
231
100
AcDbEntity
  8
3-1MA
  6
Continuous
 62
     7
100
AcDbLine
 10
243.3102460343
 20
331.481865255
 30
0.0
 11
243.8102460343
 21
330.981865255
 31
0.0
  0
ENDBLK
  5
340
330
231
100
AcDbEntity
  8
0
100
AcDbBlockEnd
  0
BLOCK
  5
56E
330
341
100
AcDbEntity
  8
0
100
AcDbBlockBegin
  2
SE5
 70
     0
 10
0.0
 20
0.0
 30
0.0
  3
SE5
  1

  0
LINE
  5
343
330
341
100
AcDbEntity
  8
3-1MA
  6
Continuous
 62
     7
100
AcDbLine
 10
24.9215386674
 20
97.6126554153
 30
0.0
 11
25.9821988392
 21
99.4497727223
 31
0.0
  0
LINE
  5
344
330
341
100
AcDbEntity
  8
3-1MA
  6
Continuous
 62
     7
100
AcDbLine
 10
51.2027067023
 20
82.4392159757
 30
0.0
 11
24.9215386674
 21
97.6126554153
 31
0.0
  0
ELLIPSE
  5
345
330
341
100
AcDbEntity
  8
3-1MA
  6
Continuous
 62
     7
100
AcDbEllipse
 10
92.0966829292
 20
109.4518558696
 30
0.0
 11
-28.99137808142035
 21
-50.21453975854445
 31
0.0
210
0.0
220
0.0
230
0.9999999999999999
 40
0.5773502692
 41
-0.767696666326934
 42
-0.7134667764473512
  0
LINE
  5
346
330
341
100
AcDbEntity
  8
3-1MA
  6
Continuous
 62
     7
100
AcDbLine
 10
25.9821988392
 20
99.4497727223
 30
0.0
 11
51.1031062434
 21
84.9462100702
 31
0.0
  0
LINE
  5
347
330
341
100
AcDbEntity
  8
3-1MA
  6
Continuous
 62
     7
100
AcDbLine
 10
24.2144318862
 20
205.7984523882
 30
0.0
 11
24.2144318862
 21
179.6705617985
 31
0.0
  0
LINE
  5
348
330
341
100
AcDbEntity
  8
3-1MA
  6
Continuous
 62
     7
100
AcDbLine
 10
24.2144318862
 20
179.6705617985
 30
0.0
 11
31.1302583236
 21
175.6777075432
 31
0.0
  0
ELLIPSE
  5
349
330
341
100
AcDbEntity
  8
3-1MA
  6
Continuous
 62
     7
100
AcDbEllipse
 10
37.6494607288
 20
167.0148647941
 30
0.0
 11
5.499999999999545
 21
-9.526279441629097
 31
0.0
210
0.0
220
0.0
230
0.9999999999999997
 40
0.5773502692
 41
1.362329508633989
 42
3.350059471750868
  0
LINE
  5
34A
330
341
100
AcDbEntity
  8
3-1MA
  6
Continuous
 62
     7
100
AcDbLine
 10
44.168663134
 20
168.1499810161
 30
0.0
 11
104.8246049415
 21
133.1302566856
 31
0.0
  0
LINE
  5
34B
330
341
100
AcDbEntity
  8
3-1MA
  6
Continuous
 62
     7
100
AcDbLine
 10
104.8246049415
 20
133.1302566856
 30
0.0
 11
104.8246049415
 21
159.2581472753
 31
0.0
  0
LINE
  5
34C
330
341
100
AcDbEntity
  8
3-1MA
  6
Continuous
 62
     7
100
AcDbLine
 10
104.8246049415
 20
159.2581472753
 30
0.0
 11
24.2144318862
 21
205.7984523882
 31
0.0
  0
ELLIPSE
  5
34D
330
341
100
AcDbEntity
  8
3-1MA
  6
Continuous
 62
     7
100
AcDbEllipse
 10
98.4606439108
 20
158.0334024039
 30
0.0
 11
-1.524999999999859
 21
2.64137748154264
 31
0.0
210
0.0
220
0.0
230
0.9999999999999999
 40
0.5773502692
 41
0.0
 42
6.283185307179586
  0
ELLIPSE
  5
34E
330
341
100
AcDbEntity
  8
3-1MA
  6
Continuous
 62
     7
100
AcDbEllipse
 10
31.2854996981
 20
196.816989998
 30
0.0
 11
-1.524999999999877
 21
2.641377481542633
 31
0.0
210
0.0
220
0.0
230
0.9999999999999999
 40
0.5773502692
 41
0.0
 42
6.283185307179586
  0
LINE
  5
34F
330
341
100
AcDbEntity
  8
3-1MA
  6
Continuous
 62
     7
100
AcDbLine
 10
24.9215386674
 20
72.3012614065
 30
0.0
 11
24.9215386674
 21
97.6126554153
 31
0.0
  0
LINE
  5
350
330
341
100
AcDbEntity
  8
3-1MA
  6
Continuous
 62
     7
100
AcDbLine
 10
24.9215386674
 20
72.3012614065
 30
0.0
 11
104.8246049415
 21
26.1692045841
 31
0.0
  0
LINE
  5
351
330
341
100
AcDbEntity
  8
3-1MA
  6
Continuous
 62
     7
100
AcDbLine
 10
104.8246049415
 20
26.1692045841
 30
0.0
 11
104.8246049415
 21
51.4805985928
 31
0.0
  0
LINE
  5
352
330
341
100
AcDbEntity
  8
3-1MA
  6
Continuous
 62
     7
100
AcDbLine
 10
104.8246049415
 20
51.4805985928
 30
0.0
 11
89.1500386244
 21
60.5303136755
 31
0.0
  0
ELLIPSE
  5
353
330
341
100
AcDbEntity
  8
3-1MA
  6
Continuous
 62
     7
100
AcDbEllipse
 10
70.1763726633
 20
96.7961588343
 30
0.0
 11
20.49999999999821
 21
-35.50704155516304
 31
0.0
210
0.0
220
0.0
230
1.0
 40
0.5773502692
 41
4.784320366754036
 42
6.211253920810407
  0
ELLIPSE
  5
354
330
341
100
AcDbEntity
  8
3-1MA
  6
Continuous
 62
     7
100
AcDbEllipse
 10
98.4606439108
 20
33.9259221029
 30
0.0
 11
-1.524999999999888
 21
2.641377481542583
 31
0.0
210
0.0
220
0.0
230
1.0
 40
0.5773502692
 41
0.0
 42
6.283185307179586
  0
ELLIPSE
  5
355
330
341
100
AcDbEntity
  8
3-1MA
  6
Continuous
 62
     7
100
AcDbEllipse
 10
31.2854996981
 20
72.709509697
 30
0.0
 11
-1.524999999999884
 21
2.641377481542586
 31
0.0
210
0.0
220
0.0
230
1.0
 40
0.5773502692
 41
0.0
 42
6.283185307179586
  0
LINE
  5
356
330
341
100
AcDbEntity
  8
3-1MA
  6
Continuous
 62
     7
100
AcDbLine
 10
129.573342283
 20
175.9963271843
 30
0.0
 11
48.9631692277
 21
222.5366322972
 31
0.0
  0
LINE
  5
357
330
341
100
AcDbEntity
  8
3-1MA
  6
Continuous
 62
     7
100
AcDbLine
 10
130.6340024548
 20
175.3839547486
 30
0.0
 11
129.573342283
 21
175.9963271843
 31
0.0
  0
LINE
  5
358
330
341
100
AcDbEntity
  8
3-1MA
  6
Continuous
 62
     7
100
AcDbLine
 10
50.0238293995
 20
221.9242598615
 30
0.0
 11
79.0152074282
 21
238.6624397705
 31
0.0
  0
LINE
  5
359
330
341
100
AcDbEntity
  8
3-1MA
  6
Continuous
 62
     7
100
AcDbLine
 10
159.6253804834
 20
192.1221346576
 30
0.0
 11
130.6340024548
 21
175.3839547486
 31
0.0
  0
LINE
  5
35A
330
341
100
AcDbEntity
  8
3-1MA
  6
Continuous
 62
     7
100
AcDbLine
 10
159.6253804834
 20
192.1221346576
 30
0.0
 11
118.7664348304
 21
215.7120579292
 31
0.0
  0
LINE
  5
35B
330
341
100
AcDbEntity
  8
3-1MA
  6
Continuous
 62
     7
100
AcDbLine
 10
111.5281291766
 20
219.8910956469
 30
0.0
 11
79.0152074282
 21
238.6624397705
 31
0.0
  0
ELLIPSE
  5
35C
330
341
100
AcDbEntity
  8
3-1MA
  6
Continuous
 62
     7
100
AcDbEllipse
 10
110.481459191
 20
203.7572109359
 30
0.0
 11
-10.99999999999999
 21
-2.732189474663471E-14
 31
0.0
210
0.0
220
0.0
230
1.0
 40
0.5773502692
 41
0.0000000000000046
 42
3.826405662888716
  0
ELLIPSE
  5
35D
330
341
100
AcDbEntity
  8
3-1MA
  6
Continuous
 62
     7
100
AcDbEllipse
 10
110.481459191
 20
203.7572109359
 30
0.0
 11
-10.99999999999999
 21
-2.732189474663471E-14
 31
0.0
210
0.0
220
0.0
230
1.0
 40
0.5773502692
 41
5.592668912761274
 42
6.283185307179586
  0
ELLIPSE
  5
35E
330
341
100
AcDbEntity
  8
3-1MA
  6
Continuous
 62
     7
100
AcDbEllipse
 10
136.6444100949
 20
188.6520241887
 30
0.0
 11
-11.0
 21
8.673617379884035E-16
 31
0.0
210
0.0
220
0.0
230
1.0
 40
0.5773502692
 41
0.0
 42
6.283185307179586
  0
LINE
  5
35F
330
341
100
AcDbEntity
  8
3-1MA
  6
Continuous
 62
     7
100
AcDbLine
 10
79.0152074282
 20
238.6624397705
 30
0.0
 11
80.0758676
 21
240.4995570776
 31
0.0
  0
LINE
  5
360
330
341
100
AcDbEntity
  8
3-1MA
  6
Continuous
 62
     7
100
AcDbLine
 10
160.6860406552
 20
193.9592519647
 30
0.0
 11
159.6253804834
 21
192.1221346576
 31
0.0
  0
LINE
  5
361
330
341
100
AcDbEntity
  8
3-1MA
  6
Continuous
 62
     7
100
AcDbLine
 10
80.0758676
 20
240.4995570776
 30
0.0
 11
160.6860406552
 21
193.9592519647
 31
0.0
  0
LINE
  5
362
330
341
100
AcDbEntity
  8
3-1MA
  6
Continuous
 62
     7
100
AcDbLine
 10
185.4347779967
 20
205.7984523882
 30
0.0
 11
183.3134576532
 21
207.0231972596
 31
0.0
  0
LINE
  5
363
330
341
100
AcDbEntity
  8
3-1MA
  6
Continuous
 62
     7
100
AcDbLine
 10
183.3134576532
 20
207.0231972596
 30
0.0
 11
102.7032845979
 21
253.5635023725
 31
0.0
  0
LINE
  5
364
330
341
100
AcDbEntity
  8
3-1MA
  6
Continuous
 62
     7
100
AcDbLine
 10
48.9631692277
 20
222.5366322972
 30
0.0
 11
26.3357522298
 21
209.4726870024
 31
0.0
  0
LINE
  5
365
330
341
100
AcDbEntity
  8
3-1MA
  6
Continuous
 62
     7
100
AcDbLine
 10
26.3357522298
 20
209.4726870024
 30
0.0
 11
106.945925285
 21
162.9323818895
 31
0.0
  0
LINE
  5
366
330
341
100
AcDbEntity
  8
3-1MA
  6
Continuous
 62
     7
100
AcDbLine
 10
106.945925285
 20
162.9323818895
 30
0.0
 11
129.573342283
 21
175.9963271843
 31
0.0
  0
ELLIPSE
  5
367
330
341
100
AcDbEntity
  8
3-1MA
  6
Continuous
 62
     7
100
AcDbEllipse
 10
99.8748574732
 20
172.3220925702
 30
0.0
 11
-3.050000000000007
 21
3.035766082959412E-15
 31
0.0
210
0.0
220
0.0
230
1.0
 40
0.5773502692
 41
0.0
 42
6.283185307179586
  0
ELLIPSE
  5
368
330
341
100
AcDbEntity
  8
3-1MA
  6
Continuous
 62
     7
100
AcDbEllipse
 10
43.3063149783
 20
204.9819558073
 30
0.0
 11
-3.050000000000004
 21
9.757819552369540E-16
 31
0.0
210
0.0
220
0.0
230
1.0
 40
0.5773502692
 41
0.0
 42
6.283185307179586
  0
LINE
  5
369
330
341
100
AcDbEntity
  8
3-1MA
  6
Continuous
 62
     7
100
AcDbLine
 10
104.8246049415
 20
133.1302566856
 30
0.0
 11
105.8852651133
 21
132.5178842499
 31
0.0
  0
ELLIPSE
  5
36A
330
341
100
AcDbEntity
  8
3-1MA
  6
Continuous
 62
     7
100
AcDbEllipse
 10
38.7101209005
 20
167.6272372298
 30
0.0
 11
-5.499999999999512
 21
9.526279441629072
 31
0.0
210
0.0
220
0.0
230
0.9999999999999999
 40
0.5773502692
 41
0.3639405949302408
 42
4.348448385454628
  0
LINE
  5
36B
330
341
100
AcDbEntity
  8
3-1MA
  6
Continuous
 62
     7
100
AcDbLine
 10
25.275092058
 20
142.6018458069
 30
0.0
 11
25.275092058
 21
179.0581893628
 31
0.0
  0
ARC
  5
36C
330
341
100
AcDbEntity
  8
3-1MA
  6
Continuous
 62
     7
100
AcDbCircle
 10
279.4995290149
 20
242.4115254998
 30
0.0
 40
273.1154270752006
100
AcDbArc
 50
201.4351995045
 51
201.8375199135
  0
LINE
  5
36D
330
341
100
AcDbEntity
  8
3-1MA
  6
Continuous
 62
     7
100
AcDbLine
 10
25.9821988392
 20
99.4497727223
 30
0.0
 11
25.9821988392
 21
140.819203905
 31
0.0
  0
ELLIPSE
  5
36E
330
341
100
AcDbEntity
  8
3-1MA
  6
Continuous
 62
     7
100
AcDbEllipse
 10
71.2370328351
 20
97.40853127
 30
0.0
 11
-20.49999999999823
 21
35.50704155516293
 31
0.0
210
0.0
220
0.0
230
0.9999999999999999
 40
0.5773502692
 41
3.123891157132648
 42
7.871683130431778
  0
LINE
  5
36F
330
341
100
AcDbEntity
  8
3-1MA
  6
Continuous
 62
     7
100
AcDbLine
 10
91.3709594268
 20
61.6975541951
 30
0.0
 11
105.8852651133
 21
53.3177158999
 31
0.0
  0
LINE
  5
370
330
341
100
AcDbEntity
  8
3-1MA
  6
Continuous
 62
     7
100
AcDbLine
 10
105.8852651133
 20
132.5178842499
 30
0.0
 11
105.8852651133
 21
53.3177158999
 31
0.0
  0
LINE
  5
371
330
341
100
AcDbEntity
  8
3-1MA
  6
Continuous
 62
     7
100
AcDbLine
 10
160.6860406552
 20
193.9592519647
 30
0.0
 11
183.3134576532
 21
207.0231972596
 31
0.0
  0
LINE
  5
372
330
341
100
AcDbEntity
  8
3-1MA
  6
Continuous
 62
     7
100
AcDbLine
 10
102.7032845979
 20
253.5635023725
 30
0.0
 11
80.0758676
 21
240.4995570776
 31
0.0
  0
ELLIPSE
  5
373
330
341
100
AcDbEntity
  8
3-1MA
  6
Continuous
 62
     7
100
AcDbEllipse
 10
167.0500016859
 20
211.1056801642
 30
0.0
 11
-3.049999999999993
 21
5.854691731421724E-15
 31
0.0
210
0.0
220
0.0
230
1.0
 40
0.5773502692
 41
0.0
 42
6.283185307179586
  0
ELLIPSE
  5
374
330
341
100
AcDbEntity
  8
3-1MA
  6
Continuous
 62
     7
100
AcDbEllipse
 10
110.481459191
 20
243.7655434013
 30
0.0
 11
-3.050000000000013
 21
-5.421010862427522E-15
 31
0.0
210
0.0
220
0.0
230
1.0
 40
0.5773502692
 41
0.0
 42
6.283185307179586
  0
LINE
  5
375
330
341
100
AcDbEntity
  8
3-1MA
  6
Continuous
 62
     7
100
AcDbLine
 10
104.8246049415
 20
26.1692045841
 30
0.0
 11
106.945925285
 21
24.9444597127
 31
0.0
  0
LINE
  5
376
330
341
100
AcDbEntity
  8
3-1MA
  6
Continuous
 62
     7
100
AcDbLine
 10
108.0970463444
 20
25.6090597662
 30
0.0
 11
106.945925285
 21
24.9444597127
 31
0.0
  0
LINE
  5
377
330
341
100
AcDbEntity
  8
3-1MA
  6
Continuous
 62
     7
100
AcDbLine
 10
185.4347779967
 20
205.7984523882
 30
0.0
 11
185.4347779967
 21
204.4692522813
 31
0.0
  0
LINE
  5
378
330
341
100
AcDbEntity
  8
3-1MA
  6
Continuous
 62
     7
100
AcDbLine
 10
106.945925285
 20
162.9323818895
 30
0.0
 11
104.8246049415
 21
159.2581472753
 31
0.0
  0
LINE
  5
379
330
341
100
AcDbEntity
  8
3-1MA
  6
Continuous
 62
     7
100
AcDbLine
 10
24.2144318862
 20
205.7984523882
 30
0.0
 11
26.3357522298
 21
209.4726870024
 31
0.0
  0
LINE
  5
37A
330
341
100
AcDbEntity
  8
3-1MA
  6
Continuous
 62
     7
100
AcDbLine
 10
105.8852651133
 20
53.3177158999
 30
0.0
 11
104.8246049415
 21
51.4805985928
 31
0.0
  0
ELLIPSE
  5
37B
330
341
100
AcDbEntity
  8
3-1MA
  6
Continuous
 62
     7
100
AcDbEllipse
 10
92.0966828809
 20
109.4518558579
 30
0.0
 11
-28.99137802896442
 21
-50.21453974737403
 31
0.0
210
0.0
220
0.0
230
1.0
 40
0.5773502692
 41
0.7134667768361395
 42
0.7676966667374449
  0
ELLIPSE
  5
37C
330
341
100
AcDbEntity
  8
3-1MA
  6
Continuous
 62
     7
100
AcDbEllipse
 10
98.8495526405
 20
158.2579389637
 30
0.0
 11
-1.249999999999892
 21
2.165063509461177
 31
0.0
210
0.0
220
0.0
230
1.0
 40
0.5773502692
 41
0.0
 42
3.822277121316936
  0
ELLIPSE
  5
37D
330
341
100
AcDbEntity
  8
3-1MA
  6
Continuous
 62
     7
100
AcDbEllipse
 10
98.8495526405
 20
158.2579389637
 30
0.0
 11
-1.249999999999892
 21
2.165063509461177
 31
0.0
210
0.0
220
0.0
230
1.0
 40
0.5773502692
 41
5.602500843184179
 42
6.283185307179569
  0
ELLIPSE
  5
37E
330
341
100
AcDbEntity
  8
3-1MA
  6
Continuous
 62
     7
100
AcDbEllipse
 10
31.6744084277
 20
197.0415265577
 30
0.0
 11
-1.249999999999896
 21
2.165063509461151
 31
0.0
210
0.0
220
0.0
230
1.0
 40
0.5773502692
 41
0.0
 42
3.822277040094022
  0
ELLIPSE
  5
37F
330
341
100
AcDbEntity
  8
3-1MA
  6
Continuous
 62
     7
100
AcDbEllipse
 10
31.6744084277
 20
197.0415265577
 30
0.0
 11
-1.249999999999896
 21
2.165063509461151
 31
0.0
210
0.0
220
0.0
230
1.0
 40
0.5773502692
 41
5.602500920809934
 42
6.283185307179583
  0
ELLIPSE
  5
380
330
341
100
AcDbEntity
  8
3-1MA
  6
Continuous
 62
     7
100
AcDbEllipse
 10
98.8495526405
 20
34.1504586626
 30
0.0
 11
-1.249999999999902
 21
2.165063509461177
 31
0.0
210
0.0
220
0.0
230
1.0
 40
0.5773502692
 41
0.0
 42
3.822277096391217
  0
ELLIPSE
  5
381
330
341
100
AcDbEntity
  8
3-1MA
  6
Continuous
 62
     7
100
AcDbEllipse
 10
98.8495526405
 20
34.1504586626
 30
0.0
 11
-1.249999999999902
 21
2.165063509461177
 31
0.0
210
0.0
220
0.0
230
1.0
 40
0.5773502692
 41
5.602500865812837
 42
6.283185307179586
  0
ELLIPSE
  5
382
330
341
100
AcDbEntity
  8
3-1MA
  6
Continuous
 62
     7
100
AcDbEllipse
 10
31.6744084277
 20
72.9340462567
 30
0.0
 11
-1.24999999999989
 21
2.165063509461179
 31
0.0
210
0.0
220
0.0
230
1.0
 40
0.5773502692
 41
0.0
 42
3.822277056920637
  0
ELLIPSE
  5
383
330
341
100
AcDbEntity
  8
3-1MA
  6
Continuous
 62
     7
100
AcDbEllipse
 10
31.6744084277
 20
72.9340462567
 30
0.0
 11
-1.24999999999989
 21
2.165063509461179
 31
0.0
210
0.0
220
0.0
230
1.0
 40
0.5773502692
 41
5.602500904392847
 42
6.283185307179586
  0
ELLIPSE
  5
384
330
341
100
AcDbEntity
  8
3-1MA
  6
Continuous
 62
     7
100
AcDbEllipse
 10
167.0500016859
 20
210.6566070447
 30
0.0
 11
-2.500000000000001
 21
-5.421010862427522E-15
 31
0.0
210
0.0
220
0.0
230
1.0
 40
0.5773502692
 41
0.0
 42
0.6806844425246223
  0
ELLIPSE
  5
385
330
341
100
AcDbEntity
  8
3-1MA
  6
Continuous
 62
     7
100
AcDbEllipse
 10
167.0500016859
 20
210.6566070447
 30
0.0
 11
-2.500000000000001
 21
-5.421010862427522E-15
 31
0.0
210
0.0
220
0.0
230
1.0
 40
0.5773502692
 41
2.460908208322431
 42
6.283185307179586
  0
ELLIPSE
  5
386
330
341
100
AcDbEntity
  8
3-1MA
  6
Continuous
 62
     7
100
AcDbEllipse
 10
110.481459191
 20
243.3164702818
 30
0.0
 11
-2.500000000000003
 21
-4.011548038196366E-15
 31
0.0
210
0.0
220
0.0
230
1.0
 40
0.5773502692
 41
0.0
 42
0.6806844042451365
  0
ELLIPSE
  5
387
330
341
100
AcDbEntity
  8
3-1MA
  6
Continuous
 62
     7
100
AcDbEllipse
 10
110.481459191
 20
243.3164702818
 30
0.0
 11
-2.500000000000003
 21
-4.011548038196366E-15
 31
0.0
210
0.0
220
0.0
230
1.0
 40
0.5773502692
 41
2.460908247913745
 42
6.283185307179586
  0
ELLIPSE
  5
388
330
341
100
AcDbEntity
  8
3-1MA
  6
Continuous
 62
     7
100
AcDbEllipse
 10
99.8748574732
 20
171.8730194506
 30
0.0
 11
-2.500000000000006
 21
-2.602085213965211E-15
 31
0.0
210
0.0
220
0.0
230
1.0
 40
0.5773502692
 41
0.0
 42
0.6806843884397378
  0
ELLIPSE
  5
389
330
341
100
AcDbEntity
  8
3-1MA
  6
Continuous
 62
     7
100
AcDbEllipse
 10
99.8748574732
 20
171.8730194506
 30
0.0
 11
-2.500000000000006
 21
-2.602085213965211E-15
 31
0.0
210
0.0
220
0.0
230
1.0
 40
0.5773502692
 41
2.460908264819322
 42
6.283185307179586
  0
ELLIPSE
  5
38A
330
341
100
AcDbEntity
  8
3-1MA
  6
Continuous
 62
     7
100
AcDbEllipse
 10
43.3063149783
 20
204.5328826877
 30
0.0
 11
-2.499999999999997
 21
3.794707603699266E-15
 31
0.0
210
0.0
220
0.0
230
1.0
 40
0.5773502692
 41
0.0000000000000026
 42
0.6806843843480432
  0
ELLIPSE
  5
38B
330
341
100
AcDbEntity
  8
3-1MA
  6
Continuous
 62
     7
100
AcDbEllipse
 10
43.3063149783
 20
204.5328826877
 30
0.0
 11
-2.499999999999997
 21
3.794707603699266E-15
 31
0.0
210
0.0
220
0.0
230
1.0
 40
0.5773502692
 41
2.460908269226338
 42
6.283185307179586
  0
ELLIPSE
  5
38C
330
341
100
AcDbEntity
  8
3-1MA
  6
Continuous
 62
     7
100
AcDbEllipse
 10
110.481459191
 20
201.3077211931
 30
0.0
 11
-11.0
 21
-2.471980953266950E-14
 31
0.0
210
0.0
220
0.0
230
1.0
 40
0.5773502692
 41
3.335655751008703
 42
3.754179347310297
  0
ELLIPSE
  5
38D
330
341
100
AcDbEntity
  8
3-1MA
  6
Continuous
 62
     7
100
AcDbEllipse
 10
110.481459191
 20
201.3077211931
 30
0.0
 11
-11.0
 21
-2.471980953266950E-14
 31
0.0
210
0.0
220
0.0
230
1.0
 40
0.5773502692
 41
5.751325299449748
 42
6.089122209760741
  0
ELLIPSE
  5
38E
330
341
100
AcDbEntity
  8
3-1MA
  6
Continuous
 62
     7
100
AcDbEllipse
 10
136.6444100949
 20
186.2025344459
 30
0.0
 11
-11.0
 21
-2.168404344971009E-15
 31
0.0
210
0.0
220
0.0
230
1.0
 40
0.5773502692
 41
3.335655751008322
 42
3.68621567282726
  0
ELLIPSE
  5
38F
330
341
100
AcDbEntity
  8
3-1MA
  6
Continuous
 62
     7
100
AcDbEllipse
 10
136.6444100949
 20
186.2025344459
 30
0.0
 11
-11.0
 21
-2.168404344971009E-15
 31
0.0
210
0.0
220
0.0
230
1.0
 40
0.5773502692
 41
5.738562287970029
 42
6.089122209760976
  0
LINE
  5
390
330
341
100
AcDbEntity
  8
3-1MA
  6
Continuous
 62
     7
100
AcDbLine
 10
31.1302583236
 20
175.6777075432
 30
0.0
 11
31.6125861173
 21
175.3992354617
 31
0.0
  0
ELLIPSE
  5
391
330
341
100
AcDbEntity
  8
3-1MA
  6
Continuous
 62
     7
100
AcDbEllipse
 10
40.8314412441
 20
168.8519821012
 30
0.0
 11
-5.499999999999531
 21
9.526279441629118
 31
0.0
210
0.0
220
0.0
230
1.0
 40
0.5773502692
 41
0.2934651452623053
 42
0.5268593133586348
  0
ELLIPSE
  5
392
330
341
100
AcDbEntity
  8
3-1MA
  6
Continuous
 62
     7
100
AcDbEllipse
 10
40.8314412441
 20
168.8519821012
 30
0.0
 11
-5.499999999999531
 21
9.526279441629118
 31
0.0
210
0.0
220
0.0
230
1.0
 40
0.5773502692
 41
2.579763848040118
 42
2.947529556170775
  0
ELLIPSE
  5
393
330
341
100
AcDbEntity
  8
3-1MA
  6
Continuous
 62
     7
100
AcDbEllipse
 10
73.7119065693
 20
98.8374002866
 30
0.0
 11
-20.49999999999823
 21
35.50704155516298
 31
0.0
210
0.0
220
0.0
230
1.0
 40
0.5773502692
 41
0.0603994911949123
 42
0.2460830704325882
  0
ELLIPSE
  5
394
330
341
100
AcDbEntity
  8
3-1MA
  6
Continuous
 62
     7
100
AcDbEllipse
 10
73.7119065693
 20
98.8374002866
 30
0.0
 11
-20.49999999999823
 21
35.50704155516298
 31
0.0
210
0.0
220
0.0
230
1.0
 40
0.5773502692
 41
2.895509583158368
 42
3.081193162388304
  0
LINE
  5
395
330
341
100
AcDbEntity
  8
3-1MA
  6
Continuous
 62
     7
100
AcDbLine
 10
103.5412382531
 20
201.383265671
 30
0.0
 11
101.0009410819
 21
206.8568453533
 31
0.0
  0
LINE
  5
396
330
341
100
AcDbEntity
  8
3-1MA
  6
Continuous
 62
     7
100
AcDbLine
 10
113.0217563621
 20
197.5780284041
 30
0.0
 11
113.0217563621
 21
199.9166244154
 31
0.0
  0
LINE
  5
397
330
341
100
AcDbEntity
  8
3-1MA
  6
Continuous
 62
     7
100
AcDbLine
 10
113.0217563621
 20
199.9166244154
 30
0.0
 11
103.5412382531
 21
201.383265671
 31
0.0
  0
LINE
  5
398
330
341
100
AcDbEntity
  8
3-1MA
  6
Continuous
 62
     7
100
AcDbLine
 10
103.5412382531
 20
201.383265671
 30
0.0
 11
103.5412382531
 21
198.8299624362
 31
0.0
  0
LINE
  5
399
330
341
100
AcDbEntity
  8
3-1MA
  6
Continuous
 62
     7
100
AcDbLine
 10
119.9619773
 20
200.536456553
 30
0.0
 11
119.9619773
 21
203.9235628421
 31
0.0
  0
LINE
  5
39A
330
341
100
AcDbEntity
  8
3-1MA
  6
Continuous
 62
     7
100
AcDbLine
 10
119.9619773
 20
203.9235628421
 30
0.0
 11
113.0217563621
 21
199.9166244154
 31
0.0
  0
LINE
  5
39B
330
341
100
AcDbEntity
  8
3-1MA
  6
Continuous
 62
     7
100
AcDbLine
 10
118.806506675
 20
206.4132560199
 30
0.0
 11
119.9619773
 21
203.9235628421
 31
0.0
  0
LINE
  5
39C
330
341
100
AcDbEntity
  8
3-1MA
  6
Continuous
 62
     7
100
AcDbLine
 10
101.0009410819
 20
203.1826107391
 30
0.0
 11
101.0009410819
 21
206.8568453533
 31
0.0
  0
LINE
  5
39D
330
341
100
AcDbEntity
  8
3-1MA
  6
Continuous
 62
     7
100
AcDbLine
 10
102.001467672
 20
207.4344996494
 30
0.0
 11
101.5586186178
 21
207.1788206287
 31
0.0
  0
LINE
  5
39E
330
341
100
AcDbEntity
  8
3-1MA
  6
Continuous
 62
     7
100
AcDbLine
 10
101.5586186178
 20
207.1788206287
 30
0.0
 11
103.9494865436
 21
202.0272162219
 31
0.0
  0
LINE
  5
39F
330
341
100
AcDbEntity
  8
3-1MA
  6
Continuous
 62
     7
100
AcDbLine
 10
103.9494865436
 20
202.0272162219
 30
0.0
 11
112.8723271168
 21
200.6468479813
 31
0.0
  0
LINE
  5
3A0
330
341
100
AcDbEntity
  8
3-1MA
  6
Continuous
 62
     7
100
AcDbLine
 10
112.8723271168
 20
200.6468479813
 30
0.0
 11
119.4042997642
 21
204.4180841476
 31
0.0
  0
LINE
  5
3A1
330
341
100
AcDbEntity
  8
3-1MA
  6
Continuous
 62
     7
100
AcDbLine
 10
119.4042997642
 20
204.4180841476
 30
0.0
 11
118.6455391793
 21
206.0529859885
 31
0.0
  0
ELLIPSE
  5
3A2
330
341
100
AcDbEntity
  8
3-1MA
  6
Continuous
 62
     7
100
AcDbEllipse
 10
110.5013699037
 20
207.4580372107
 30
0.0
 11
-8.500000000000007
 21
8.673617379884034E-16
 31
0.0
210
0.0
220
0.0
230
1.0
 40
0.5773502692
 41
0.0000000000000002
 42
3.141592653589793
  0
ELLIPSE
  5
3A3
330
341
100
AcDbEntity
  8
3-1MA
  6
Continuous
 62
     7
100
AcDbEllipse
 10
110.5013699037
 20
215.62300302
 30
0.0
 11
-7.000000000000007
 21
-3.903127820947816E-15
 31
0.0
210
0.0
220
0.0
230
1.0
 40
0.5773502692
 41
0.0
 42
6.283185307179586
  0
ELLIPSE
  5
3A4
330
341
100
AcDbEntity
  8
3-1MA
  6
Continuous
 62
     7
100
AcDbEllipse
 10
110.5013699037
 20
214.3982581486
 30
0.0
 11
-8.500000000000004
 21
-2.168404344971009E-15
 31
0.0
210
0.0
220
0.0
230
1.0
 40
0.5773502692
 41
0.0
 42
3.140877105095211
  0
ELLIPSE
  5
3A5
330
341
100
AcDbEntity
  8
3-1MA
  6
Continuous
 62
     7
100
AcDbEllipse
 10
110.5013699037
 20
214.3982581486
 30
0.0
 11
-8.500000000000004
 21
-2.168404344971009E-15
 31
0.0
210
0.0
220
0.0
230
1.0
 40
0.5773502692
 41
6.278722405804437
 42
6.283185307179586
  0
LINE
  5
3A6
330
341
100
AcDbEntity
  8
3-1MA
  6
Continuous
 62
     7
100
AcDbLine
 10
103.9494865436
 20
202.0272162219
 30
0.0
 11
103.5412382531
 21
201.383265671
 31
0.0
  0
LINE
  5
3A7
330
341
100
AcDbEntity
  8
3-1MA
  6
Continuous
 62
     7
100
AcDbLine
 10
112.8723271168
 20
200.6468479813
 30
0.0
 11
113.0217563621
 21
199.9166244154
 31
0.0
  0
LINE
  5
3A8
330
341
100
AcDbEntity
  8
3-1MA
  6
Continuous
 62
     7
100
AcDbLine
 10
119.9619773
 20
203.9235628421
 30
0.0
 11
119.4042997642
 21
204.4180841476
 31
0.0
  0
LINE
  5
3A9
330
341
100
AcDbEntity
  8
3-1MA
  6
Continuous
 62
     7
100
AcDbLine
 10
101.0009410819
 20
206.8568453533
 30
0.0
 11
101.5586186178
 21
207.1788206287
 31
0.0
  0
LINE
  5
3AA
330
341
100
AcDbEntity
  8
3-1MA
  6
Continuous
 62
     7
100
AcDbLine
 10
102.2710896675
 20
200.445820898
 30
0.0
 11
101.0009410819
 21
203.1826107391
 31
0.0
  0
LINE
  5
3AB
330
341
100
AcDbEntity
  8
3-1MA
  6
Continuous
 62
     7
100
AcDbLine
 10
102.8594425208
 20
199.1780966882
 30
0.0
 11
102.2710896675
 21
200.445820898
 31
0.0
  0
ELLIPSE
  5
3AC
330
341
100
AcDbEntity
  8
3-1MA
  6
Continuous
 62
     7
100
AcDbEllipse
 10
110.481459191
 20
201.3077211931
 30
0.0
 11
8.500000000000004
 21
2.168404344971009E-15
 31
0.0
210
0.0
220
0.0
230
1.0
 40
0.5773502692
 41
3.195504494231757
 42
3.582039596170858
  0
LINE
  5
3AD
330
341
100
AcDbEntity
  8
3-1MA
  6
Continuous
 62
     7
100
AcDbLine
 10
135.7478346227
 20
188.1343860985
 30
0.0
 11
134.8641333951
 21
187.6241809568
 31
0.0
  0
LINE
  5
3AE
330
341
100
AcDbEntity
  8
3-1MA
  6
Continuous
 62
     7
100
AcDbLine
 10
138.4246867947
 20
187.7202756263
 30
0.0
 11
135.7478346227
 21
188.1343860985
 31
0.0
  0
LINE
  5
3AF
330
341
100
AcDbEntity
  8
3-1MA
  6
Continuous
 62
     7
100
AcDbLine
 10
139.0938998377
 20
190.5561356996
 30
0.0
 11
139.0938998377
 21
188.1066459568
 31
0.0
  0
ELLIPSE
  5
3B0
330
341
100
AcDbEntity
  8
3-1MA
  6
Continuous
 62
     7
100
AcDbEllipse
 10
136.6444100949
 20
187.6722282916
 30
0.0
 11
9.499999999999995
 21
-6.505213034913027E-15
 31
0.0
210
0.0
220
0.0
230
1.0
 40
0.5773502692
 41
5.23933884526925
 42
6.283185307179586
  0
ELLIPSE
  5
3B1
330
341
100
AcDbEntity
  8
3-1MA
  6
Continuous
 62
     7
100
AcDbEllipse
 10
136.6444100949
 20
187.6722282916
 30
0.0
 11
9.499999999999995
 21
-6.505213034913027E-15
 31
0.0
210
0.0
220
0.0
230
1.0
 40
0.5773502692
 41
3.141592653589793
 42
4.185439115499607
  0
ELLIPSE
  5
3B2
330
341
100
AcDbEntity
  8
3-1MA
  6
Continuous
 62
     7
100
AcDbEllipse
 10
136.6444100949
 20
188.7336738468
 30
0.0
 11
9.499999999999995
 21
-6.505213034913027E-15
 31
0.0
210
0.0
220
0.0
230
1.0
 40
0.5773502692
 41
2.356194490192523
 42
6.283185307179586
  0
ELLIPSE
  5
3B3
330
341
100
AcDbEntity
  8
3-1MA
  6
Continuous
 62
     7
100
AcDbEllipse
 10
136.6444100949
 20
188.7336738468
 30
0.0
 11
9.499999999999995
 21
-6.505213034913027E-15
 31
0.0
210
0.0
220
0.0
230
1.0
 40
0.5773502692
 41
0.0000000000000012
 42
0.7853981633972751
  0
LINE
  5
3B4
330
341
100
AcDbEntity
  8
3-1MA
  6
Continuous
 62
     7
100
AcDbLine
 10
135.7478346227
 20
191.0737737898
 30
0.0
 11
135.7478346227
 21
188.1343860985
 31
0.0
  0
LINE
  5
3B5
330
341
100
AcDbEntity
  8
3-1MA
  6
Continuous
 62
     7
100
AcDbLine
 10
135.7478346227
 20
191.0737737898
 30
0.0
 11
139.0938998377
 21
190.5561356996
 31
0.0
  0
LINE
  5
3B6
330
341
100
AcDbEntity
  8
3-1MA
  6
Continuous
 62
     7
100
AcDbLine
 10
139.0938998377
 20
190.5561356996
 30
0.0
 11
139.9904753098
 21
188.6242840471
 31
0.0
  0
LINE
  5
3B7
330
341
100
AcDbEntity
  8
3-1MA
  6
Continuous
 62
     7
100
AcDbLine
 10
139.9904753098
 20
188.6242840471
 30
0.0
 11
137.540985567
 21
187.2100704847
 31
0.0
  0
LINE
  5
3B8
330
341
100
AcDbEntity
  8
3-1MA
  6
Continuous
 62
     7
100
AcDbLine
 10
137.540985567
 20
187.2100704847
 30
0.0
 11
134.1949203521
 21
187.7277085749
 31
0.0
  0
LINE
  5
3B9
330
341
100
AcDbEntity
  8
3-1MA
  6
Continuous
 62
     7
100
AcDbLine
 10
134.1949203521
 20
187.7277085749
 30
0.0
 11
133.2983448799
 21
189.6595602275
 31
0.0
  0
LINE
  5
3BA
330
341
100
AcDbEntity
  8
3-1MA
  6
Continuous
 62
     7
100
AcDbLine
 10
133.2983448799
 20
189.6595602275
 30
0.0
 11
135.7478346227
 21
191.0737737898
 31
0.0
  0
ELLIPSE
  5
3BB
330
341
100
AcDbEntity
  8
3-1MA
  6
Continuous
 62
     7
100
AcDbEllipse
 10
136.6444100949
 20
189.1419221373
 30
0.0
 11
9.000000000000007
 21
-8.673617379884035E-16
 31
0.0
210
0.0
220
0.0
230
1.0
 40
0.5773502692
 41
0.0
 42
6.283185307179586
  0
ELLIPSE
  5
3BC
330
341
100
AcDbEntity
  8
3-1MA
  6
Continuous
 62
     7
100
AcDbEllipse
 10
191.0669395333
 20
173.9123166987
 30
0.0
 11
1.249999999999888
 21
2.165063509461174
 31
0.0
210
0.0
220
0.0
230
1.0
 40
0.5773502692
 41
0.0
 42
0.6898171386889546
  0
ELLIPSE
  5
3BD
330
341
100
AcDbEntity
  8
3-1MA
  6
Continuous
 62
     7
100
AcDbEllipse
 10
191.0669395333
 20
173.9123166987
 30
0.0
 11
1.249999999999888
 21
2.165063509461174
 31
0.0
210
0.0
220
0.0
230
1.0
 40
0.5773502692
 41
2.451775512370308
 42
6.283185307179586
  0
ELLIPSE
  5
3BE
330
341
100
AcDbEntity
  8
3-1MA
  6
Continuous
 62
     7
100
AcDbEllipse
 10
191.0669395333
 20
78.4392421079
 30
0.0
 11
1.249999999999888
 21
2.165063509461174
 31
0.0
210
0.0
220
0.0
230
1.0
 40
0.5773502692
 41
0.0000000000000021
 42
0.6898183629453073
  0
ELLIPSE
  5
3BF
330
341
100
AcDbEntity
  8
3-1MA
  6
Continuous
 62
     7
100
AcDbEllipse
 10
191.0669395333
 20
78.4392421079
 30
0.0
 11
1.249999999999888
 21
2.165063509461174
 31
0.0
210
0.0
220
0.0
230
1.0
 40
0.5773502692
 41
2.451774252621195
 42
6.283185307179586
  0
ELLIPSE
  5
3C0
330
341
100
AcDbEntity
  8
3-1MA
  6
Continuous
 62
     7
100
AcDbEllipse
 10
126.7696078712
 20
136.7902349553
 30
0.0
 11
1.249999999999898
 21
2.165063509461157
 31
0.0
210
0.0
220
0.0
230
0.9999999999999997
 40
0.5773502692
 41
0.0
 42
0.6898169404230872
  0
ELLIPSE
  5
3C1
330
341
100
AcDbEntity
  8
3-1MA
  6
Continuous
 62
     7
100
AcDbEllipse
 10
126.7696078712
 20
136.7902349553
 30
0.0
 11
1.249999999999898
 21
2.165063509461157
 31
0.0
210
0.0
220
0.0
230
0.9999999999999997
 40
0.5773502692
 41
2.451775719217467
 42
6.283185307179586
  0
ELLIPSE
  5
3C2
330
341
100
AcDbEntity
  8
3-1MA
  6
Continuous
 62
     7
100
AcDbEllipse
 10
126.7696078712
 20
41.3171603646
 30
0.0
 11
1.249999999999888
 21
2.165063509461186
 31
0.0
210
0.0
220
0.0
230
1.0
 40
0.5773502692
 41
0.0
 42
0.6898166119925206
  0
ELLIPSE
  5
3C3
330
341
100
AcDbEntity
  8
3-1MA
  6
Continuous
 62
     7
100
AcDbEllipse
 10
126.7696078712
 20
41.3171603646
 30
0.0
 11
1.249999999999888
 21
2.165063509461186
 31
0.0
210
0.0
220
0.0
230
1.0
 40
0.5773502692
 41
2.451776053847847
 42
6.283185307179586
  0
LINE
  5
3C4
330
341
100
AcDbEntity
  8
3-1MA
  6
Continuous
 62
     7
100
AcDbLine
 10
196.9751246457
 20
64.4962213889
 30
0.0
 11
196.9614413906
 21
63.6050977409
 31
0.0
  0
LINE
  5
3C5
330
341
100
AcDbEntity
  8
3-1MA
  6
Continuous
 62
     7
100
AcDbLine
 10
105.9099578262
 20
159.872965713
 30
0.0
 11
105.9099578262
 21
26.8076437067
 31
0.0
  0
LINE
  5
3C6
330
341
100
AcDbEntity
  8
3-1MA
  6
Continuous
 62
     7
100
AcDbLine
 10
119.4493629482
 20
152.3650053671
 30
0.0
 11
105.9099578262
 21
159.872965713
 31
0.0
  0
LINE
  5
3C7
330
341
100
AcDbEntity
  8
3-1MA
  6
Continuous
 62
     7
100
AcDbLine
 10
183.3032295966
 20
205.7640345281
 30
0.0
 11
196.1965473011
 21
197.5740365918
 31
0.0
  0
LINE
  5
3C8
330
341
100
AcDbEntity
  8
3-1MA
  6
Continuous
 62
     7
100
AcDbLine
 10
196.9614413906
 20
197.1104634577
 30
0.0
 11
196.9751246457
 21
197.1245247523
 31
0.0
  0
LINE
  5
3C9
330
341
100
AcDbEntity
  8
3-1MA
  6
Continuous
 62
     7
100
AcDbLine
 10
196.9751246457
 20
197.1245247523
 30
0.0
 11
184.3494251121
 21
205.1600132656
 31
0.0
  0
LINE
  5
3CA
330
341
100
AcDbEntity
  8
3-1MA
  6
Continuous
 62
     7
100
AcDbLine
 10
184.3494251121
 20
205.1600132656
 30
0.0
 11
183.3032295966
 21
205.7640345281
 31
0.0
  0
LINE
  5
3CB
330
341
100
AcDbEntity
  8
3-1MA
  6
Continuous
 62
     7
100
AcDbLine
 10
145.1296914691
 20
170.5384171373
 30
0.0
 11
167.1980677106
 21
183.2796001009
 31
0.0
  0
LINE
  5
3CC
330
341
100
AcDbEntity
  8
3-1MA
  6
Continuous
 62
     7
100
AcDbLine
 10
167.1980677106
 20
183.2796001009
 30
0.0
 11
171.2947961247
 21
183.1970038468
 31
0.0
  0
LINE
  5
3CD
330
341
100
AcDbEntity
  8
3-1MA
  6
Continuous
 62
     7
100
AcDbLine
 10
183.3032295966
 20
205.7640345281
 30
0.0
 11
106.9561533416
 21
161.6850295004
 31
0.0
  0
LINE
  5
3CE
330
341
100
AcDbEntity
  8
3-1MA
  6
Continuous
 62
     7
100
AcDbLine
 10
120.2279402928
 20
153.7135408856
 30
0.0
 11
145.1296914691
 21
168.0905736305
 31
0.0
  0
LINE
  5
3CF
330
341
100
AcDbEntity
  8
3-1MA
  6
Continuous
 62
     7
100
AcDbLine
 10
145.1296914691
 20
168.0905736305
 30
0.0
 11
145.1296914691
 21
170.5384171373
 31
0.0
  0
LINE
  5
3D0
330
341
100
AcDbEntity
  8
3-1MA
  6
Continuous
 62
     7
100
AcDbLine
 10
119.4493629482
 20
152.3650053671
 30
0.0
 11
120.2332761036
 21
152.8114365748
 31
0.0
  0
LINE
  5
3D1
330
341
100
AcDbEntity
  8
3-1MA
  6
Continuous
 62
     7
100
AcDbLine
 10
120.2332761036
 20
152.8114365748
 30
0.0
 11
120.2279402928
 21
153.7135408856
 31
0.0
  0
LINE
  5
3D2
330
341
100
AcDbEntity
  8
3-1MA
  6
Continuous
 62
     7
100
AcDbLine
 10
120.2279402928
 20
153.7135408856
 30
0.0
 11
106.9561533416
 21
161.6850295004
 31
0.0
  0
LINE
  5
3D3
330
341
100
AcDbEntity
  8
3-1MA
  6
Continuous
 62
     7
100
AcDbLine
 10
106.9561533416
 20
161.6850295004
 30
0.0
 11
105.9099578262
 21
159.872965713
 31
0.0
  0
LINE
  5
3D4
330
341
100
AcDbEntity
  8
3-1MA
  6
Continuous
 62
     7
100
AcDbLine
 10
106.9561533416
 20
26.2036224442
 30
0.0
 11
120.2279402928
 21
19.2871901642
 31
0.0
  0
LINE
  5
3D5
330
341
100
AcDbEntity
  8
3-1MA
  6
Continuous
 62
     7
100
AcDbLine
 10
119.4493629482
 20
19.7367020037
 30
0.0
 11
105.9099578262
 21
26.8076437067
 31
0.0
  0
LINE
  5
3D6
330
341
100
AcDbEntity
  8
3-1MA
  6
Continuous
 62
     7
100
AcDbLine
 10
105.9099578262
 20
26.8076437067
 30
0.0
 11
106.9561533416
 21
26.2036224442
 31
0.0
  0
LINE
  5
3D7
330
341
100
AcDbEntity
  8
3-1MA
  6
Continuous
 62
     7
100
AcDbLine
 10
171.2947961247
 20
48.7706531254
 30
0.0
 11
168.8682702591
 21
48.7217306862
 31
0.0
  0
LINE
  5
3D8
330
341
100
AcDbEntity
  8
3-1MA
  6
Continuous
 62
     7
100
AcDbLine
 10
145.1296914691
 20
168.0905736305
 30
0.0
 11
145.1296914691
 21
165.6000994373
 31
0.0
  0
LINE
  5
3D9
330
341
100
AcDbEntity
  8
3-1MA
  6
Continuous
 62
     7
100
AcDbLine
 10
145.1296914691
 20
165.7264157739
 30
0.0
 11
171.292642373
 21
180.8316025211
 31
0.0
  0
LINE
  5
3DA
330
341
100
AcDbEntity
  8
3-1MA
  6
Continuous
 62
     7
100
AcDbLine
 10
171.292642373
 20
51.1360544512
 30
0.0
 11
145.1296914691
 21
36.030867704
 31
0.0
  0
LINE
  5
3DB
330
341
100
AcDbEntity
  8
3-1MA
  6
Continuous
 62
     7
100
AcDbLine
 10
196.9374773187
 20
195.5113385436
 30
0.0
 11
196.9374773187
 21
63.6189334043
 31
0.0
  0
LINE
  5
3DC
330
341
100
AcDbEntity
  8
3-1MA
  6
Continuous
 62
     7
100
AcDbLine
 10
196.9751246457
 20
64.4962213889
 30
0.0
 11
196.9751246457
 21
197.1245247523
 31
0.0
  0
ELLIPSE
  5
3DD
330
341
100
AcDbEntity
  8
3-1MA
  6
Continuous
 62
     7
100
AcDbEllipse
 10
167.0500016859
 20
180.8316025211
 30
0.0
 11
-4.242640687119289
 21
9.107298248878237E-14
 31
0.0
210
0.0
220
0.0
230
1.0
 40
0.5773502692
 41
3.141592653589807
 42
4.677482395344809
  0
LINE
  5
3DE
330
341
100
AcDbEntity
  8
3-1MA
  6
Continuous
 62
     7
100
AcDbLine
 10
171.292642373
 20
180.8316025211
 30
0.0
 11
171.292642373
 21
51.1360544512
 31
0.0
  0
ELLIPSE
  5
3DF
330
341
100
AcDbEntity
  8
3-1MA
  6
Continuous
 62
     7
100
AcDbEllipse
 10
167.0500016859
 20
51.1360544512
 30
0.0
 11
4.242640687119298
 21
-1.734723475976807E-14
 31
0.0
210
0.0
220
0.0
230
1.0
 40
0.5773502692
 41
5.497787143782071
 42
6.283185307179586
  0
LINE
  5
3E0
330
341
100
AcDbEntity
  8
3-1MA
  6
Continuous
 62
     7
100
AcDbLine
 10
121.606176867
 20
20.1263868101
 30
0.0
 11
121.606176867
 21
152.0187919495
 31
0.0
  0
LINE
  5
3E1
330
341
100
AcDbEntity
  8
3-1MA
  6
Continuous
 62
     7
100
AcDbLine
 10
121.606176867
 20
152.0187919495
 30
0.0
 11
120.2332761036
 21
152.8114365748
 31
0.0
  0
LINE
  5
3E2
330
341
100
AcDbEntity
  8
3-1MA
  6
Continuous
 62
     7
100
AcDbLine
 10
119.4493629482
 20
152.3650053671
 30
0.0
 11
119.4493629482
 21
19.7367020037
 31
0.0
  0
LINE
  5
3E3
330
341
100
AcDbEntity
  8
3-1MA
  6
Continuous
 62
     7
100
AcDbLine
 10
119.4493629482
 20
19.7367020037
 30
0.0
 11
120.2332761036
 21
19.3060708579
 31
0.0
  0
LINE
  5
3E4
330
341
100
AcDbEntity
  8
3-1MA
  6
Continuous
 62
     7
100
AcDbLine
 10
196.1965473011
 20
197.5740365918
 30
0.0
 11
171.2947961247
 21
183.1970038468
 31
0.0
  0
LINE
  5
3E5
330
341
100
AcDbEntity
  8
3-1MA
  6
Continuous
 62
     7
100
AcDbLine
 10
171.2947961247
 20
183.1970038468
 30
0.0
 11
173.4139627166
 21
181.9300310558
 31
0.0
  0
LINE
  5
3E6
330
341
100
AcDbEntity
  8
3-1MA
  6
Continuous
 62
     7
100
AcDbLine
 10
173.4139627166
 20
181.9300310558
 30
0.0
 11
196.9374773187
 21
195.5113385436
 31
0.0
  0
LINE
  5
3E7
330
341
100
AcDbEntity
  8
3-1MA
  6
Continuous
 62
     7
100
AcDbLine
 10
196.9374773187
 20
195.5113385436
 30
0.0
 11
196.9614413906
 21
197.1104634577
 31
0.0
  0
LINE
  5
3E8
330
341
100
AcDbEntity
  8
3-1MA
  6
Continuous
 62
     7
100
AcDbLine
 10
196.9614413906
 20
197.1104634577
 30
0.0
 11
196.1965473011
 21
197.5740365918
 31
0.0
  0
LINE
  5
3E9
330
341
100
AcDbEntity
  8
3-1MA
  6
Continuous
 62
     7
100
AcDbLine
 10
196.9374773187
 20
63.6189334043
 30
0.0
 11
173.4139627166
 21
50.0376259164
 31
0.0
  0
LINE
  5
3EA
330
341
100
AcDbEntity
  8
3-1MA
  6
Continuous
 62
     7
100
AcDbLine
 10
173.4139627166
 20
50.0376259164
 30
0.0
 11
171.2947961247
 21
48.7706531254
 31
0.0
  0
LINE
  5
3EB
330
341
100
AcDbEntity
  8
3-1MA
  6
Continuous
 62
     7
100
AcDbLine
 10
171.2947961247
 20
48.7706531254
 30
0.0
 11
196.1965473011
 21
63.1476858704
 31
0.0
  0
LINE
  5
3EC
330
341
100
AcDbEntity
  8
3-1MA
  6
Continuous
 62
     7
100
AcDbLine
 10
196.1965473011
 20
63.1476858704
 30
0.0
 11
196.9614413906
 21
63.6050977409
 31
0.0
  0
LINE
  5
3ED
330
341
100
AcDbEntity
  8
3-1MA
  6
Continuous
 62
     7
100
AcDbLine
 10
196.9614413906
 20
63.6050977409
 30
0.0
 11
196.9374773187
 21
63.6189334043
 31
0.0
  0
LINE
  5
3EE
330
341
100
AcDbEntity
  8
3-1MA
  6
Continuous
 62
     7
100
AcDbLine
 10
145.1296914691
 20
33.7076942979
 30
0.0
 11
121.606176867
 21
20.1263868101
 31
0.0
  0
LINE
  5
3EF
330
341
100
AcDbEntity
  8
3-1MA
  6
Continuous
 62
     7
100
AcDbLine
 10
121.606176867
 20
20.1263868101
 30
0.0
 11
120.2332761036
 21
19.3060708579
 31
0.0
  0
LINE
  5
3F0
330
341
100
AcDbEntity
  8
3-1MA
  6
Continuous
 62
     7
100
AcDbLine
 10
120.2332761036
 20
19.3060708579
 30
0.0
 11
120.2279402928
 21
19.2871901642
 31
0.0
  0
LINE
  5
3F1
330
341
100
AcDbEntity
  8
3-1MA
  6
Continuous
 62
     7
100
AcDbLine
 10
120.2279402928
 20
19.2871901642
 30
0.0
 11
145.1296914691
 21
33.6642229091
 31
0.0
  0
LINE
  5
3F2
330
341
100
AcDbEntity
  8
3-1MA
  6
Continuous
 62
     7
100
AcDbLine
 10
145.1296914691
 20
33.6642229091
 30
0.0
 11
145.1296914691
 21
33.7076942979
 31
0.0
  0
LINE
  5
3F3
330
341
100
AcDbEntity
  8
3-1MA
  6
Continuous
 62
     7
100
AcDbLine
 10
173.4139627166
 20
181.9300310558
 30
0.0
 11
173.4139627166
 21
50.0376259164
 31
0.0
  0
ELLIPSE
  5
3F4
330
341
100
AcDbEntity
  8
3-1MA
  6
Continuous
 62
     7
100
AcDbEllipse
 10
130.6340024548
 20
147.2148227066
 30
0.0
 11
3.249999999999725
 21
5.629165124598996
 31
0.0
210
0.0
220
0.0
230
0.9999999999999999
 40
0.5773502692
 41
0.0
 42
6.283185307179586
  0
ELLIPSE
  5
3F5
330
341
100
AcDbEntity
  8
3-1MA
  6
Continuous
 62
     7
100
AcDbEllipse
 10
130.6340024548
 20
111.2889731458
 30
0.0
 11
3.249999999999705
 21
5.629165124599008
 31
0.0
210
0.0
220
0.0
230
1.0
 40
0.5773502692
 41
0.0
 42
6.283185307179586
  0
ELLIPSE
  5
3F6
330
341
100
AcDbEntity
  8
3-1MA
  6
Continuous
 62
     7
100
AcDbEllipse
 10
130.6340024548
 20
70.4641440994
 30
0.0
 11
3.249999999999705
 21
5.629165124599008
 31
0.0
210
0.0
220
0.0
230
1.0
 40
0.5773502692
 41
0.0
 42
6.283185307179586
  0
ELLIPSE
  5
3F7
330
341
100
AcDbEntity
  8
3-1MA
  6
Continuous
 62
     7
100
AcDbEllipse
 10
130.6340024548
 20
34.5382945386
 30
0.0
 11
3.249999999999714
 21
5.629165124599013
 31
0.0
210
0.0
220
0.0
230
0.9999999999999998
 40
0.5773502692
 41
0.0
 42
6.283185307179586
  0
ELLIPSE
  5
3F8
330
341
100
AcDbEntity
  8
3-1MA
  6
Continuous
 62
     7
100
AcDbEllipse
 10
187.9096517309
 20
180.2829342342
 30
0.0
 11
3.249999999999694
 21
5.629165124599025
 31
0.0
210
0.0
220
0.0
230
1.0
 40
0.5773502692
 41
0.0
 42
6.283185307179586
  0
ELLIPSE
  5
3F9
330
341
100
AcDbEntity
  8
3-1MA
  6
Continuous
 62
     7
100
AcDbEllipse
 10
187.9096517309
 20
144.3570846734
 30
0.0
 11
3.249999999999724
 21
5.629165124599008
 31
0.0
210
0.0
220
0.0
230
0.9999999999999999
 40
0.5773502692
 41
0.0
 42
6.283185307179586
  0
ELLIPSE
  5
3FA
330
341
100
AcDbEntity
  8
3-1MA
  6
Continuous
 62
     7
100
AcDbEllipse
 10
187.9096517309
 20
103.532255627
 30
0.0
 11
3.249999999999705
 21
5.629165124599042
 31
0.0
210
0.0
220
0.0
230
1.0
 40
0.5773502692
 41
0.0
 42
6.283185307179586
  0
ELLIPSE
  5
3FB
330
341
100
AcDbEntity
  8
3-1MA
  6
Continuous
 62
     7
100
AcDbEllipse
 10
187.9096517309
 20
67.6064060662
 30
0.0
 11
3.249999999999734
 21
5.629165124599058
 31
0.0
210
0.0
220
0.0
230
1.0
 40
0.5773502692
 41
0.0
 42
6.283185307179586
  0
ELLIPSE
  5
3FC
330
341
100
AcDbEntity
  8
3-1MA
  6
Continuous
 62
     7
100
AcDbEllipse
 10
158.2111669211
 20
114.1752238679
 30
0.0
 11
5.49999999999953
 21
9.526279441629121
 31
0.0
210
0.0
220
0.0
230
0.9999999999999999
 40
0.5773502692
 41
0.0
 42
4.229656090941525
  0
ELLIPSE
  5
3FD
330
341
100
AcDbEntity
  8
3-1MA
  6
Continuous
 62
     7
100
AcDbEllipse
 10
158.2111669211
 20
114.1752238679
 30
0.0
 11
5.49999999999953
 21
9.526279441629121
 31
0.0
210
0.0
220
0.0
230
0.9999999999999999
 40
0.5773502692
 41
5.446542316115451
 42
6.283185307179584
  0
ELLIPSE
  5
3FE
330
341
100
AcDbEntity
  8
3-1MA
  6
Continuous
 62
     7
100
AcDbEllipse
 10
156.0898465775
 20
115.3999687393
 30
0.0
 11
5.49999999999955
 21
9.526279441629098
 31
0.0
210
0.0
220
0.0
230
1.0
 40
0.5773502692
 41
3.335655751007524
 42
3.673452661319633
  0
ELLIPSE
  5
3FF
330
341
100
AcDbEntity
  8
3-1MA
  6
Continuous
 62
     7
100
AcDbEllipse
 10
156.0898465775
 20
115.3999687393
 30
0.0
 11
5.49999999999955
 21
9.526279441629098
 31
0.0
210
0.0
220
0.0
230
1.0
 40
0.5773502692
 41
5.670598613459234
 42
6.089122209761705
  0
ELLIPSE
  5
400
330
341
100
AcDbEntity
  8
3-1MA
  6
Continuous
 62
     7
100
AcDbEllipse
 10
191.4204929239
 20
173.7081925534
 30
0.0
 11
1.499999999999877
 21
2.598076211353397
 31
0.0
210
0.0
220
0.0
230
1.0
 40
0.5773502692
 41
0.0
 42
6.283185307179586
  0
ELLIPSE
  5
401
330
341
100
AcDbEntity
  8
3-1MA
  6
Continuous
 62
     7
100
AcDbEllipse
 10
191.4204929239
 20
78.2351179627
 30
0.0
 11
1.499999999999858
 21
2.598076211353386
 31
0.0
210
0.0
220
0.0
230
0.9999999999999998
 40
0.5773502692
 41
0.0
 42
6.283185307179586
  0
ELLIPSE
  5
402
330
341
100
AcDbEntity
  8
3-1MA
  6
Continuous
 62
     7
100
AcDbEllipse
 10
127.1231612618
 20
136.5861108101
 30
0.0
 11
1.499999999999867
 21
2.598076211353392
 31
0.0
210
0.0
220
0.0
230
1.0
 40
0.5773502692
 41
0.0
 42
6.283185307179586
  0
ELLIPSE
  5
403
330
341
100
AcDbEntity
  8
3-1MA
  6
Continuous
 62
     7
100
AcDbEllipse
 10
127.1231612618
 20
41.1130362194
 30
0.0
 11
1.499999999999877
 21
2.598076211353397
 31
0.0
210
0.0
220
0.0
230
1.0
 40
0.5773502692
 41
0.0
 42
6.283185307179586
  0
LINE
  5
404
330
341
100
AcDbEntity
  8
3-1MA
  6
Continuous
 62
     7
100
AcDbLine
 10
145.1296914691
 20
33.7076942979
 30
0.0
 11
145.1296914691
 21
165.6000994373
 31
0.0
  0
LINE
  5
405
330
341
100
AcDbEntity
  8
3-1MA
  6
Continuous
 62
     7
100
AcDbLine
 10
145.1296914691
 20
165.6000994373
 30
0.0
 11
121.606176867
 21
152.0187919495
 31
0.0
  0
ELLIPSE
  5
406
330
341
100
AcDbEntity
  8
3-1MA
  6
Continuous
 62
     7
100
AcDbEllipse
 10
156.0898465775
 20
115.3999687393
 30
0.0
 11
2.499999999999786
 21
4.330127018922308
 31
0.0
210
0.0
220
0.0
230
1.0
 40
0.5773502692
 41
4.229894663497069
 42
5.18022671449053
  0
LINE
  5
407
330
341
100
AcDbEntity
  8
3-1MA
  6
Continuous
 62
     7
100
AcDbLine
 10
150.4739340806
 20
110.6284404777
 30
0.0
 11
152.6851595456
 21
109.3517888603
 31
0.0
  0
LINE
  5
408
330
341
100
AcDbEntity
  8
3-1MA
  6
Continuous
 62
     7
100
AcDbLine
 10
152.6851595456
 20
109.3517888603
 30
0.0
 11
156.1552700145
 21
118.2954790115
 31
0.0
  0
LINE
  5
409
330
341
100
AcDbEntity
  8
3-1MA
  6
Continuous
 62
     7
100
AcDbLine
 10
152.9732894992
 20
106.2521544429
 30
0.0
 11
156.1552700145
 21
104.4150371358
 31
0.0
  0
LINE
  5
40A
330
341
100
AcDbEntity
  8
3-1MA
  6
Continuous
 62
     7
100
AcDbLine
 10
156.1552700145
 20
104.4150371358
 30
0.0
 11
152.6851595456
 21
109.3517888603
 31
0.0
  0
LINE
  5
40B
330
341
100
AcDbEntity
  8
3-1MA
  6
Continuous
 62
     7
100
AcDbLine
 10
160.1621708607
 20
123.9959705828
 30
0.0
 11
163.0954909524
 21
122.3024174383
 31
0.0
  0
LINE
  5
40C
330
341
100
AcDbEntity
  8
3-1MA
  6
Continuous
 62
     7
100
AcDbLine
 10
163.0954909524
 20
122.3024174383
 30
0.0
 11
166.5656014213
 21
117.3656657137
 31
0.0
  0
LINE
  5
40D
330
341
100
AcDbEntity
  8
3-1MA
  6
Continuous
 62
     7
100
AcDbLine
 10
154.1299864595
 20
119.4647770172
 30
0.0
 11
156.1552700145
 21
118.2954790115
 31
0.0
  0
LINE
  5
40E
330
341
100
AcDbEntity
  8
3-1MA
  6
Continuous
 62
     7
100
AcDbLine
 10
156.1552700145
 20
118.2954790115
 30
0.0
 11
163.0954909524
 21
122.3024174383
 31
0.0
  0
LINE
  5
40F
330
341
100
AcDbEntity
  8
3-1MA
  6
Continuous
 62
     7
100
AcDbLine
 10
156.7129475503
 20
104.7370124112
 30
0.0
 11
163.2449201977
 21
108.5082485775
 31
0.0
  0
LINE
  5
410
330
341
100
AcDbEntity
  8
3-1MA
  6
Continuous
 62
     7
100
AcDbLine
 10
163.2449201977
 20
108.5082485775
 30
0.0
 11
164.2076920502
 21
110.9896488706
 31
0.0
  0
LINE
  5
411
330
341
100
AcDbEntity
  8
3-1MA
  6
Continuous
 62
     7
100
AcDbLine
 10
165.3454519883
 20
113.9220547533
 30
0.0
 11
166.5109065215
 21
116.9258393081
 31
0.0
  0
LINE
  5
412
330
341
100
AcDbEntity
  8
3-1MA
  6
Continuous
 62
     7
100
AcDbLine
 10
166.5109065215
 20
116.9258393081
 30
0.0
 11
163.2449201977
 21
121.5721938724
 31
0.0
  0
LINE
  5
413
330
341
100
AcDbEntity
  8
3-1MA
  6
Continuous
 62
     7
100
AcDbLine
 10
163.2449201977
 20
121.5721938724
 30
0.0
 11
156.7129475503
 21
117.800957706
 31
0.0
  0
LINE
  5
414
330
341
100
AcDbEntity
  8
3-1MA
  6
Continuous
 62
     7
100
AcDbLine
 10
156.7129475503
 20
117.800957706
 30
0.0
 11
153.4469612266
 21
109.3833669755
 31
0.0
  0
LINE
  5
415
330
341
100
AcDbEntity
  8
3-1MA
  6
Continuous
 62
     7
100
AcDbLine
 10
153.4469612266
 20
109.3833669755
 30
0.0
 11
156.7129475503
 21
104.7370124112
 31
0.0
  0
ELLIPSE
  5
416
330
341
100
AcDbEntity
  8
3-1MA
  6
Continuous
 62
     7
100
AcDbEllipse
 10
159.978933874
 20
113.1546031418
 30
0.0
 11
3.749999999999674
 21
6.495190528383484
 31
0.0
210
0.0
220
0.0
230
0.9999999999999999
 40
0.5773502692
 41
0.0
 42
3.146790106082926
  0
ELLIPSE
  5
417
330
341
100
AcDbEntity
  8
3-1MA
  6
Continuous
 62
     7
100
AcDbEllipse
 10
159.978933874
 20
113.1546031418
 30
0.0
 11
3.749999999999674
 21
6.495190528383484
 31
0.0
210
0.0
220
0.0
230
0.9999999999999999
 40
0.5773502692
 41
6.278479557307097
 42
6.283185307179584
  0
ELLIPSE
  5
418
330
341
100
AcDbEntity
  8
3-1MA
  6
Continuous
 62
     7
100
AcDbEllipse
 10
160.6860406552
 20
112.7463548513
 30
0.0
 11
3.249999999999714
 21
5.629165124599002
 31
0.0
210
0.0
220
0.0
230
0.9999999999999999
 40
0.5773502692
 41
0.0
 42
6.283185307179586
  0
ELLIPSE
  5
419
330
341
100
AcDbEntity
  8
3-1MA
  6
Continuous
 62
     7
100
AcDbEllipse
 10
160.3324872646
 20
112.9504789965
 30
0.0
 11
-2.499999999999766
 21
-4.330127018922274
 31
0.0
210
0.0
220
0.0
230
1.0
 40
0.5773502692
 41
1.983163987370712
 42
3.147192317875575
  0
ELLIPSE
  5
41A
330
341
100
AcDbEntity
  8
3-1MA
  6
Continuous
 62
     7
100
AcDbEllipse
 10
160.6860406552
 20
112.7463548513
 30
0.0
 11
2.749999999999765
 21
4.763139720814549
 31
0.0
210
0.0
220
0.0
230
1.0
 40
0.5773502692
 41
0.0
 42
6.283185307179586
  0
ELLIPSE
  5
41B
330
341
100
AcDbEntity
  8
3-1MA
  6
Continuous
 62
     7
100
AcDbEllipse
 10
156.0075612466
 20
113.5093118379
 30
0.0
 11
-2.433372328101318
 21
-4.214724506004155
 31
0.0
210
0.0
220
0.0
230
1.0
 40
0.5773502692
 41
1.321421352329824
 42
2.368618903526533
  0
LINE
  5
41C
330
341
100
AcDbEntity
  8
3-1MA
  6
Continuous
 62
     7
100
AcDbLine
 10
159.4486037881
 20
115.5453680528
 30
0.0
 11
159.4486037881
 21
116.1272661443
 31
0.0
  0
ELLIPSE
  5
41D
330
341
100
AcDbEntity
  8
3-1MA
  6
Continuous
 62
     7
100
AcDbEllipse
 10
163.9503065015
 20
118.0950579489
 30
0.0
 11
2.433372328101445
 21
4.214724506004466
 31
0.0
210
0.0
220
0.0
230
1.0
 40
0.5773502692
 41
3.21430349808504
 42
3.415816454722921
  0
LINE
  5
41E
330
341
100
AcDbEntity
  8
3-1MA
  6
Continuous
 62
     7
100
AcDbLine
 10
158.5749389609
 20
110.05695236
 30
0.0
 11
157.570432048
 21
108.8073287481
 31
0.0
  0
LINE
  5
41F
330
341
100
AcDbEntity
  8
3-1MA
  6
Continuous
 62
     7
100
AcDbLine
 10
156.7129475503
 20
117.800957706
 30
0.0
 11
156.1552700145
 21
118.2954790115
 31
0.0
  0
LINE
  5
420
330
341
100
AcDbEntity
  8
3-1MA
  6
Continuous
 62
     7
100
AcDbLine
 10
152.6851595456
 20
109.3517888603
 30
0.0
 11
153.4469612266
 21
109.3833669755
 31
0.0
  0
LINE
  5
421
330
341
100
AcDbEntity
  8
3-1MA
  6
Continuous
 62
     7
100
AcDbLine
 10
163.2449201977
 20
121.5721938724
 30
0.0
 11
163.0954909524
 21
122.3024174383
 31
0.0
  0
LINE
  5
422
330
341
100
AcDbEntity
  8
3-1MA
  6
Continuous
 62
     7
100
AcDbLine
 10
166.5656014213
 20
117.3656657137
 30
0.0
 11
166.5109065215
 21
116.9258393081
 31
0.0
  0
LINE
  5
423
330
341
100
AcDbEntity
  8
3-1MA
  6
Continuous
 62
     7
100
AcDbLine
 10
156.7129475503
 20
104.7370124112
 30
0.0
 11
156.1552700145
 21
104.4150371358
 31
0.0
  0
ELLIPSE
  5
424
330
341
100
AcDbEntity
  8
3-1MA
  6
Continuous
 62
     7
100
AcDbEllipse
 10
160.3324872646
 20
112.9504789965
 30
0.0
 11
2.499999999999845
 21
4.330127018922399
 31
0.0
210
0.0
220
0.0
230
1.0
 40
0.5773502692
 41
3.133748930097719
 42
4.823620095407071
  0
LINE
  5
425
330
341
100
AcDbEntity
  8
3-1MA
  6
Continuous
 62
     7
100
AcDbLine
 10
163.2713191766
 20
113.5676459286
 30
0.0
 11
163.6248725671
 21
113.3635217834
 31
0.0
  0
LINE
  5
426
330
341
100
AcDbEntity
  8
3-1MA
  6
Continuous
 62
     7
100
AcDbLine
 10
151.2382342647
 20
108.7205303051
 30
0.0
 11
150.4345293207
 21
109.8639209274
 31
0.0
  0
LINE
  5
427
330
341
100
AcDbEntity
  8
3-1MA
  6
Continuous
 62
     7
100
AcDbLine
 10
152.9732894992
 20
106.2521544429
 30
0.0
 11
151.2382342647
 21
108.7205303051
 31
0.0
  0
ELLIPSE
  5
428
330
341
100
AcDbEntity
  8
3-1MA
  6
Continuous
 62
     7
100
AcDbEllipse
 10
156.0898465775
 20
115.3999687393
 30
0.0
 11
-4.249999999999633
 21
-7.361215932167953
 31
0.0
210
0.0
220
0.0
230
0.9999999999999996
 40
0.5773502692
 41
5.842738365814695
 42
6.229273466537525
  0
ELLIPSE
  5
429
330
341
100
AcDbEntity
  8
3-1MA
  6
Continuous
 62
     7
100
AcDbEllipse
 10
160.3324872646
 20
107.6553154933
 30
0.0
 11
2.433372328101641
 21
4.214724506004705
 31
0.0
210
0.0
220
0.0
230
1.0
 40
0.5773502692
 41
0.2742238011332273
 42
1.32142135232974
  0
ELLIPSE
  5
42A
330
341
100
AcDbEntity
  8
3-1MA
  6
Continuous
 62
     7
100
AcDbEllipse
 10
160.3324872646
 20
112.9504789965
 30
0.0
 11
2.499999999999422
 21
4.330127018922281
 31
0.0
210
0.0
220
0.0
230
1.0
 40
0.5773502692
 41
4.82362009540696
 42
5.12475664096042
  0
LINE
  5
42B
330
341
100
AcDbEntity
  8
3-1MA
  6
Continuous
 62
     7
100
AcDbLine
 10
163.6248725671
 20
113.3635217834
 30
0.0
 11
162.6203656542
 21
113.4532407221
 31
0.0
  0
LINE
  5
42C
330
341
100
AcDbEntity
  8
3-1MA
  6
Continuous
 62
     7
100
AcDbLine
 10
160.8628173505
 20
115.8548775888
 30
0.0
 11
160.8628173505
 21
117.1485346317
 31
0.0
  0
LINE
  5
42D
330
341
100
AcDbEntity
  8
3-1MA
  6
Continuous
 62
     7
100
AcDbLine
 10
158.1186629409
 20
110.903550826
 30
0.0
 11
157.1006881183
 21
109.6371729064
 31
0.0
  0
LINE
  5
42E
330
341
100
AcDbEntity
  8
3-1MA
  6
Continuous
 62
     7
100
AcDbLine
 10
163.2713191766
 20
113.5676459286
 30
0.0
 11
162.2668122636
 21
113.6573648673
 31
0.0
  0
LINE
  5
42F
330
341
100
AcDbEntity
  8
3-1MA
  6
Continuous
 62
     7
100
AcDbLine
 10
162.2668122636
 20
113.6573648673
 30
0.0
 11
162.6203656542
 21
113.4532407221
 31
0.0
  0
ELLIPSE
  5
430
330
341
100
AcDbEntity
  8
3-1MA
  6
Continuous
 62
     7
100
AcDbEllipse
 10
164.3038598921
 20
117.8909338037
 30
0.0
 11
2.433372328101445
 21
4.214724506004512
 31
0.0
210
0.0
220
0.0
230
1.0
 40
0.5773502692
 41
2.368618903526318
 42
3.415816454722917
  0
LINE
  5
431
330
341
100
AcDbEntity
  8
3-1MA
  6
Continuous
 62
     7
100
AcDbLine
 10
163.0945424813
 20
111.9966753938
 30
0.0
 11
162.0159815025
 21
112.0930085749
 31
0.0
  0
ELLIPSE
  5
432
330
341
100
AcDbEntity
  8
3-1MA
  6
Continuous
 62
     7
100
AcDbEllipse
 10
156.3611146372
 20
113.3051876927
 30
0.0
 11
-2.433372328101298
 21
-4.214724506004178
 31
0.0
210
0.0
220
0.0
230
1.0
 40
0.5773502692
 41
1.321421352329824
 42
2.368618903526521
  0
LINE
  5
433
330
341
100
AcDbEntity
  8
3-1MA
  6
Continuous
 62
     7
100
AcDbLine
 10
157.7651095503
 20
111.1076749712
 30
0.0
 11
156.9892915451
 21
110.1425442337
 31
0.0
  0
LINE
  5
434
330
341
100
AcDbEntity
  8
3-1MA
  6
Continuous
 62
     7
100
AcDbLine
 10
159.4486037881
 20
115.5453680528
 30
0.0
 11
159.8021571787
 21
115.3412439075
 31
0.0
  0
LINE
  5
435
330
341
100
AcDbEntity
  8
3-1MA
  6
Continuous
 62
     7
100
AcDbLine
 10
159.8021571787
 20
115.3412439075
 30
0.0
 11
159.8021571787
 21
116.4475310416
 31
0.0
  0
LINE
  5
436
330
341
100
AcDbEntity
  8
3-1MA
  6
Continuous
 62
     7
100
AcDbLine
 10
157.7651095503
 20
111.1076749712
 30
0.0
 11
158.1186629409
 21
110.903550826
 31
0.0
  0
ELLIPSE
  5
437
330
341
100
AcDbEntity
  8
3-1MA
  6
Continuous
 62
     7
100
AcDbEllipse
 10
186.2125954561
 20
68.5862019633
 30
0.0
 11
-2.249999999999825
 21
-3.897114317030079
 31
0.0
210
0.0
220
0.0
230
1.0
 40
0.5773502692
 41
5.932993769276972
 42
6.283185307179586
  0
ELLIPSE
  5
438
330
341
100
AcDbEntity
  8
3-1MA
  6
Continuous
 62
     7
100
AcDbEllipse
 10
186.2125954561
 20
68.5862019633
 30
0.0
 11
-2.249999999999825
 21
-3.897114317030079
 31
0.0
210
0.0
220
0.0
230
1.0
 40
0.5773502692
 41
0.0000000000000004
 42
3.49178419199844
  0
ELLIPSE
  5
439
330
341
100
AcDbEntity
  8
3-1MA
  6
Continuous
 62
     7
100
AcDbEllipse
 10
186.2125954561
 20
68.5862019633
 30
0.0
 11
-1.44374999999985
 21
-2.500648353427668
 31
0.0
210
0.0
220
0.0
230
1.0
 40
0.5773502692
 41
0.0
 42
6.283185307179586
  0
ARC
  5
43A
330
341
100
AcDbEntity
  8
3-1MA
  6
Continuous
 62
     7
100
AcDbCircle
 10
186.6608157861
 20
65.9858280568
 30
0.0
 40
4.978134067061518
100
AcDbArc
 50
74.6255903388
 51
95.1665909392
  0
ARC
  5
43B
330
341
100
AcDbEntity
  8
3-1MA
  6
Continuous
 62
     7
100
AcDbCircle
 10
192.2628221759
 20
69.6070671903
 30
0.0
 40
4.441449882921333
100
AcDbArc
 50
164.6094623628
 51
195.3905376372
  0
ARC
  5
43C
330
341
100
AcDbEntity
  8
3-1MA
  6
Continuous
 62
     7
100
AcDbCircle
 10
191.3198262233
 20
63.9336926558
 30
0.0
 40
5.599267899696404
100
AcDbArc
 50
126.6096543372
 51
155.8023918888
  0
LINE
  5
43D
330
341
100
AcDbEntity
  8
3-1MA
  6
Continuous
 62
     7
100
AcDbLine
 10
185.8593956189
 20
70.611705654
 30
0.0
 11
185.8593956189
 21
69.6530246807
 31
0.0
  0
LINE
  5
43E
330
341
100
AcDbEntity
  8
3-1MA
  6
Continuous
 62
     7
100
AcDbLine
 10
186.2125255216
 20
66.2287483315
 30
0.0
 11
184.3100779755
 21
67.3271269343
 31
0.0
  0
LINE
  5
43F
330
341
100
AcDbEntity
  8
3-1MA
  6
Continuous
 62
     7
100
AcDbLine
 10
187.9806460279
 20
68.428320186
 30
0.0
 11
185.8593956189
 21
69.6530246807
 31
0.0
  0
LINE
  5
440
330
341
100
AcDbEntity
  8
3-1MA
  6
Continuous
 62
     7
100
AcDbLine
 10
185.8593956189
 20
69.6530246807
 30
0.0
 11
184.2932072033
 21
67.704659767
 31
0.0
  0
ARC
  5
441
330
341
100
AcDbEntity
  8
3-1MA
  6
Continuous
 62
     7
100
AcDbCircle
 10
184.8926952797
 20
61.4287621933
 30
0.0
 40
4.978134067504073
100
AcDbArc
 50
74.6255903397
 51
95.1665909383
  0
ARC
  5
442
330
341
100
AcDbEntity
  8
3-1MA
  6
Continuous
 62
     7
100
AcDbCircle
 10
188.7265658934
 20
67.5654174897
 30
0.0
 40
4.441435160685548
100
AcDbArc
 50
164.6094100836
 51
195.3905899164
  0
ARC
  5
443
330
341
100
AcDbEntity
  8
3-1MA
  6
Continuous
 62
     7
100
AcDbCircle
 10
189.5517095345
 20
66.4491057495
 30
0.0
 40
5.599272639651394
100
AcDbArc
 50
126.6096669679
 51
155.8023792581
  0
ELLIPSE
  5
444
330
341
100
AcDbEntity
  8
3-1MA
  6
Continuous
 62
     7
100
AcDbEllipse
 10
73.7119065693
 20
98.8374002866
 30
0.0
 11
19.99999999999829
 21
-34.64101615137856
 31
0.0
210
0.0
220
0.0
230
0.9999999999999998
 40
0.5773502692
 41
2.998419972208266
 42
3.141592653589794
  0
ELLIPSE
  5
445
330
341
100
AcDbEntity
  8
3-1MA
  6
Continuous
 62
     7
100
AcDbEllipse
 10
73.7119065693
 20
98.8374002866
 30
0.0
 11
19.99999999999829
 21
-34.64101615137856
 31
0.0
210
0.0
220
0.0
230
0.9999999999999998
 40
0.5773502692
 41
0.0
 42
0.1431726813786605
  0
ELLIPSE
  5
446
330
341
100
AcDbEntity
  8
3-1MA
  6
Continuous
 62
     7
100
AcDbEllipse
 10
70.8834794445
 20
97.2044071248
 30
0.0
 11
19.9999999999983
 21
-34.64101615137852
 31
0.0
210
0.0
220
0.0
230
1.0
 40
0.5773502692
 41
0.0
 42
6.283185307179586
  0
ELLIPSE
  5
447
330
341
100
AcDbEntity
  8
3-1MA
  6
Continuous
 62
     7
100
AcDbEllipse
 10
70.8834794445
 20
97.2044071248
 30
0.0
 11
7.749999999999337
 21
-13.42339375865919
 31
0.0
210
0.0
220
0.0
230
0.9999999999999999
 40
0.5773502692
 41
5.09868775497641
 42
6.283185307179586
  0
ELLIPSE
  5
448
330
341
100
AcDbEntity
  8
3-1MA
  6
Continuous
 62
     7
100
AcDbEllipse
 10
70.8834794445
 20
97.2044071248
 30
0.0
 11
7.749999999999337
 21
-13.42339375865919
 31
0.0
210
0.0
220
0.0
230
0.9999999999999999
 40
0.5773502692
 41
0.0
 42
4.326090205522679
  0
ELLIPSE
  5
449
330
341
100
AcDbEntity
  8
3-1MA
  6
Continuous
 62
     7
100
AcDbEllipse
 10
87.8834794445
 20
67.7595433961
 30
0.0
 11
-2.749999999999774
 21
4.763139720814521
 31
0.0
210
0.0
220
0.0
230
1.0
 40
0.5773502692
 41
0.0
 42
6.283185307179586
  0
ELLIPSE
  5
44A
330
341
100
AcDbEntity
  8
3-1MA
  6
Continuous
 62
     7
100
AcDbEllipse
 10
70.8834794445
 20
69.4435233732
 30
0.0
 11
-2.749999999999764
 21
4.763139720814566
 31
0.0
210
0.0
220
0.0
230
0.9999999999999998
 40
0.5773502692
 41
0.0
 42
6.283185307179586
  0
ELLIPSE
  5
44B
330
341
100
AcDbEntity
  8
3-1MA
  6
Continuous
 62
     7
100
AcDbEllipse
 10
53.8834794445
 20
87.3894525486
 30
0.0
 11
-2.749999999999754
 21
4.763139720814527
 31
0.0
210
0.0
220
0.0
230
1.0
 40
0.5773502692
 41
0.0
 42
6.283185307179586
  0
ELLIPSE
  5
44C
330
341
100
AcDbEntity
  8
3-1MA
  6
Continuous
 62
     7
100
AcDbEllipse
 10
46.8418488842
 20
111.0848490006
 30
0.0
 11
-2.749999999999764
 21
4.76313972081455
 31
0.0
210
0.0
220
0.0
230
1.0
 40
0.5773502692
 41
0.0
 42
6.283185307179586
  0
ELLIPSE
  5
44D
330
341
100
AcDbEntity
  8
3-1MA
  6
Continuous
 62
     7
100
AcDbEllipse
 10
53.8834794445
 20
126.6492708535
 30
0.0
 11
-2.749999999999759
 21
4.763139720814553
 31
0.0
210
0.0
220
0.0
230
1.0
 40
0.5773502692
 41
0.0
 42
6.283185307179586
  0
ELLIPSE
  5
44E
330
341
100
AcDbEntity
  8
3-1MA
  6
Continuous
 62
     7
100
AcDbEllipse
 10
70.8834794445
 20
124.9652908763
 30
0.0
 11
-2.749999999999759
 21
4.763139720814553
 31
0.0
210
0.0
220
0.0
230
1.0
 40
0.5773502692
 41
0.0
 42
6.283185307179586
  0
ELLIPSE
  5
44F
330
341
100
AcDbEntity
  8
3-1MA
  6
Continuous
 62
     7
100
AcDbEllipse
 10
87.8834794445
 20
107.019361701
 30
0.0
 11
-2.749999999999764
 21
4.76313972081455
 31
0.0
210
0.0
220
0.0
230
1.0
 40
0.5773502692
 41
0.0
 42
6.283185307179586
  0
ELLIPSE
  5
450
330
341
100
AcDbEntity
  8
3-1MA
  6
Continuous
 62
     7
100
AcDbEllipse
 10
94.9251100049
 20
83.323965249
 30
0.0
 11
-2.749999999999759
 21
4.763139720814529
 31
0.0
210
0.0
220
0.0
230
0.9999999999999999
 40
0.5773502692
 41
0.0
 42
6.283185307179586
  0
ELLIPSE
  5
451
330
341
100
AcDbEntity
  8
3-1MA
  6
Continuous
 62
     7
100
AcDbEllipse
 10
73.3583531787
 20
98.6332761414
 30
0.0
 11
7.749999999999333
 21
-13.42339375865919
 31
0.0
210
0.0
220
0.0
230
1.0
 40
0.5773502692
 41
-0.254688054269379
 42
-0.1603556188570661
  0
ELLIPSE
  5
452
330
341
100
AcDbEntity
  8
3-1MA
  6
Continuous
 62
     7
100
AcDbEllipse
 10
73.3583531787
 20
98.6332761414
 30
0.0
 11
7.749999999999333
 21
-13.42339375865919
 31
0.0
210
0.0
220
0.0
230
1.0
 40
0.5773502692
 41
3.301948272446902
 42
3.396280707859145
  0
ELLIPSE
  5
453
330
341
100
AcDbEntity
  8
3-1MA
  6
Continuous
 62
     7
100
AcDbEllipse
 10
95.2786633955
 20
83.5280893943
 30
0.0
 11
2.49999999999979
 21
-4.330127018922306
 31
0.0
210
0.0
220
0.0
230
0.9999999999999999
 40
0.5773502692
 41
2.405022045813805
 42
3.141592653589791
  0
ELLIPSE
  5
454
330
341
100
AcDbEntity
  8
3-1MA
  6
Continuous
 62
     7
100
AcDbEllipse
 10
95.2786633955
 20
83.5280893943
 30
0.0
 11
2.49999999999979
 21
-4.330127018922306
 31
0.0
210
0.0
220
0.0
230
0.9999999999999999
 40
0.5773502692
 41
0.0000000000000026
 42
0.7365706086685474
  0
ELLIPSE
  5
455
330
341
100
AcDbEntity
  8
3-1MA
  6
Continuous
 62
     7
100
AcDbEllipse
 10
95.1372420392
 20
83.4464397362
 30
0.0
 11
2.499999999999794
 21
-4.330127018922304
 31
0.0
210
0.0
220
0.0
230
1.0
 40
0.5773502692
 41
0.0
 42
6.283185307179586
  0
ELLIPSE
  5
456
330
341
100
AcDbEntity
  8
3-1MA
  6
Continuous
 62
     7
100
AcDbEllipse
 10
95.1372420392
 20
83.4464397362
 30
0.0
 11
0.8712499999999285
 21
-1.50904926609442
 31
0.0
210
0.0
220
0.0
230
0.9999999999999999
 40
0.5773502692
 41
0.0
 42
6.283185307179586
  0
ARC
  5
457
330
341
100
AcDbEntity
  8
3-1MA
  6
Continuous
 62
     7
100
AcDbCircle
 10
93.5229235626
 20
79.7826346729
 30
0.0
 40
5.219531954138191
100
AcDbArc
 50
68.2600991172
 51
81.7399008828
  0
ARC
  5
458
330
341
100
AcDbEntity
  8
3-1MA
  6
Continuous
 62
     7
100
AcDbCircle
 10
89.5186635452
 20
80.2025519302
 30
0.0
 40
7.407084853871709
100
AcDbArc
 50
23.2834568083
 51
36.7165431917
  0
ARC
  5
459
330
341
100
AcDbEntity
  8
3-1MA
  6
Continuous
 62
     7
100
AcDbCircle
 10
91.1571341659
 20
83.8803015579
 30
0.0
 40
5.219532340377611
100
AcDbArc
 50
338.2600996182
 51
351.7399003818
  0
LINE
  5
45A
330
341
100
AcDbEntity
  8
3-1MA
  6
Continuous
 62
     7
100
AcDbLine
 10
94.8220194837
 20
82.2641125755
 30
0.0
 11
96.3225194837
 21
83.1304266545
 31
0.0
  0
LINE
  5
45B
330
341
100
AcDbEntity
  8
3-1MA
  6
Continuous
 62
     7
100
AcDbLine
 10
93.9557054048
 20
83.7646125755
 30
0.0
 11
95.4562054048
 21
84.6309266545
 31
0.0
  0
ARC
  5
45C
330
341
100
AcDbEntity
  8
3-1MA
  6
Continuous
 62
     7
100
AcDbCircle
 10
94.072144681
 20
77.0987276337
 30
0.0
 40
5.219531953878864
100
AcDbArc
 50
68.2600991168
 51
81.7399008832
  0
ARC
  5
45D
330
341
100
AcDbEntity
  8
3-1MA
  6
Continuous
 62
     7
100
AcDbCircle
 10
88.0181635453
 20
79.3362378513
 30
0.0
 40
7.407084853812989
100
AcDbArc
 50
23.2834568082
 51
36.7165431918
  0
ARC
  5
45E
330
341
100
AcDbEntity
  8
3-1MA
  6
Continuous
 62
     7
100
AcDbCircle
 10
89.1074134233
 20
85.6978944177
 30
0.0
 40
5.219531954054917
100
AcDbArc
 50
338.2600991171
 51
351.739900883
  0
LINE
  5
45F
330
341
100
AcDbEntity
  8
3-1MA
  6
Continuous
 62
     7
100
AcDbLine
 10
77.4595725096
 20
94.6324428949
 30
0.0
 11
75.9209353099
 21
95.5207754963
 31
0.0
  0
LINE
  5
460
330
341
100
AcDbEntity
  8
3-1MA
  6
Continuous
 62
     7
100
AcDbLine
 10
77.4595725096
 20
90.5499599902
 30
0.0
 11
77.4595725096
 21
94.6324428949
 31
0.0
  0
LINE
  5
461
330
341
100
AcDbEntity
  8
3-1MA
  6
Continuous
 62
     7
100
AcDbLine
 10
75.9209353099
 20
91.4382925917
 30
0.0
 11
77.4595725096
 21
90.5499599902
 31
0.0
  0
LINE
  5
462
330
341
100
AcDbEntity
  8
3-1MA
  6
Continuous
 62
     7
100
AcDbLine
 10
75.903472369
 20
91.8566231157
 30
0.0
 11
77.4595725096
 21
92.7550379508
 31
0.0
  0
ELLIPSE
  5
463
330
341
100
AcDbEntity
  8
3-1MA
  6
Continuous
 62
     7
100
AcDbEllipse
 10
70.7420580883
 20
97.1227574667
 30
0.0
 11
7.499999999999353
 21
-12.99038105676697
 31
0.0
210
0.0
220
0.0
230
0.9999999999999998
 40
0.5773502692
 41
5.497787143782051
 42
6.283185307179585
  0
ELLIPSE
  5
464
330
341
100
AcDbEntity
  8
3-1MA
  6
Continuous
 62
     7
100
AcDbEllipse
 10
70.7420580883
 20
97.1227574667
 30
0.0
 11
7.499999999999353
 21
-12.99038105676697
 31
0.0
210
0.0
220
0.0
230
0.9999999999999998
 40
0.5773502692
 41
0.0
 42
3.926990816987327
  0
ELLIPSE
  5
465
330
341
100
AcDbEntity
  8
3-1MA
  6
Continuous
 62
     7
100
AcDbEllipse
 10
70.5299260539
 20
97.0002829796
 30
0.0
 11
3.999999999999964
 21
-6.928203230276238
 31
0.0
210
0.0
220
0.0
230
1.0
 40
0.5773502692
 41
2.386975655006919
 42
6.750759766649264
  0
ELLIPSE
  5
466
330
341
100
AcDbEntity
  8
3-1MA
  6
Continuous
 62
     7
100
AcDbEllipse
 10
70.1763726633
 20
96.7961588343
 30
0.0
 11
7.099999999999387
 21
-12.29756073373935
 31
0.0
210
0.0
220
0.0
230
0.9999999999999999
 40
0.5773502692
 41
0.0
 42
6.283185307179586
  0
ELLIPSE
  5
467
330
341
100
AcDbEntity
  8
3-1MA
  6
Continuous
 62
     7
100
AcDbEllipse
 10
70.1763726633
 20
96.7961588343
 30
0.0
 11
4.249999999999688
 21
-7.36121593216798
 31
0.0
210
0.0
220
0.0
230
1.0
 40
0.5773502692
 41
1.083930364582412
 42
6.770051269392242
  0
ARC
  5
468
330
341
100
AcDbEntity
  8
3-1MA
  6
Continuous
 62
     7
100
AcDbCircle
 10
-2.9748064499
 20
88.3543699278
 30
0.0
 40
78.95599183611307
100
AcDbArc
 50
2.2384711683
 51
2.5423046793
  0
LINE
  5
469
330
341
100
AcDbEntity
  8
3-1MA
  6
Continuous
 62
     7
100
AcDbLine
 10
38.6676556028
 20
168.7266818269
 30
0.0
 11
40.3647118776
 21
166.6155150799
 31
0.0
  0
LINE
  5
46A
330
341
100
AcDbEntity
  8
3-1MA
  6
Continuous
 62
     7
100
AcDbLine
 10
38.6676556028
 20
169.7470921102
 30
0.0
 11
38.6676556028
 21
168.7266818269
 31
0.0
  0
LINE
  5
46B
330
341
100
AcDbEntity
  8
3-1MA
  6
Continuous
 62
     7
100
AcDbLine
 10
36.1220711905
 20
167.2569879812
 30
0.0
 11
38.6676556028
 21
168.7266818269
 31
0.0
  0
ELLIPSE
  5
46C
330
341
100
AcDbEntity
  8
3-1MA
  6
Continuous
 62
     7
100
AcDbEllipse
 10
39.5161837402
 20
168.1813035951
 30
0.0
 11
4.749999999999593
 21
-8.227241335952401
 31
0.0
210
0.0
220
0.0
230
0.9999999999999999
 40
0.5773502692
 41
2.9357399694824
 42
3.141592653589792
  0
ELLIPSE
  5
46D
330
341
100
AcDbEntity
  8
3-1MA
  6
Continuous
 62
     7
100
AcDbEllipse
 10
39.5161837402
 20
168.1813035951
 30
0.0
 11
4.749999999999593
 21
-8.227241335952401
 31
0.0
210
0.0
220
0.0
230
0.9999999999999999
 40
0.5773502692
 41
0.0
 42
1.097168650461223
  0
ELLIPSE
  5
46E
330
341
100
AcDbEntity
  8
3-1MA
  6
Continuous
 62
     7
100
AcDbEllipse
 10
38.5969449247
 20
167.6505808174
 30
0.0
 11
4.749999999999583
 21
-8.227241335952401
 31
0.0
210
0.0
220
0.0
230
1.0
 40
0.5773502692
 41
5.497787143782227
 42
6.283185307179584
  0
ELLIPSE
  5
46F
330
341
100
AcDbEntity
  8
3-1MA
  6
Continuous
 62
     7
100
AcDbEllipse
 10
38.5969449247
 20
167.6505808174
 30
0.0
 11
4.749999999999583
 21
-8.227241335952401
 31
0.0
210
0.0
220
0.0
230
1.0
 40
0.5773502692
 41
2.382015296974426
 42
3.926990816987332
  0
ELLIPSE
  5
470
330
341
100
AcDbEntity
  8
3-1MA
  6
Continuous
 62
     7
100
AcDbEllipse
 10
38.5969449247
 20
167.6505808174
 30
0.0
 11
4.749999999999583
 21
-8.227241335952401
 31
0.0
210
0.0
220
0.0
230
1.0
 40
0.5773502692
 41
0.0
 42
1.285025759962234
  0
LINE
  5
471
330
341
100
AcDbEntity
  8
3-1MA
  6
Continuous
 62
     7
100
AcDbLine
 10
38.2433915341
 20
164.6180295475
 30
0.0
 11
40.3647118776
 21
165.8427744189
 31
0.0
  0
LINE
  5
472
330
341
100
AcDbEntity
  8
3-1MA
  6
Continuous
 62
     7
100
AcDbLine
 10
36.1220711905
 20
170.085415106
 30
0.0
 11
38.2433915341
 21
170.274883797
 31
0.0
  0
LINE
  5
473
330
341
100
AcDbEntity
  8
3-1MA
  6
Continuous
 62
     7
100
AcDbLine
 10
38.2433915341
 20
170.274883797
 30
0.0
 11
40.3647118776
 21
167.6359253632
 31
0.0
  0
LINE
  5
474
330
341
100
AcDbEntity
  8
3-1MA
  6
Continuous
 62
     7
100
AcDbLine
 10
40.3647118776
 20
167.6359253632
 30
0.0
 11
40.3647118776
 21
164.8074982385
 31
0.0
  0
LINE
  5
475
330
341
100
AcDbEntity
  8
3-1MA
  6
Continuous
 62
     7
100
AcDbLine
 10
40.3647118776
 20
164.8074982385
 30
0.0
 11
38.2433915341
 21
164.6180295475
 31
0.0
  0
LINE
  5
476
330
341
100
AcDbEntity
  8
3-1MA
  6
Continuous
 62
     7
100
AcDbLine
 10
38.2433915341
 20
164.6180295475
 30
0.0
 11
36.1220711905
 21
167.2569879812
 31
0.0
  0
LINE
  5
477
330
341
100
AcDbEntity
  8
3-1MA
  6
Continuous
 62
     7
100
AcDbLine
 10
36.1220711905
 20
167.2569879812
 30
0.0
 11
36.1220711905
 21
170.085415106
 31
0.0
  0
ELLIPSE
  5
478
330
341
100
AcDbEntity
  8
3-1MA
  6
Continuous
 62
     7
100
AcDbEllipse
 10
38.2433915341
 20
167.4464566722
 30
0.0
 11
4.499999999999609
 21
-7.794228634060157
 31
0.0
210
0.0
220
0.0
230
1.0
 40
0.5773502692
 41
0.0
 42
6.283185307179586
  0
ELLIPSE
  5
479
330
341
100
AcDbEntity
  8
3-1MA
  6
Continuous
 62
     7
100
AcDbEllipse
 10
88.2370328351
 20
107.2234858463
 30
0.0
 11
2.499999999999794
 21
-4.330127018922304
 31
0.0
210
0.0
220
0.0
230
1.0
 40
0.5773502692
 41
2.405022153354966
 42
3.141592653589793
  0
ELLIPSE
  5
47A
330
341
100
AcDbEntity
  8
3-1MA
  6
Continuous
 62
     7
100
AcDbEllipse
 10
88.2370328351
 20
107.2234858463
 30
0.0
 11
2.499999999999794
 21
-4.330127018922304
 31
0.0
210
0.0
220
0.0
230
1.0
 40
0.5773502692
 41
0.0
 42
0.7365704940243468
  0
ARC
  5
47B
330
341
100
AcDbEntity
  8
3-1MA
  6
Continuous
 62
     7
100
AcDbCircle
 10
82.3876386595
 20
104.6530776525
 30
0.0
 40
7.160409627717284
100
AcDbArc
 50
14.4146598815
 51
27.9973863445
  0
LINE
  5
47C
330
341
100
AcDbEntity
  8
3-1MA
  6
Continuous
 62
     7
100
AcDbLine
 10
86.8723287642
 20
107.8502585504
 30
0.0
 11
87.9616309276
 21
108.4791674477
 31
0.0
  0
ARC
  5
47D
330
341
100
AcDbEntity
  8
3-1MA
  6
Continuous
 62
     7
100
AcDbCircle
 10
81.8059679356
 20
112.0625082056
 30
0.0
 40
6.588706944687718
100
AcDbArc
 50
320.2593480006
 51
329.5328332773
  0
LINE
  5
47E
330
341
100
AcDbEntity
  8
3-1MA
  6
Continuous
 62
     7
100
AcDbLine
 10
87.4849053241
 20
106.271434189
 30
0.0
 11
89.1093805158
 21
107.2093253783
 31
0.0
  0
ARC
  5
47F
330
341
100
AcDbEntity
  8
3-1MA
  6
Continuous
 62
     7
100
AcDbCircle
 10
80.5499090576
 20
104.4889382881
 30
0.0
 40
7.160409545065705
100
AcDbArc
 50
14.4146598027
 51
27.9973864233
  0
ARC
  5
480
330
341
100
AcDbEntity
  8
3-1MA
  6
Continuous
 62
     7
100
AcDbCircle
 10
85.2710116144
 20
101.0221728344
 30
0.0
 40
5.697022917868303
100
AcDbArc
 50
52.8677493646
 51
67.1322506354
  0
ARC
  5
481
330
341
100
AcDbEntity
  8
3-1MA
  6
Continuous
 62
     7
100
AcDbCircle
 10
83.6436976153
 20
109.7763413607
 30
0.0
 40
6.588706944561402
100
AcDbArc
 50
320.2593480005
 51
329.5328332774
  0
ARC
  5
482
330
341
100
AcDbEntity
  8
3-1MA
  6
Continuous
 62
     7
100
AcDbCircle
 10
85.2710117439
 20
103.4724792982
 30
0.0
 40
5.697022660779542
100
AcDbArc
 50
52.8677490411
 51
67.1322509589
  0
ELLIPSE
  5
483
330
341
100
AcDbEntity
  8
3-1MA
  6
Continuous
 62
     7
100
AcDbEllipse
 10
88.0956114789
 20
107.1418361882
 30
0.0
 11
0.8712499999999186
 21
-1.509049266094425
 31
0.0
210
0.0
220
0.0
230
1.0
 40
0.5773502692
 41
0.0
 42
6.283185307179586
  0
ELLIPSE
  5
484
330
341
100
AcDbEntity
  8
3-1MA
  6
Continuous
 62
     7
100
AcDbEllipse
 10
88.0956114789
 20
107.1418361882
 30
0.0
 11
2.499999999999804
 21
-4.330127018922308
 31
0.0
210
0.0
220
0.0
230
1.0
 40
0.5773502692
 41
0.0
 42
6.283185307179586
  0
ELLIPSE
  5
485
330
341
100
AcDbEntity
  8
3-1MA
  6
Continuous
 62
     7
100
AcDbEllipse
 10
71.2370328351
 20
125.1694150216
 30
0.0
 11
2.49999999999979
 21
-4.330127018922311
 31
0.0
210
0.0
220
0.0
230
0.9999999999999998
 40
0.5773502692
 41
2.405022097062467
 42
3.141592653589793
  0
ELLIPSE
  5
486
330
341
100
AcDbEntity
  8
3-1MA
  6
Continuous
 62
     7
100
AcDbEllipse
 10
71.2370328351
 20
125.1694150216
 30
0.0
 11
2.49999999999979
 21
-4.330127018922311
 31
0.0
210
0.0
220
0.0
230
0.9999999999999998
 40
0.5773502692
 41
0.0
 42
0.7365705538406906
  0
LINE
  5
487
330
341
100
AcDbEntity
  8
3-1MA
  6
Continuous
 62
     7
100
AcDbLine
 10
72.0178538173
 20
125.3827291014
 30
0.0
 11
71.8556429967
 21
125.5265697649
 31
0.0
  0
LINE
  5
488
330
341
100
AcDbEntity
  8
3-1MA
  6
Continuous
 62
     7
100
AcDbLine
 10
71.8556429967
 20
125.5265697649
 30
0.0
 11
71.8109812128
 21
125.7448207975
 31
0.0
  0
ARC
  5
489
330
341
100
AcDbEntity
  8
3-1MA
  6
Continuous
 62
     7
100
AcDbCircle
 10
67.0878770163
 20
121.2823453008
 30
0.0
 40
6.505533248456806
100
AcDbArc
 50
41.4526253886
 51
55.4172722572
  0
LINE
  5
48A
330
341
100
AcDbEntity
  8
3-1MA
  6
Continuous
 62
     7
100
AcDbLine
 10
70.231167805
 20
124.5886785756
 30
0.0
 11
71.8556429967
 21
125.5265697649
 31
0.0
  0
ARC
  5
48B
330
341
100
AcDbEntity
  8
3-1MA
  6
Continuous
 62
     7
100
AcDbCircle
 10
63.7464326829
 20
124.068896657
 30
0.0
 40
6.505533248466917
100
AcDbArc
 50
4.5827277428
 51
18.5473746114
  0
ARC
  5
48C
330
341
100
AcDbEntity
  8
3-1MA
  6
Continuous
 62
     7
100
AcDbCircle
 10
66.538655787
 20
119.2326240572
 30
0.0
 40
6.505533414510234
100
AcDbArc
 50
41.4526255678
 51
55.4172720781
  0
LINE
  5
48D
330
341
100
AcDbEntity
  8
3-1MA
  6
Continuous
 62
     7
100
AcDbLine
 10
72.2808889234
 20
124.0394574573
 30
0.0
 11
71.4145748444
 21
123.5392907906
 31
0.0
  0
ARC
  5
48E
330
341
100
AcDbEntity
  8
3-1MA
  6
Continuous
 62
     7
100
AcDbCircle
 10
65.7961538013
 20
123.5196755386
 30
0.0
 40
6.505533248456019
100
AcDbArc
 50
4.5827277428
 51
18.5473746114
  0
LINE
  5
48F
330
341
100
AcDbEntity
  8
3-1MA
  6
Continuous
 62
     7
100
AcDbLine
 10
69.9140748444
 20
126.1382330274
 30
0.0
 11
70.7803889234
 21
126.638399694
 31
0.0
  0
ELLIPSE
  5
490
330
341
100
AcDbEntity
  8
3-1MA
  6
Continuous
 62
     7
100
AcDbEllipse
 10
71.0956114789
 20
125.0877653635
 30
0.0
 11
0.8712499999999334
 21
-1.509049266094417
 31
0.0
210
0.0
220
0.0
230
0.9999999999999999
 40
0.5773502692
 41
0.0
 42
6.283185307179586
  0
ELLIPSE
  5
491
330
341
100
AcDbEntity
  8
3-1MA
  6
Continuous
 62
     7
100
AcDbEllipse
 10
71.0956114789
 20
125.0877653635
 30
0.0
 11
2.499999999999785
 21
-4.330127018922331
 31
0.0
210
0.0
220
0.0
230
0.9999999999999999
 40
0.5773502692
 41
0.0
 42
6.283185307179586
  0
ELLIPSE
  5
492
330
341
100
AcDbEntity
  8
3-1MA
  6
Continuous
 62
     7
100
AcDbEllipse
 10
54.2370328351
 20
126.8533949987
 30
0.0
 11
2.499999999999787
 21
-4.330127018922333
 31
0.0
210
0.0
220
0.0
230
1.0
 40
0.5773502692
 41
2.405022009141886
 42
3.141592653589792
  0
ELLIPSE
  5
493
330
341
100
AcDbEntity
  8
3-1MA
  6
Continuous
 62
     7
100
AcDbEllipse
 10
54.2370328351
 20
126.8533949987
 30
0.0
 11
2.499999999999787
 21
-4.330127018922333
 31
0.0
210
0.0
220
0.0
230
1.0
 40
0.5773502692
 41
0.0
 42
0.7365706483065345
  0
ARC
  5
494
330
341
100
AcDbEntity
  8
3-1MA
  6
Continuous
 62
     7
100
AcDbCircle
 10
54.1512029529
 20
121.599022253
 30
0.0
 40
6.588706944562767
100
AcDbArc
 50
90.4671667226
 51
99.7406519995
  0
LINE
  5
495
330
341
100
AcDbEntity
  8
3-1MA
  6
Continuous
 62
     7
100
AcDbLine
 10
54.0974818839
 20
125.3581402525
 30
0.0
 11
55.1945278216
 21
125.99152002
 31
0.0
  0
LINE
  5
496
330
341
100
AcDbEntity
  8
3-1MA
  6
Continuous
 62
     7
100
AcDbLine
 10
53.0364681587
 20
126.6780592958
 30
0.0
 11
54.6609433504
 21
127.6159504851
 31
0.0
  0
ARC
  5
497
330
341
100
AcDbEntity
  8
3-1MA
  6
Continuous
 62
     7
100
AcDbCircle
 10
48.0252832283
 20
121.5634242523
 30
0.0
 40
7.160409627608493
100
AcDbArc
 50
32.0026136554
 51
45.5853401186
  0
ARC
  5
498
330
341
100
AcDbEntity
  8
3-1MA
  6
Continuous
 62
     7
100
AcDbCircle
 10
55.2122167429
 20
118.8644175173
 30
0.0
 40
6.588707670583812
100
AcDbArc
 50
90.4671672346
 51
99.7406514874
  0
ARC
  5
499
330
341
100
AcDbEntity
  8
3-1MA
  6
Continuous
 62
     7
100
AcDbCircle
 10
49.50555507
 20
126.1602486596
 30
0.0
 40
5.697022917932639
100
AcDbArc
 50
352.8677493647
 51
7.1322506353
  0
ARC
  5
49A
330
341
100
AcDbEntity
  8
3-1MA
  6
Continuous
 62
     7
100
AcDbCircle
 10
49.0862969534
 20
123.0728751427
 30
0.0
 40
7.160409627716603
100
AcDbArc
 50
32.0026136555
 51
45.5853401185
  0
ARC
  5
49B
330
341
100
AcDbEntity
  8
3-1MA
  6
Continuous
 62
     7
100
AcDbCircle
 10
47.3835278788
 20
127.3854017793
 30
0.0
 40
5.697022660717162
100
AcDbArc
 50
352.867749041
 51
7.132250959
  0
ELLIPSE
  5
49C
330
341
100
AcDbEntity
  8
3-1MA
  6
Continuous
 62
     7
100
AcDbEllipse
 10
54.0956114789
 20
126.7717453406
 30
0.0
 11
0.8712499999999285
 21
-1.50904926609442
 31
0.0
210
0.0
220
0.0
230
0.9999999999999999
 40
0.5773502692
 41
0.0
 42
6.283185307179586
  0
ELLIPSE
  5
49D
330
341
100
AcDbEntity
  8
3-1MA
  6
Continuous
 62
     7
100
AcDbEllipse
 10
54.0956114789
 20
126.7717453406
 30
0.0
 11
2.49999999999979
 21
-4.330127018922306
 31
0.0
210
0.0
220
0.0
230
1.0
 40
0.5773502692
 41
0.0
 42
6.283185307179586
  0
ELLIPSE
  5
49E
330
341
100
AcDbEntity
  8
3-1MA
  6
Continuous
 62
     7
100
AcDbEllipse
 10
47.1954022748
 20
111.2889731458
 30
0.0
 11
2.49999999999979
 21
-4.330127018922329
 31
0.0
210
0.0
220
0.0
230
1.0
 40
0.5773502692
 41
2.405022103104418
 42
3.141592653589795
  0
ELLIPSE
  5
49F
330
341
100
AcDbEntity
  8
3-1MA
  6
Continuous
 62
     7
100
AcDbEllipse
 10
47.1954022748
 20
111.2889731458
 30
0.0
 11
2.49999999999979
 21
-4.330127018922329
 31
0.0
210
0.0
220
0.0
230
1.0
 40
0.5773502692
 41
0.0000000000000018
 42
0.7365705475839225
  0
LINE
  5
4A0
330
341
100
AcDbEntity
  8
3-1MA
  6
Continuous
 62
     7
100
AcDbLine
 10
45.8724442841
 20
111.5254963271
 30
0.0
 11
47.3729442841
 21
112.391810406
 31
0.0
  0
ARC
  5
4A1
330
341
100
AcDbEntity
  8
3-1MA
  6
Continuous
 62
     7
100
AcDbCircle
 10
41.0241523027
 20
113.4587781692
 30
0.0
 40
5.219531953877973
100
AcDbArc
 50
338.2600991168
 51
351.7399008832
  0
LINE
  5
4A2
330
341
100
AcDbEntity
  8
3-1MA
  6
Continuous
 62
     7
100
AcDbLine
 10
46.738758363
 20
110.0249963271
 30
0.0
 11
48.239258363
 21
110.891310406
 31
0.0
  0
ARC
  5
4A3
330
341
100
AcDbEntity
  8
3-1MA
  6
Continuous
 62
     7
100
AcDbCircle
 10
45.9888834597
 20
104.8596110095
 30
0.0
 40
5.219532340103435
100
AcDbArc
 50
68.2600996179
 51
81.7399003821
  0
ARC
  5
4A4
330
341
100
AcDbEntity
  8
3-1MA
  6
Continuous
 62
     7
100
AcDbCircle
 10
43.0738730454
 20
111.6411853094
 30
0.0
 40
5.219532340189604
100
AcDbArc
 50
338.260099618
 51
351.739900382
  0
ARC
  5
4A5
330
341
100
AcDbEntity
  8
3-1MA
  6
Continuous
 62
     7
100
AcDbCircle
 10
41.4354024245
 20
107.9634356817
 30
0.0
 40
7.407084853872325
100
AcDbArc
 50
23.2834568083
 51
36.7165431917
  0
ARC
  5
4A6
330
341
100
AcDbEntity
  8
3-1MA
  6
Continuous
 62
     7
100
AcDbCircle
 10
45.4396623412
 20
107.5435180487
 30
0.0
 40
5.219532340377545
100
AcDbArc
 50
68.2600996182
 51
81.7399003818
  0
ARC
  5
4A7
330
341
100
AcDbEntity
  8
3-1MA
  6
Continuous
 62
     7
100
AcDbCircle
 10
39.9349024246
 20
107.0971216028
 30
0.0
 40
7.407084853813425
100
AcDbArc
 50
23.2834568082
 51
36.7165431918
  0
ELLIPSE
  5
4A8
330
341
100
AcDbEntity
  8
3-1MA
  6
Continuous
 62
     7
100
AcDbEllipse
 10
47.0539809185
 20
111.2073234877
 30
0.0
 11
0.8712499999999186
 21
-1.509049266094442
 31
0.0
210
0.0
220
0.0
230
1.0
 40
0.5773502692
 41
0.0
 42
6.283185307179586
  0
ELLIPSE
  5
4A9
330
341
100
AcDbEntity
  8
3-1MA
  6
Continuous
 62
     7
100
AcDbEllipse
 10
47.0539809185
 20
111.2073234877
 30
0.0
 11
2.49999999999979
 21
-4.330127018922306
 31
0.0
210
0.0
220
0.0
230
1.0
 40
0.5773502692
 41
0.0
 42
6.283185307179586
  0
ELLIPSE
  5
4AA
330
341
100
AcDbEntity
  8
3-1MA
  6
Continuous
 62
     7
100
AcDbEllipse
 10
54.2370328351
 20
87.5935766938
 30
0.0
 11
2.49999999999979
 21
-4.330127018922306
 31
0.0
210
0.0
220
0.0
230
1.0
 40
0.5773502692
 41
2.405022016528093
 42
3.141592653589791
  0
ELLIPSE
  5
4AB
330
341
100
AcDbEntity
  8
3-1MA
  6
Continuous
 62
     7
100
AcDbEllipse
 10
54.2370328351
 20
87.5935766938
 30
0.0
 11
2.49999999999979
 21
-4.330127018922306
 31
0.0
210
0.0
220
0.0
230
1.0
 40
0.5773502692
 41
0.0
 42
0.73657063975292
  0
LINE
  5
4AC
330
341
100
AcDbEntity
  8
3-1MA
  6
Continuous
 62
     7
100
AcDbLine
 10
53.4849053241
 20
86.6415250366
 30
0.0
 11
55.1093805158
 21
87.5794162258
 31
0.0
  0
LINE
  5
4AD
330
341
100
AcDbEntity
  8
3-1MA
  6
Continuous
 62
     7
100
AcDbLine
 10
52.8723287642
 20
88.220349398
 30
0.0
 11
53.9616309276
 21
88.8492582952
 31
0.0
  0
ARC
  5
4AE
330
341
100
AcDbEntity
  8
3-1MA
  6
Continuous
 62
     7
100
AcDbCircle
 10
46.5499090576
 20
84.8590291357
 30
0.0
 40
7.16040954503428
100
AcDbArc
 50
14.4146598027
 51
27.9973864233
  0
ARC
  5
4AF
330
341
100
AcDbEntity
  8
3-1MA
  6
Continuous
 62
     7
100
AcDbCircle
 10
49.6436970192
 20
90.1464326272
 30
0.0
 40
6.58870767079312
100
AcDbArc
 50
320.2593485127
 51
329.5328327652
  0
ARC
  5
4B0
330
341
100
AcDbEntity
  8
3-1MA
  6
Continuous
 62
     7
100
AcDbCircle
 10
48.3876386595
 20
85.0231685001
 30
0.0
 40
7.160409627668822
100
AcDbArc
 50
14.4146598814
 51
27.9973863446
  0
ARC
  5
4B1
330
341
100
AcDbEntity
  8
3-1MA
  6
Continuous
 62
     7
100
AcDbCircle
 10
51.2710117439
 20
83.8425701457
 30
0.0
 40
5.697022660780121
100
AcDbArc
 50
52.8677490411
 51
67.1322509589
  0
ARC
  5
4B2
330
341
100
AcDbEntity
  8
3-1MA
  6
Continuous
 62
     7
100
AcDbCircle
 10
47.8059673395
 20
92.4325994722
 30
0.0
 40
6.588707670938588
100
AcDbArc
 50
320.2593485128
 51
329.5328327651
  0
ARC
  5
4B3
330
341
100
AcDbEntity
  8
3-1MA
  6
Continuous
 62
     7
100
AcDbCircle
 10
51.2710116144
 20
81.392263682
 30
0.0
 40
5.697022917866897
100
AcDbArc
 50
52.8677493646
 51
67.1322506354
  0
ELLIPSE
  5
4B4
330
341
100
AcDbEntity
  8
3-1MA
  6
Continuous
 62
     7
100
AcDbEllipse
 10
54.0956114789
 20
87.5119270357
 30
0.0
 11
0.8712499999999284
 21
-1.509049266094414
 31
0.0
210
0.0
220
0.0
230
1.0
 40
0.5773502692
 41
0.0
 42
6.283185307179586
  0
ELLIPSE
  5
4B5
330
341
100
AcDbEntity
  8
3-1MA
  6
Continuous
 62
     7
100
AcDbEllipse
 10
54.0956114789
 20
87.5119270357
 30
0.0
 11
2.49999999999979
 21
-4.330127018922306
 31
0.0
210
0.0
220
0.0
230
1.0
 40
0.5773502692
 41
0.0
 42
6.283185307179586
  0
ELLIPSE
  5
4B6
330
341
100
AcDbEntity
  8
3-1MA
  6
Continuous
 62
     7
100
AcDbEllipse
 10
71.2370328351
 20
69.6476475185
 30
0.0
 11
2.499999999999794
 21
-4.330127018922304
 31
0.0
210
0.0
220
0.0
230
1.0
 40
0.5773502692
 41
2.405022012341316
 42
3.141592653589793
  0
ELLIPSE
  5
4B7
330
341
100
AcDbEntity
  8
3-1MA
  6
Continuous
 62
     7
100
AcDbEllipse
 10
71.2370328351
 20
69.6476475185
 30
0.0
 11
2.499999999999794
 21
-4.330127018922304
 31
0.0
210
0.0
220
0.0
230
1.0
 40
0.5773502692
 41
0.0
 42
0.7365706439632673
  0
LINE
  5
4B8
330
341
100
AcDbEntity
  8
3-1MA
  6
Continuous
 62
     7
100
AcDbLine
 10
71.8556429967
 20
70.0048022618
 30
0.0
 11
71.8109812128
 21
70.2230532944
 31
0.0
  0
LINE
  5
4B9
330
341
100
AcDbEntity
  8
3-1MA
  6
Continuous
 62
     7
100
AcDbLine
 10
72.0178538175
 20
69.8609615981
 30
0.0
 11
71.8556429967
 21
70.0048022618
 31
0.0
  0
LINE
  5
4BA
330
341
100
AcDbEntity
  8
3-1MA
  6
Continuous
 62
     7
100
AcDbLine
 10
70.231167805
 20
69.0669110726
 30
0.0
 11
71.8556429967
 21
70.0048022618
 31
0.0
  0
ARC
  5
4BB
330
341
100
AcDbEntity
  8
3-1MA
  6
Continuous
 62
     7
100
AcDbCircle
 10
66.5386557869
 20
63.7108565541
 30
0.0
 40
6.505533414595875
100
AcDbArc
 50
41.4526255678
 51
55.417272078
  0
ARC
  5
4BC
330
341
100
AcDbEntity
  8
3-1MA
  6
Continuous
 62
     7
100
AcDbCircle
 10
65.7961536373
 20
67.997908002
 30
0.0
 40
6.505533414573451
100
AcDbArc
 50
4.582727922
 51
18.5473744322
  0
ARC
  5
4BD
330
341
100
AcDbEntity
  8
3-1MA
  6
Continuous
 62
     7
100
AcDbCircle
 10
67.0878770163
 20
65.7605777977
 30
0.0
 40
6.505533248528409
100
AcDbArc
 50
41.4526253887
 51
55.4172722571
  0
LINE
  5
4BE
330
341
100
AcDbEntity
  8
3-1MA
  6
Continuous
 62
     7
100
AcDbLine
 10
69.9140748444
 20
70.6164655243
 30
0.0
 11
70.7803889234
 21
71.1166321909
 31
0.0
  0
ARC
  5
4BF
330
341
100
AcDbEntity
  8
3-1MA
  6
Continuous
 62
     7
100
AcDbCircle
 10
63.7464325189
 20
68.5471291204
 30
0.0
 40
6.50553341459621
100
AcDbArc
 50
4.582727922
 51
18.5473744322
  0
LINE
  5
4C0
330
341
100
AcDbEntity
  8
3-1MA
  6
Continuous
 62
     7
100
AcDbLine
 10
72.2808889234
 20
68.5176899542
 30
0.0
 11
71.4145748444
 21
68.0175232875
 31
0.0
  0
ELLIPSE
  5
4C1
330
341
100
AcDbEntity
  8
3-1MA
  6
Continuous
 62
     7
100
AcDbEllipse
 10
71.0956114789
 20
69.5659978604
 30
0.0
 11
0.8712499999999235
 21
-1.509049266094411
 31
0.0
210
0.0
220
0.0
230
0.9999999999999999
 40
0.5773502692
 41
0.0
 42
6.283185307179586
  0
ELLIPSE
  5
4C2
330
341
100
AcDbEntity
  8
3-1MA
  6
Continuous
 62
     7
100
AcDbEllipse
 10
71.0956114789
 20
69.5659978604
 30
0.0
 11
2.49999999999979
 21
-4.330127018922306
 31
0.0
210
0.0
220
0.0
230
1.0
 40
0.5773502692
 41
0.0
 42
6.283185307179586
  0
ELLIPSE
  5
4C3
330
341
100
AcDbEntity
  8
3-1MA
  6
Continuous
 62
     7
100
AcDbEllipse
 10
88.2370328351
 20
67.9636675414
 30
0.0
 11
2.499999999999809
 21
-4.330127018922306
 31
0.0
210
0.0
220
0.0
230
0.9999999999999999
 40
0.5773502692
 41
2.405022031605647
 42
3.141592653589793
  0
ELLIPSE
  5
4C4
330
341
100
AcDbEntity
  8
3-1MA
  6
Continuous
 62
     7
100
AcDbEllipse
 10
88.2370328351
 20
67.9636675414
 30
0.0
 11
2.499999999999809
 21
-4.330127018922306
 31
0.0
210
0.0
220
0.0
230
0.9999999999999999
 40
0.5773502692
 41
0.0
 42
0.736570623606861
  0
LINE
  5
4C5
330
341
100
AcDbEntity
  8
3-1MA
  6
Continuous
 62
     7
100
AcDbLine
 10
88.0974818839
 20
66.4684127952
 30
0.0
 11
89.1945278216
 21
67.1017925626
 31
0.0
  0
ARC
  5
4C6
330
341
100
AcDbEntity
  8
3-1MA
  6
Continuous
 62
     7
100
AcDbCircle
 10
89.2122167429
 20
59.9746900596
 30
0.0
 40
6.588707670934135
100
AcDbArc
 50
90.4671672349
 51
99.7406514872
  0
ARC
  5
4C7
330
341
100
AcDbEntity
  8
3-1MA
  6
Continuous
 62
     7
100
AcDbCircle
 10
83.0862970182
 20
64.1831477375
 30
0.0
 40
7.160409545127099
100
AcDbArc
 50
32.0026135768
 51
45.5853401972
  0
ARC
  5
4C8
330
341
100
AcDbEntity
  8
3-1MA
  6
Continuous
 62
     7
100
AcDbCircle
 10
88.1512029529
 20
62.7092947953
 30
0.0
 40
6.58870694489609
100
AcDbArc
 50
90.4671667228
 51
99.7406519992
  0
LINE
  5
4C9
330
341
100
AcDbEntity
  8
3-1MA
  6
Continuous
 62
     7
100
AcDbLine
 10
87.0364681587
 20
67.7883318385
 30
0.0
 11
88.6609433504
 21
68.7262230277
 31
0.0
  0
ARC
  5
4CA
330
341
100
AcDbEntity
  8
3-1MA
  6
Continuous
 62
     7
100
AcDbCircle
 10
81.3835278789
 20
68.4956743219
 30
0.0
 40
5.697022660716711
100
AcDbArc
 50
352.867749041
 51
7.132250959
  0
ARC
  5
4CB
330
341
100
AcDbEntity
  8
3-1MA
  6
Continuous
 62
     7
100
AcDbCircle
 10
82.0252832931
 20
62.6736968471
 30
0.0
 40
7.160409545036335
100
AcDbArc
 50
32.0026135767
 51
45.5853401973
  0
ARC
  5
4CC
330
341
100
AcDbEntity
  8
3-1MA
  6
Continuous
 62
     7
100
AcDbCircle
 10
83.50555507
 20
67.2705212023
 30
0.0
 40
5.697022917933209
100
AcDbArc
 50
352.8677493647
 51
7.1322506353
  0
ELLIPSE
  5
4CD
330
341
100
AcDbEntity
  8
3-1MA
  6
Continuous
 62
     7
100
AcDbEllipse
 10
88.0956114789
 20
67.8820178833
 30
0.0
 11
0.8712499999998942
 21
-1.509049266094417
 31
0.0
210
0.0
220
0.0
230
1.0
 40
0.5773502692
 41
0.0
 42
6.283185307179586
  0
ELLIPSE
  5
4CE
330
341
100
AcDbEntity
  8
3-1MA
  6
Continuous
 62
     7
100
AcDbEllipse
 10
88.0956114789
 20
67.8820178833
 30
0.0
 11
2.499999999999779
 21
-4.3301270189223
 31
0.0
210
0.0
220
0.0
230
1.0
 40
0.5773502692
 41
0.0
 42
6.283185307179586
  0
LINE
  5
4CF
330
341
100
AcDbEntity
  8
3-1MA
  6
Continuous
 62
     7
100
AcDbLine
 10
185.8593956189
 20
182.3295528488
 30
0.0
 11
184.2932072033
 21
180.381187935
 31
0.0
  0
LINE
  5
4D0
330
341
100
AcDbEntity
  8
3-1MA
  6
Continuous
 62
     7
100
AcDbLine
 10
185.8593956189
 20
183.288233822
 30
0.0
 11
185.8593956189
 21
182.3295528488
 31
0.0
  0
LINE
  5
4D1
330
341
100
AcDbEntity
  8
3-1MA
  6
Continuous
 62
     7
100
AcDbLine
 10
187.9806460279
 20
181.1048483541
 30
0.0
 11
185.8593956189
 21
182.3295528488
 31
0.0
  0
LINE
  5
4D2
330
341
100
AcDbEntity
  8
3-1MA
  6
Continuous
 62
     7
100
AcDbLine
 10
186.2125255216
 20
178.9052764995
 30
0.0
 11
184.3100779755
 21
180.0036551024
 31
0.0
  0
ARC
  5
4D3
330
341
100
AcDbEntity
  8
3-1MA
  6
Continuous
 62
     7
100
AcDbCircle
 10
191.3198262233
 20
176.6102208239
 30
0.0
 40
5.599267899696639
100
AcDbArc
 50
126.6096543372
 51
155.8023918888
  0
ARC
  5
4D4
330
341
100
AcDbEntity
  8
3-1MA
  6
Continuous
 62
     7
100
AcDbCircle
 10
189.5517095345
 20
179.1256339175
 30
0.0
 40
5.599272639650773
100
AcDbArc
 50
126.6096669679
 51
155.8023792581
  0
ARC
  5
4D5
330
341
100
AcDbEntity
  8
3-1MA
  6
Continuous
 62
     7
100
AcDbCircle
 10
188.7265658934
 20
180.2419456577
 30
0.0
 40
4.441435160685841
100
AcDbArc
 50
164.6094100836
 51
195.3905899164
  0
ARC
  5
4D6
330
341
100
AcDbEntity
  8
3-1MA
  6
Continuous
 62
     7
100
AcDbCircle
 10
184.8926952797
 20
174.1052903614
 30
0.0
 40
4.978134067504716
100
AcDbArc
 50
74.6255903397
 51
95.1665909383
  0
ARC
  5
4D7
330
341
100
AcDbEntity
  8
3-1MA
  6
Continuous
 62
     7
100
AcDbCircle
 10
186.6608157861
 20
178.6623562248
 30
0.0
 40
4.978134067059496
100
AcDbArc
 50
74.6255903388
 51
95.1665909392
  0
ARC
  5
4D8
330
341
100
AcDbEntity
  8
3-1MA
  6
Continuous
 62
     7
100
AcDbCircle
 10
192.2628221759
 20
182.2835953583
 30
0.0
 40
4.441449882921465
100
AcDbArc
 50
164.6094623628
 51
195.3905376372
  0
ELLIPSE
  5
4D9
330
341
100
AcDbEntity
  8
3-1MA
  6
Continuous
 62
     7
100
AcDbEllipse
 10
186.2125954561
 20
181.2627301313
 30
0.0
 11
-1.443749999999869
 21
-2.500648353427635
 31
0.0
210
0.0
220
0.0
230
1.0
 40
0.5773502692
 41
0.0
 42
6.283185307179586
  0
ELLIPSE
  5
4DA
330
341
100
AcDbEntity
  8
3-1MA
  6
Continuous
 62
     7
100
AcDbEllipse
 10
186.2125954561
 20
181.2627301313
 30
0.0
 11
-2.249999999999806
 21
-3.897114317030091
 31
0.0
210
0.0
220
0.0
230
0.9999999999999999
 40
0.5773502692
 41
5.932993759974554
 42
6.283185307179586
  0
ELLIPSE
  5
4DB
330
341
100
AcDbEntity
  8
3-1MA
  6
Continuous
 62
     7
100
AcDbEllipse
 10
186.2125954561
 20
181.2627301313
 30
0.0
 11
-2.249999999999806
 21
-3.897114317030091
 31
0.0
210
0.0
220
0.0
230
0.9999999999999999
 40
0.5773502692
 41
0.0
 42
3.491784200699136
  0
LINE
  5
4DC
330
341
100
AcDbEntity
  8
3-1MA
  6
Continuous
 62
     7
100
AcDbLine
 10
128.5837463427
 20
36.5849131532
 30
0.0
 11
127.0175579272
 21
34.6365482394
 31
0.0
  0
LINE
  5
4DD
330
341
100
AcDbEntity
  8
3-1MA
  6
Continuous
 62
     7
100
AcDbLine
 10
128.5837463427
 20
37.5435941264
 30
0.0
 11
128.5837463427
 21
36.5849131532
 31
0.0
  0
LINE
  5
4DE
330
341
100
AcDbEntity
  8
3-1MA
  6
Continuous
 62
     7
100
AcDbLine
 10
130.7049967518
 20
35.3602086585
 30
0.0
 11
128.5837463427
 21
36.5849131532
 31
0.0
  0
LINE
  5
4DF
330
341
100
AcDbEntity
  8
3-1MA
  6
Continuous
 62
     7
100
AcDbLine
 10
128.9368762455
 20
33.1606368039
 30
0.0
 11
127.0344286994
 21
34.2590154068
 31
0.0
  0
ARC
  5
4E0
330
341
100
AcDbEntity
  8
3-1MA
  6
Continuous
 62
     7
100
AcDbCircle
 10
134.0441769472
 20
30.8655811283
 30
0.0
 40
5.599267899696603
100
AcDbArc
 50
126.6096543372
 51
155.8023918888
  0
ARC
  5
4E1
330
341
100
AcDbEntity
  8
3-1MA
  6
Continuous
 62
     7
100
AcDbCircle
 10
132.2760602584
 20
33.3809942219
 30
0.0
 40
5.599272639651281
100
AcDbArc
 50
126.6096669679
 51
155.8023792581
  0
ARC
  5
4E2
330
341
100
AcDbEntity
  8
3-1MA
  6
Continuous
 62
     7
100
AcDbCircle
 10
131.4509166173
 20
34.4973059621
 30
0.0
 40
4.441435160686
100
AcDbArc
 50
164.6094100836
 51
195.3905899164
  0
ARC
  5
4E3
330
341
100
AcDbEntity
  8
3-1MA
  6
Continuous
 62
     7
100
AcDbCircle
 10
127.6170460036
 20
28.3606506658
 30
0.0
 40
4.978134067504578
100
AcDbArc
 50
74.6255903397
 51
95.1665909383
  0
ARC
  5
4E4
330
341
100
AcDbEntity
  8
3-1MA
  6
Continuous
 62
     7
100
AcDbCircle
 10
129.3851665099
 20
32.9177165292
 30
0.0
 40
4.978134067060301
100
AcDbArc
 50
74.6255903388
 51
95.1665909392
  0
ARC
  5
4E5
330
341
100
AcDbEntity
  8
3-1MA
  6
Continuous
 62
     7
100
AcDbCircle
 10
134.9871728998
 20
36.5389556627
 30
0.0
 40
4.441449882921341
100
AcDbArc
 50
164.6094623628
 51
195.3905376372
  0
ELLIPSE
  5
4E6
330
341
100
AcDbEntity
  8
3-1MA
  6
Continuous
 62
     7
100
AcDbEllipse
 10
128.9369461799
 20
35.5180904357
 30
0.0
 11
-1.443749999999879
 21
-2.500648353427663
 31
0.0
210
0.0
220
0.0
230
1.0
 40
0.5773502692
 41
0.0
 42
6.283185307179586
  0
ELLIPSE
  5
4E7
330
341
100
AcDbEntity
  8
3-1MA
  6
Continuous
 62
     7
100
AcDbEllipse
 10
128.9369461799
 20
35.5180904357
 30
0.0
 11
-2.249999999999806
 21
-3.897114317030091
 31
0.0
210
0.0
220
0.0
230
1.0
 40
0.5773502692
 41
5.932993754406655
 42
6.283185307179583
  0
ELLIPSE
  5
4E8
330
341
100
AcDbEntity
  8
3-1MA
  6
Continuous
 62
     7
100
AcDbEllipse
 10
128.9369461799
 20
35.5180904357
 30
0.0
 11
-2.249999999999806
 21
-3.897114317030091
 31
0.0
210
0.0
220
0.0
230
1.0
 40
0.5773502692
 41
0.0
 42
3.491784206023095
  0
ELLIPSE
  5
4E9
330
341
100
AcDbEntity
  8
3-1MA
  6
Continuous
 62
     7
100
AcDbEllipse
 10
128.5833927893
 20
35.7222145809
 30
0.0
 11
-2.49999999999979
 21
-4.330127018922311
 31
0.0
210
0.0
220
0.0
230
1.0
 40
0.5773502692
 41
3.141592653589791
 42
3.159996809123998
  0
LINE
  5
4EA
330
341
100
AcDbEntity
  8
3-1MA
  6
Continuous
 62
     7
100
AcDbLine
 10
128.5837463427
 20
149.2614413212
 30
0.0
 11
127.0175579272
 21
147.3130764075
 31
0.0
  0
LINE
  5
4EB
330
341
100
AcDbEntity
  8
3-1MA
  6
Continuous
 62
     7
100
AcDbLine
 10
128.5837463427
 20
150.2201222945
 30
0.0
 11
128.5837463427
 21
149.2614413212
 31
0.0
  0
LINE
  5
4EC
330
341
100
AcDbEntity
  8
3-1MA
  6
Continuous
 62
     7
100
AcDbLine
 10
130.7049967518
 20
148.0367368265
 30
0.0
 11
128.5837463427
 21
149.2614413212
 31
0.0
  0
LINE
  5
4ED
330
341
100
AcDbEntity
  8
3-1MA
  6
Continuous
 62
     7
100
AcDbLine
 10
128.9368762455
 20
145.8371649719
 30
0.0
 11
127.0344286994
 21
146.9355435748
 31
0.0
  0
ARC
  5
4EE
330
341
100
AcDbEntity
  8
3-1MA
  6
Continuous
 62
     7
100
AcDbCircle
 10
134.0441769472
 20
143.5421092963
 30
0.0
 40
5.599267899696557
100
AcDbArc
 50
126.6096543372
 51
155.8023918888
  0
ARC
  5
4EF
330
341
100
AcDbEntity
  8
3-1MA
  6
Continuous
 62
     7
100
AcDbCircle
 10
132.2760602584
 20
146.05752239
 30
0.0
 40
5.599272639651001
100
AcDbArc
 50
126.6096669679
 51
155.8023792581
  0
ARC
  5
4F0
330
341
100
AcDbEntity
  8
3-1MA
  6
Continuous
 62
     7
100
AcDbCircle
 10
131.4509166173
 20
147.1738341301
 30
0.0
 40
4.441435160685933
100
AcDbArc
 50
164.6094100836
 51
195.3905899164
  0
ARC
  5
4F1
330
341
100
AcDbEntity
  8
3-1MA
  6
Continuous
 62
     7
100
AcDbCircle
 10
127.6170460036
 20
141.0371788338
 30
0.0
 40
4.978134067504093
100
AcDbArc
 50
74.6255903397
 51
95.1665909383
  0
ARC
  5
4F2
330
341
100
AcDbEntity
  8
3-1MA
  6
Continuous
 62
     7
100
AcDbCircle
 10
129.3851665099
 20
145.5942446973
 30
0.0
 40
4.978134067059992
100
AcDbArc
 50
74.6255903388
 51
95.1665909392
  0
ARC
  5
4F3
330
341
100
AcDbEntity
  8
3-1MA
  6
Continuous
 62
     7
100
AcDbCircle
 10
134.9871728998
 20
149.2154838307
 30
0.0
 40
4.441449882921314
100
AcDbArc
 50
164.6094623628
 51
195.3905376372
  0
ELLIPSE
  5
4F4
330
341
100
AcDbEntity
  8
3-1MA
  6
Continuous
 62
     7
100
AcDbEllipse
 10
128.9369461799
 20
148.1946186037
 30
0.0
 11
-1.443749999999899
 21
-2.500648353427629
 31
0.0
210
0.0
220
0.0
230
0.9999999999999998
 40
0.5773502692
 41
0.0
 42
6.283185307179586
  0
ELLIPSE
  5
4F5
330
341
100
AcDbEntity
  8
3-1MA
  6
Continuous
 62
     7
100
AcDbEllipse
 10
128.9369461799
 20
148.1946186037
 30
0.0
 11
-2.249999999999786
 21
-3.89711431703009
 31
0.0
210
0.0
220
0.0
230
1.0
 40
0.5773502692
 41
5.932993761253275
 42
6.283185307179586
  0
ELLIPSE
  5
4F6
330
341
100
AcDbEntity
  8
3-1MA
  6
Continuous
 62
     7
100
AcDbEllipse
 10
128.9369461799
 20
148.1946186037
 30
0.0
 11
-2.249999999999786
 21
-3.89711431703009
 31
0.0
210
0.0
220
0.0
230
1.0
 40
0.5773502692
 41
0.0
 42
3.491784199553509
  0
ELLIPSE
  5
4F7
330
341
100
AcDbEntity
  8
3-1MA
  6
Continuous
 62
     7
100
AcDbEllipse
 10
186.2125954561
 20
104.5120515241
 30
0.0
 11
-2.249999999999806
 21
-3.897114317030113
 31
0.0
210
0.0
220
0.0
230
0.9999999999999999
 40
0.5773502692
 41
5.932993765373984
 42
6.283185307179586
  0
ELLIPSE
  5
4F8
330
341
100
AcDbEntity
  8
3-1MA
  6
Continuous
 62
     7
100
AcDbEllipse
 10
186.2125954561
 20
104.5120515241
 30
0.0
 11
-2.249999999999806
 21
-3.897114317030113
 31
0.0
210
0.0
220
0.0
230
0.9999999999999999
 40
0.5773502692
 41
0.0000000000000021
 42
3.49178419571423
  0
ARC
  5
4F9
330
341
100
AcDbEntity
  8
3-1MA
  6
Continuous
 62
     7
100
AcDbCircle
 10
189.5517095345
 20
102.3749553103
 30
0.0
 40
5.599272639651212
100
AcDbArc
 50
126.6096669679
 51
155.8023792581
  0
ARC
  5
4FA
330
341
100
AcDbEntity
  8
3-1MA
  6
Continuous
 62
     7
100
AcDbCircle
 10
188.7265658934
 20
103.4912670505
 30
0.0
 40
4.441435160685921
100
AcDbArc
 50
164.6094100836
 51
195.3905899164
  0
ARC
  5
4FB
330
341
100
AcDbEntity
  8
3-1MA
  6
Continuous
 62
     7
100
AcDbCircle
 10
184.8926952797
 20
97.3546117541
 30
0.0
 40
4.978134067505271
100
AcDbArc
 50
74.6255903397
 51
95.1665909383
  0
ARC
  5
4FC
330
341
100
AcDbEntity
  8
3-1MA
  6
Continuous
 62
     7
100
AcDbCircle
 10
192.2628221759
 20
105.5329167511
 30
0.0
 40
4.441449882921333
100
AcDbArc
 50
164.6094623628
 51
195.3905376372
  0
ARC
  5
4FD
330
341
100
AcDbEntity
  8
3-1MA
  6
Continuous
 62
     7
100
AcDbCircle
 10
186.6608157861
 20
101.9116776176
 30
0.0
 40
4.978134067060917
100
AcDbArc
 50
74.6255903388
 51
95.1665909392
  0
ELLIPSE
  5
4FE
330
341
100
AcDbEntity
  8
3-1MA
  6
Continuous
 62
     7
100
AcDbEllipse
 10
186.2125954561
 20
104.5120515241
 30
0.0
 11
-1.443749999999869
 21
-2.500648353427612
 31
0.0
210
0.0
220
0.0
230
1.0
 40
0.5773502692
 41
0.0
 42
6.283185307179586
  0
ARC
  5
4FF
330
341
100
AcDbEntity
  8
3-1MA
  6
Continuous
 62
     7
100
AcDbCircle
 10
191.3198262233
 20
99.8595422167
 30
0.0
 40
5.599267899696492
100
AcDbArc
 50
126.6096543372
 51
155.8023918888
  0
LINE
  5
500
330
341
100
AcDbEntity
  8
3-1MA
  6
Continuous
 62
     7
100
AcDbLine
 10
186.2125255216
 20
102.1545978923
 30
0.0
 11
184.3100779755
 21
103.2529764951
 31
0.0
  0
LINE
  5
501
330
341
100
AcDbEntity
  8
3-1MA
  6
Continuous
 62
     7
100
AcDbLine
 10
187.9806460279
 20
104.3541697469
 30
0.0
 11
185.8593956189
 21
105.5788742416
 31
0.0
  0
LINE
  5
502
330
341
100
AcDbEntity
  8
3-1MA
  6
Continuous
 62
     7
100
AcDbLine
 10
185.8593956189
 20
106.5375552148
 30
0.0
 11
185.8593956189
 21
105.5788742416
 31
0.0
  0
LINE
  5
503
330
341
100
AcDbEntity
  8
3-1MA
  6
Continuous
 62
     7
100
AcDbLine
 10
185.8593956189
 20
105.5788742416
 30
0.0
 11
184.2932072033
 21
103.6305093278
 31
0.0
  0
LINE
  5
504
330
341
100
AcDbEntity
  8
3-1MA
  6
Continuous
 62
     7
100
AcDbLine
 10
185.8593956189
 20
146.4037032879
 30
0.0
 11
184.2932072033
 21
144.4553383742
 31
0.0
  0
ARC
  5
505
330
341
100
AcDbEntity
  8
3-1MA
  6
Continuous
 62
     7
100
AcDbCircle
 10
191.3198262233
 20
140.684371263
 30
0.0
 40
5.599267899696532
100
AcDbArc
 50
126.6096543372
 51
155.8023918888
  0
ARC
  5
506
330
341
100
AcDbEntity
  8
3-1MA
  6
Continuous
 62
     7
100
AcDbCircle
 10
184.8926952797
 20
138.1794408005
 30
0.0
 40
4.978134067504417
100
AcDbArc
 50
74.6255903397
 51
95.1665909383
  0
LINE
  5
507
330
341
100
AcDbEntity
  8
3-1MA
  6
Continuous
 62
     7
100
AcDbLine
 10
186.2125255216
 20
142.9794269387
 30
0.0
 11
184.3100779755
 21
144.0778055415
 31
0.0
  0
ELLIPSE
  5
508
330
341
100
AcDbEntity
  8
3-1MA
  6
Continuous
 62
     7
100
AcDbEllipse
 10
186.2125954561
 20
145.3368805705
 30
0.0
 11
-1.443749999999869
 21
-2.500648353427635
 31
0.0
210
0.0
220
0.0
230
1.0
 40
0.5773502692
 41
0.0
 42
6.283185307179586
  0
ELLIPSE
  5
509
330
341
100
AcDbEntity
  8
3-1MA
  6
Continuous
 62
     7
100
AcDbEllipse
 10
186.2125954561
 20
145.3368805705
 30
0.0
 11
-2.249999999999836
 21
-3.897114317030097
 31
0.0
210
0.0
220
0.0
230
1.0
 40
0.5773502692
 41
5.932993766112329
 42
6.283185307179586
  0
ELLIPSE
  5
50A
330
341
100
AcDbEntity
  8
3-1MA
  6
Continuous
 62
     7
100
AcDbEllipse
 10
186.2125954561
 20
145.3368805705
 30
0.0
 11
-2.249999999999836
 21
-3.897114317030097
 31
0.0
210
0.0
220
0.0
230
1.0
 40
0.5773502692
 41
0.0000000000000059
 42
3.491784195118436
  0
ARC
  5
50B
330
341
100
AcDbEntity
  8
3-1MA
  6
Continuous
 62
     7
100
AcDbCircle
 10
192.2628221759
 20
146.3577457975
 30
0.0
 40
4.441449882921219
100
AcDbArc
 50
164.6094623628
 51
195.3905376372
  0
LINE
  5
50C
330
341
100
AcDbEntity
  8
3-1MA
  6
Continuous
 62
     7
100
AcDbLine
 10
187.9806460279
 20
145.1789987932
 30
0.0
 11
185.8593956189
 21
146.4037032879
 31
0.0
  0
LINE
  5
50D
330
341
100
AcDbEntity
  8
3-1MA
  6
Continuous
 62
     7
100
AcDbLine
 10
185.8593956189
 20
147.3623842612
 30
0.0
 11
185.8593956189
 21
146.4037032879
 31
0.0
  0
ARC
  5
50E
330
341
100
AcDbEntity
  8
3-1MA
  6
Continuous
 62
     7
100
AcDbCircle
 10
186.6608157861
 20
142.736506664
 30
0.0
 40
4.978134067059306
100
AcDbArc
 50
74.6255903388
 51
95.1665909392
  0
ARC
  5
50F
330
341
100
AcDbEntity
  8
3-1MA
  6
Continuous
 62
     7
100
AcDbCircle
 10
188.7265658934
 20
144.3160960969
 30
0.0
 40
4.441435160685691
100
AcDbArc
 50
164.6094100836
 51
195.3905899164
  0
ARC
  5
510
330
341
100
AcDbEntity
  8
3-1MA
  6
Continuous
 62
     7
100
AcDbCircle
 10
189.5517095345
 20
143.1997843567
 30
0.0
 40
5.599272639650771
100
AcDbArc
 50
126.6096669679
 51
155.8023792581
  0
LINE
  5
511
330
341
100
AcDbEntity
  8
3-1MA
  6
Continuous
 62
     7
100
AcDbLine
 10
128.5837463427
 20
72.510762714
 30
0.0
 11
127.0175579272
 21
70.5623978002
 31
0.0
  0
ARC
  5
512
330
341
100
AcDbEntity
  8
3-1MA
  6
Continuous
 62
     7
100
AcDbCircle
 10
134.0441769472
 20
66.7914306891
 30
0.0
 40
5.599267899696486
100
AcDbArc
 50
126.6096543372
 51
155.8023918888
  0
ARC
  5
513
330
341
100
AcDbEntity
  8
3-1MA
  6
Continuous
 62
     7
100
AcDbCircle
 10
127.6170460036
 20
64.2865002266
 30
0.0
 40
4.978134067506113
100
AcDbArc
 50
74.6255903397
 51
95.1665909383
  0
LINE
  5
514
330
341
100
AcDbEntity
  8
3-1MA
  6
Continuous
 62
     7
100
AcDbLine
 10
128.9368762455
 20
69.0864863647
 30
0.0
 11
127.0344286994
 21
70.1848649676
 31
0.0
  0
ELLIPSE
  5
515
330
341
100
AcDbEntity
  8
3-1MA
  6
Continuous
 62
     7
100
AcDbEllipse
 10
128.9369461799
 20
71.4439399965
 30
0.0
 11
-1.443749999999869
 21
-2.500648353427657
 31
0.0
210
0.0
220
0.0
230
0.9999999999999998
 40
0.5773502692
 41
0.0
 42
6.283185307179586
  0
ELLIPSE
  5
516
330
341
100
AcDbEntity
  8
3-1MA
  6
Continuous
 62
     7
100
AcDbEllipse
 10
128.9369461799
 20
71.4439399965
 30
0.0
 11
-2.249999999999806
 21
-3.897114317030091
 31
0.0
210
0.0
220
0.0
230
0.9999999999999999
 40
0.5773502692
 41
5.932993759200633
 42
6.283185307179583
  0
ELLIPSE
  5
517
330
341
100
AcDbEntity
  8
3-1MA
  6
Continuous
 62
     7
100
AcDbEllipse
 10
128.9369461799
 20
71.4439399965
 30
0.0
 11
-2.249999999999806
 21
-3.897114317030091
 31
0.0
210
0.0
220
0.0
230
0.9999999999999999
 40
0.5773502692
 41
0.0
 42
3.4917842014696
  0
ARC
  5
518
330
341
100
AcDbEntity
  8
3-1MA
  6
Continuous
 62
     7
100
AcDbCircle
 10
134.9871728998
 20
72.4648052235
 30
0.0
 40
4.441449882921322
100
AcDbArc
 50
164.6094623628
 51
195.3905376372
  0
LINE
  5
519
330
341
100
AcDbEntity
  8
3-1MA
  6
Continuous
 62
     7
100
AcDbLine
 10
130.7049967518
 20
71.2860582193
 30
0.0
 11
128.5837463427
 21
72.510762714
 31
0.0
  0
LINE
  5
51A
330
341
100
AcDbEntity
  8
3-1MA
  6
Continuous
 62
     7
100
AcDbLine
 10
128.5837463427
 20
73.4694436873
 30
0.0
 11
128.5837463427
 21
72.510762714
 31
0.0
  0
ARC
  5
51B
330
341
100
AcDbEntity
  8
3-1MA
  6
Continuous
 62
     7
100
AcDbCircle
 10
129.3851665099
 20
68.84356609
 30
0.0
 40
4.978134067059822
100
AcDbArc
 50
74.6255903388
 51
95.1665909392
  0
ARC
  5
51C
330
341
100
AcDbEntity
  8
3-1MA
  6
Continuous
 62
     7
100
AcDbCircle
 10
131.4509166173
 20
70.4231555229
 30
0.0
 40
4.441435160685942
100
AcDbArc
 50
164.6094100836
 51
195.3905899164
  0
ARC
  5
51D
330
341
100
AcDbEntity
  8
3-1MA
  6
Continuous
 62
     7
100
AcDbCircle
 10
132.2760602584
 20
69.3068437828
 30
0.0
 40
5.599272639651122
100
AcDbArc
 50
126.6096669679
 51
155.8023792581
  0
LINE
  5
51E
330
341
100
AcDbEntity
  8
3-1MA
  6
Continuous
 62
     7
100
AcDbLine
 10
128.5837463427
 20
113.3355917604
 30
0.0
 11
127.0175579272
 21
111.3872268466
 31
0.0
  0
ARC
  5
51F
330
341
100
AcDbEntity
  8
3-1MA
  6
Continuous
 62
     7
100
AcDbCircle
 10
134.0441769472
 20
107.6162597355
 30
0.0
 40
5.599267899696412
100
AcDbArc
 50
126.6096543372
 51
155.8023918888
  0
ARC
  5
520
330
341
100
AcDbEntity
  8
3-1MA
  6
Continuous
 62
     7
100
AcDbCircle
 10
127.6170460036
 20
105.111329273
 30
0.0
 40
4.97813406750414
100
AcDbArc
 50
74.6255903397
 51
95.1665909383
  0
LINE
  5
521
330
341
100
AcDbEntity
  8
3-1MA
  6
Continuous
 62
     7
100
AcDbLine
 10
128.9368762455
 20
109.9113154111
 30
0.0
 11
127.0344286994
 21
111.009694014
 31
0.0
  0
ELLIPSE
  5
522
330
341
100
AcDbEntity
  8
3-1MA
  6
Continuous
 62
     7
100
AcDbEllipse
 10
128.9369461799
 20
112.2687690429
 30
0.0
 11
-1.443749999999889
 21
-2.500648353427635
 31
0.0
210
0.0
220
0.0
230
1.0
 40
0.5773502692
 41
0.0
 42
6.283185307179586
  0
ELLIPSE
  5
523
330
341
100
AcDbEntity
  8
3-1MA
  6
Continuous
 62
     7
100
AcDbEllipse
 10
128.9369461799
 20
112.2687690429
 30
0.0
 11
-2.249999999999806
 21
-3.897114317030091
 31
0.0
210
0.0
220
0.0
230
1.0
 40
0.5773502692
 41
5.932993758547211
 42
6.283185307179583
  0
ELLIPSE
  5
524
330
341
100
AcDbEntity
  8
3-1MA
  6
Continuous
 62
     7
100
AcDbEllipse
 10
128.9369461799
 20
112.2687690429
 30
0.0
 11
-2.249999999999806
 21
-3.897114317030091
 31
0.0
210
0.0
220
0.0
230
1.0
 40
0.5773502692
 41
0.0
 42
3.491784202055402
  0
ARC
  5
525
330
341
100
AcDbEntity
  8
3-1MA
  6
Continuous
 62
     7
100
AcDbCircle
 10
134.9871728998
 20
113.2896342699
 30
0.0
 40
4.441449882921356
100
AcDbArc
 50
164.6094623628
 51
195.3905376372
  0
LINE
  5
526
330
341
100
AcDbEntity
  8
3-1MA
  6
Continuous
 62
     7
100
AcDbLine
 10
130.7049967518
 20
112.1108872657
 30
0.0
 11
128.5837463427
 21
113.3355917604
 31
0.0
  0
LINE
  5
527
330
341
100
AcDbEntity
  8
3-1MA
  6
Continuous
 62
     7
100
AcDbLine
 10
128.5837463427
 20
114.2942727336
 30
0.0
 11
128.5837463427
 21
113.3355917604
 31
0.0
  0
ARC
  5
528
330
341
100
AcDbEntity
  8
3-1MA
  6
Continuous
 62
     7
100
AcDbCircle
 10
129.3851665099
 20
109.6683951364
 30
0.0
 40
4.978134067060371
100
AcDbArc
 50
74.6255903388
 51
95.1665909392
  0
ARC
  5
529
330
341
100
AcDbEntity
  8
3-1MA
  6
Continuous
 62
     7
100
AcDbCircle
 10
131.4509166173
 20
111.2479845693
 30
0.0
 40
4.441435160685976
100
AcDbArc
 50
164.6094100836
 51
195.3905899164
  0
ARC
  5
52A
330
341
100
AcDbEntity
  8
3-1MA
  6
Continuous
 62
     7
100
AcDbCircle
 10
132.2760602584
 20
110.1316728292
 30
0.0
 40
5.599272639651151
100
AcDbArc
 50
126.6096669679
 51
155.8023792581
  0
LINE
  5
52B
330
341
100
AcDbEntity
  8
3-1MA
  6
Continuous
 62
     7
100
AcDbLine
 10
102.0013699037
 20
214.3982581486
 30
0.0
 11
102.0013699037
 21
207.4580372107
 31
0.0
  0
LINE
  5
52C
330
341
100
AcDbEntity
  8
3-1MA
  6
Continuous
 62
     7
100
AcDbLine
 10
119.0013699037
 20
207.4580372107
 30
0.0
 11
119.0013699037
 21
214.3982581486
 31
0.0
  0
ARC
  5
52D
330
341
100
AcDbEntity
  8
3-1MA
  6
Continuous
 62
     7
100
AcDbCircle
 10
114.0996895725
 20
214.1293537386
 30
0.0
 40
4.899249648410422
100
AcDbArc
 50
3.0938629631
 51
64.6004207777
  0
SPLINE
  5
52E
330
341
100
AcDbEntity
  8
3-1MA
  6
Continuous
 62
     7
100
AcDbSpline
210
0.0
220
0.0
230
1.0
 70
     8
 71
     3
 72
    26
 73
    22
 74
     0
 42
0.0000000005843805
 43
0.0000000001
 40
0.0
 40
0.0
 40
0.0
 40
0.0
 40
0.0300256187884049
 40
0.0852758972334171
 40
0.1403808615139857
 40
0.1953104699717554
 40
0.2500571811984161
 40
0.3046773822493002
 40
0.3592555160661662
 40
0.4138850015834348
 40
0.4686376558101347
 40
0.5236174842074597
 40
0.5789233240678947
 40
0.6346297598511613
 40
0.690742399548739
 40
0.74707191000511
 40
0.8030269027159777
 40
0.8578252415726114
 40
0.9107774705656748
 40
0.9617042150524187
 40
1.0
 40
1.0
 40
1.0
 40
1.0
 10
116.2011173720246
 20
218.5550342874964
 30
0.0
 10
116.0414763956405
 20
218.6439607688568
 30
0.0
 10
115.6543606742128
 20
218.8569585257452
 30
0.0
 10
114.8962394510867
 20
219.1875780444487
 30
0.0
 10
113.9676740723854
 20
219.491981669656
 30
0.0
 10
112.9826714806808
 20
219.7225195529533
 30
0.0
 10
111.9654364883673
 20
219.8739419835472
 30
0.0
 10
110.9278030113403
 20
219.9463334914358
 30
0.0
 10
109.8846286140001
 20
219.9390458718582
 30
0.0
 10
108.8498751544178
 20
219.8522100678074
 30
0.0
 10
107.8374809270385
 20
219.6862756158271
 30
0.0
 10
106.8609447671506
 20
219.4419911091544
 30
0.0
 10
105.933295638669
 20
219.1201358371418
 30
0.0
 10
105.0675417336012
 20
218.7214218090393
 30
0.0
 10
104.2775844292777
 20
218.2468680089472
 30
0.0
 10
103.5794048715072
 20
217.6990330634075
 30
0.0
 10
102.9912108227918
 20
217.0850248662264
 30
0.0
 10
102.5283542217013
 20
216.4151801531671
 30
0.0
 10
102.2083387305268
 20
215.7147871550375
 30
0.0
 10
102.0287356231703
 20
215.0311790945321
 30
0.0
 10
102.0168501907246
 20
214.6307760202562
 30
0.0
 10
102.0129341112959
 20
214.4278218999521
 30
0.0
  0
ARC
  5
52F
330
341
100
AcDbEntity
  8
3-1MA
  6
Continuous
 62
     7
100
AcDbCircle
 10
139.7683004133
 20
188.3800115566
 30
0.0
 40
6.438157470037927
100
AcDbArc
 50
322.6893387499
 51
347.0248093414
  0
ARC
  5
530
330
341
100
AcDbEntity
  8
3-1MA
  6
Continuous
 62
     7
100
AcDbCircle
 10
133.6251178748
 20
188.453906214
 30
0.0
 40
6.567592956603154
100
AcDbArc
 50
193.5119521375
 51
217.6470369695
  0
LINE
  5
531
330
341
100
AcDbEntity
  8
3-1MA
  6
Continuous
 62
     7
100
AcDbLine
 10
127.1444100949
 20
188.7336738468
 30
0.0
 11
127.1444100949
 21
187.6722282916
 31
0.0
  0
LINE
  5
532
330
341
100
AcDbEntity
  8
3-1MA
  6
Continuous
 62
     7
100
AcDbLine
 10
146.1444100949
 20
187.6722282916
 30
0.0
 11
146.1444100949
 21
188.7336738468
 31
0.0
  0
LINE
  5
533
330
341
100
AcDbEntity
  8
3-1MA
  6
Continuous
 62
     7
100
AcDbLine
 10
143.3619245161
 20
192.6120326062
 30
0.0
 11
143.0083711256
 21
192.8161567514
 31
0.0
  0
LINE
  5
534
330
341
100
AcDbEntity
  8
3-1MA
  6
Continuous
 62
     7
100
AcDbLine
 10
130.2804490642
 20
192.8161567514
 30
0.0
 11
129.9268956736
 21
192.6120326062
 31
0.0
  0
LINE
  5
535
330
341
100
AcDbEntity
  8
3-1MA
  6
Continuous
 62
     7
100
AcDbLine
 10
145.1296914691
 20
35.0162558316
 30
0.0
 11
170.0500016859
 21
49.4040036436
 31
0.0
  0
SPLINE
  5
536
330
341
100
AcDbEntity
  8
3-1MA
  6
Continuous
 62
     7
100
AcDbSpline
210
0.0
220
0.0
230
1.0
 70
     8
 71
     3
 72
    32
 73
    28
 74
     0
 42
0.000000000512136
 43
0.0000000001
 40
0.0
 40
0.0
 40
0.0
 40
0.0
 40
0.0173947248730654
 40
0.0561378158641653
 40
0.0949338031467596
 40
0.1344752964846411
 40
0.175180004956469
 40
0.217071400243121
 40
0.2598268576441244
 40
0.3030055744949392
 40
0.3462305244662762
 40
0.3893495394081993
 40
0.432344490035644
 40
0.4752472126403885
 40
0.5181106965760162
 40
0.5609964707880369
 40
0.6039500663829783
 40
0.6470369214465578
 40
0.69032197138265
 40
0.7338568683794529
 40
0.7776518677087793
 40
0.8215963069240563
 40
0.8652884527509566
 40
0.9081612124334111
 40
0.9496930078828614
 40
0.989782672179095
 40
1.0
 40
1.0
 40
1.0
 40
1.0
 10
156.2620594155513
 20
106.6590195371159
 30
0.0
 10
156.3508026941995
 20
106.6037664715912
 30
0.0
 10
156.595751231969
 20
106.4535174623713
 30
0.0
 10
157.1111940288046
 20
106.2945322187985
 30
0.0
 10
157.7502573378914
 20
106.2048180146419
 30
0.0
 10
158.4276235039963
 20
106.2342916522941
 30
0.0
 10
159.1280153976616
 20
106.378931061424
 30
0.0
 10
159.8470106438286
 20
106.6406643860147
 30
0.0
 10
160.5720959699024
 20
107.017169603205
 30
0.0
 10
161.2889007022545
 20
107.5018018814803
 30
0.0
 10
161.9829249779912
 20
108.0839124796847
 30
0.0
 10
162.6416883217869
 20
108.7510820424603
 30
0.0
 10
163.2548181360374
 20
109.4906852936352
 30
0.0
 10
163.8131705714545
 20
110.289972796949
 30
0.0
 10
164.3083525171084
 20
111.1358999817875
 30
0.0
 10
164.7325731652863
 20
112.0150245470131
 30
0.0
 10
165.0787589013827
 20
112.913743081124
 30
0.0
 10
165.3405594306408
 20
113.8185156930947
 30
0.0
 10
165.5122638114428
 20
114.7161551412506
 30
0.0
 10
165.5885427003409
 20
115.5937037518599
 30
0.0
 10
165.5642848143861
 20
116.4377153462314
 30
0.0
 10
165.4349508233421
 20
117.2332103833937
 30
0.0
 10
165.1984609978961
 20
117.9610886552546
 30
0.0
 10
164.8574121221336
 20
118.6062590526699
 30
0.0
 10
164.4231646562905
 20
119.1344808421992
 30
0.0
 10
164.0307907266418
 20
119.4822435912131
 30
0.0
 10
163.7997430565144
 20
119.598687041542
 30
0.0
 10
163.7448064516803
 20
119.6261003904012
 30
0.0
  0
SPLINE
  5
537
330
341
100
AcDbEntity
  8
3-1MA
  6
Continuous
 62
     7
100
AcDbSpline
210
0.0
220
0.0
230
1.0
 70
     8
 71
     3
 72
    12
 73
     8
 74
     0
 42
0.0000000048672979
 43
0.0000000001
 40
0.0
 40
0.0
 40
0.0
 40
0.0
 40
0.1069326168341207
 40
0.3423507158169224
 40
0.5928432325794926
 40
0.8356058673543343
 40
1.0
 40
1.0
 40
1.0
 40
1.0
 10
157.5830624503079
 20
108.8260894449321
 30
0.0
 10
157.5363173861237
 20
108.8640715199526
 30
0.0
 10
157.409537498683
 20
108.9693851257204
 30
0.0
 10
157.2211980796377
 20
109.2768231335529
 30
0.0
 10
157.0487767971831
 20
109.7220393007671
 30
0.0
 10
156.9570022731128
 20
110.2294883163083
 30
0.0
 10
156.9470510979417
 20
110.550986313675
 30
0.0
 10
156.9433999681
 20
110.7051133989964
 30
0.0
  0
SPLINE
  5
538
330
341
100
AcDbEntity
  8
3-1MA
  6
Continuous
 62
     7
100
AcDbSpline
210
0.0
220
0.0
230
1.0
 70
     8
 71
     3
 72
     8
 73
     4
 74
     0
 42
0.0000000320738047
 43
0.0000000001
 40
0.0
 40
0.0
 40
0.0
 40
0.0
 40
1.0
 40
1.0
 40
1.0
 40
1.0
 10
157.8207210431852
 20
108.6349497305419
 30
0.0
 10
157.7827834902546
 20
108.6398261903172
 30
0.0
 10
157.7035639592956
 20
108.7035394284473
 30
0.0
 10
157.5830624503079
 20
108.8260894449321
 30
0.0
  0
SPLINE
  5
539
330
341
100
AcDbEntity
  8
3-1MA
  6
Continuous
 62
     7
100
AcDbSpline
210
0.0
220
0.0
230
1.0
 70
     8
 71
     3
 72
    23
 73
    19
 74
     0
 42
0.0000000010061209
 43
0.0000000001
 40
0.0
 40
0.0
 40
0.0
 40
0.0
 40
0.0340234280189389
 40
0.0993658767430334
 40
0.1649481093414218
 40
0.2307469694602095
 40
0.296718308974386
 40
0.3627869646130302
 40
0.4288678040373723
 40
0.4948461922994949
 40
0.5606304075503932
 40
0.6261379155697714
 40
0.6913132227686433
 40
0.7561814418491904
 40
0.8209440359863925
 40
0.8860141932489448
 40
0.9525122163221074
 40
1.0
 40
1.0
 40
1.0
 40
1.0
 10
156.9433999681
 20
110.7051133989964
 30
0.0
 10
156.9454462177073
 20
110.8256085124627
 30
0.0
 10
156.9524707892207
 20
111.12605550978
 30
0.0
 10
157.0271122956409
 20
111.7120344116156
 30
0.0
 10
157.1964287572679
 20
112.4196592859361
 30
0.0
 10
157.4482698877021
 20
113.1484517851807
 30
0.0
 10
157.7757968629863
 20
113.871092315362
 30
0.0
 10
158.1713044667078
 20
114.5703581624247
 30
0.0
 10
158.6242916191347
 20
115.2269113571464
 30
0.0
 10
159.1223228484194
 20
115.8234231131423
 30
0.0
 10
159.6512072583632
 20
116.3442787812034
 30
0.0
 10
160.1954151188559
 20
116.7764631149402
 30
0.0
 10
160.7386236566269
 20
117.1101670013888
 30
0.0
 10
161.2637907758557
 20
117.339273430892
 30
0.0
 10
161.7562692320041
 20
117.4629082764864
 30
0.0
 10
162.1981568396289
 20
117.4822292574716
 30
0.0
 10
162.5595668724154
 20
117.4196005088498
 30
0.0
 10
162.7314936668265
 20
117.3245775623408
 30
0.0
 10
162.8148355165693
 20
117.2765644354068
 30
0.0
  0
LINE
  5
53A
330
341
100
AcDbEntity
  8
3-1MA
  6
Continuous
 62
     7
100
AcDbLine
 10
188.3590420655
 20
73.1204531274
 30
0.0
 11
188.3329957652
 21
73.1354909659
 31
0.0
  0
LINE
  5
53B
330
341
100
AcDbEntity
  8
3-1MA
  6
Continuous
 62
     7
100
AcDbLine
 10
183.3329957652
 20
64.4752369281
 30
0.0
 11
183.3590420655
 21
64.4601990896
 31
0.0
  0
SPLINE
  5
53C
330
341
100
AcDbEntity
  8
3-1MA
  6
Continuous
 62
     7
100
AcDbSpline
210
0.0
220
0.0
230
1.0
 70
     8
 71
     3
 72
    28
 73
    24
 74
     0
 42
0.0000000007551619
 43
0.0000000001
 40
0.0114088021811831
 40
0.0114088021811831
 40
0.0114088021811831
 40
0.0114088021811831
 40
0.0217911187656824
 40
0.0687198178897916
 40
0.1155777656396801
 40
0.1634070649560405
 40
0.2127120001479587
 40
0.2632183223578546
 40
0.3143029772907615
 40
0.3654376558741183
 40
0.4164516215139193
 40
0.4673503160479803
 40
0.5181926951450503
 40
0.5690561708957126
 40
0.6200016678319743
 40
0.671112626108186
 40
0.7224718749293576
 40
0.7741297408940345
 40
0.8260207075996977
 40
0.8776342731301765
 40
0.9281521304610694
 40
0.9769158027972259
 40
0.9941019049102023
 40
0.9941019049102023
 40
0.9941019049102023
 40
0.9941019049102023
 10
183.3643500978134
 20
64.46580744363985
 30
0.0
 10
183.3944765751518
 20
64.4450844533201
 30
0.0
 10
183.5587139065081
 20
64.33932618280899
 30
0.0
 10
183.9309173633663
 20
64.2195994991323
 30
0.0
 10
184.4462288816338
 20
64.16279171461409
 30
0.0
 10
184.9976551784956
 20
64.22456845501704
 30
0.0
 10
185.5692659285012
 20
64.40031015374048
 30
0.0
 10
186.1527173755564
 20
64.69015258650599
 30
0.0
 10
186.7312484961064
 20
65.08737500377684
 30
0.0
 10
187.2881249503392
 20
65.58019393259565
 30
0.0
 10
187.808319684849
 20
66.15386885377006
 30
0.0
 10
188.2792773467334
 20
66.79292642734791
 30
0.0
 10
188.6899389767308
 20
67.48126882653493
 30
0.0
 10
189.0304061236319
 20
68.20208170198983
 30
0.0
 10
189.292066186985
 20
68.93817460536484
 30
0.0
 10
189.4676415748927
 20
69.67243011685805
 30
0.0
 10
189.5510741880146
 20
70.3881433961826
 30
0.0
 10
189.5371623400138
 20
71.06918114592281
 30
0.0
 10
189.4217980832016
 20
71.69712997999483
 30
0.0
 10
189.203127340094
 20
72.25523231899925
 30
0.0
 10
188.8873081873996
 20
72.71139405206037
 30
0.0
 10
188.5668313556841
 20
73.00912504428926
 30
0.0
 10
188.366532920636
 20
73.10794222035481
 30
0.0
 10
188.308779191551
 20
73.13449356216339
 30
0.0
  0
LINE
  5
53D
330
341
100
AcDbEntity
  8
3-1MA
  6
Continuous
 62
     7
100
AcDbLine
 10
53.7119065693
 20
133.478416438
 30
0.0
 11
50.8834794445
 21
131.8454232762
 31
0.0
  0
LINE
  5
53E
330
341
100
AcDbEntity
  8
3-1MA
  6
Continuous
 62
     7
100
AcDbLine
 10
90.8834794445
 20
62.5633909734
 30
0.0
 11
93.7119065693
 21
64.1963841353
 31
0.0
  0
LINE
  5
53F
330
341
100
AcDbEntity
  8
3-1MA
  6
Continuous
 62
     7
100
AcDbLine
 10
97.6372420392
 20
79.1163127172
 30
0.0
 11
97.7786633955
 21
79.1979623753
 31
0.0
  0
LINE
  5
540
330
341
100
AcDbEntity
  8
3-1MA
  6
Continuous
 62
     7
100
AcDbLine
 10
92.7786633955
 20
87.8582164132
 30
0.0
 11
92.6372420392
 21
87.7765667551
 31
0.0
  0
LINE
  5
541
330
341
100
AcDbEntity
  8
3-1MA
  6
Continuous
 62
     7
100
AcDbLine
 10
65.3360418635
 20
111.3221006198
 30
0.0
 11
63.2420580883
 21
110.1131385235
 31
0.0
  0
LINE
  5
542
330
341
100
AcDbEntity
  8
3-1MA
  6
Continuous
 62
     7
100
AcDbLine
 10
78.2420580883
 20
84.1323764099
 30
0.0
 11
80.3360418635
 21
85.3413385062
 31
0.0
  0
LINE
  5
543
330
341
100
AcDbEntity
  8
3-1MA
  6
Continuous
 62
     7
100
AcDbLine
 10
60.1354563705
 20
103.2464818237
 30
0.0
 11
60.1354563705
 21
102.5932845589
 31
0.0
  0
LINE
  5
544
330
341
100
AcDbEntity
  8
3-1MA
  6
Continuous
 62
     7
100
AcDbLine
 10
70.1763726633
 20
85.2019073852
 30
0.0
 11
70.7420580883
 21
84.8753087528
 31
0.0
  0
ARC
  5
545
330
341
100
AcDbEntity
  8
3-1MA
  6
Continuous
 62
     7
100
AcDbCircle
 10
40.3808698665
 20
165.1818563368
 30
0.0
 40
6.542034675563731
100
AcDbArc
 50
313.095635046
 51
337.9957834881
  0
ARC
  5
546
330
341
100
AcDbEntity
  8
3-1MA
  6
Continuous
 62
     7
100
AcDbCircle
 10
37.3355861212
 20
170.5254510165
 30
0.0
 40
6.448227682074442
100
AcDbArc
 50
104.3620228967
 51
107.099570995
  0
LINE
  5
547
330
341
100
AcDbEntity
  8
3-1MA
  6
Continuous
 62
     7
100
AcDbLine
 10
43.3469449247
 20
159.4233394815
 30
0.0
 11
44.2661837402
 21
159.9540622591
 31
0.0
  0
LINE
  5
548
330
341
100
AcDbEntity
  8
3-1MA
  6
Continuous
 62
     7
100
AcDbLine
 10
34.7661837402
 20
176.408544931
 30
0.0
 11
33.8469449247
 21
175.8778221534
 31
0.0
  0
LINE
  5
549
330
341
100
AcDbEntity
  8
3-1MA
  6
Continuous
 62
     7
100
AcDbLine
 10
31.8794305034
 20
171.5289395769
 30
0.0
 11
31.8794305034
 21
171.1206912864
 31
0.0
  0
LINE
  5
54A
330
341
100
AcDbEntity
  8
3-1MA
  6
Continuous
 62
     7
100
AcDbLine
 10
38.2433915341
 20
160.0979874439
 30
0.0
 11
38.5969449247
 21
159.8938632986
 31
0.0
  0
LINE
  5
54B
330
341
100
AcDbEntity
  8
3-1MA
  6
Continuous
 62
     7
100
AcDbLine
 10
90.5956114789
 20
102.8117091692
 30
0.0
 11
90.7370328351
 21
102.8933588273
 31
0.0
  0
LINE
  5
54C
330
341
100
AcDbEntity
  8
3-1MA
  6
Continuous
 62
     7
100
AcDbLine
 10
85.7370328351
 20
111.5536128652
 30
0.0
 11
85.5956114789
 21
111.4719632071
 31
0.0
  0
LINE
  5
54D
330
341
100
AcDbEntity
  8
3-1MA
  6
Continuous
 62
     7
100
AcDbLine
 10
73.5956114789
 20
120.7576383446
 30
0.0
 11
73.7370328351
 21
120.8392880026
 31
0.0
  0
LINE
  5
54E
330
341
100
AcDbEntity
  8
3-1MA
  6
Continuous
 62
     7
100
AcDbLine
 10
68.7370328351
 20
129.4995420405
 30
0.0
 11
68.5956114789
 21
129.4178923824
 31
0.0
  0
LINE
  5
54F
330
341
100
AcDbEntity
  8
3-1MA
  6
Continuous
 62
     7
100
AcDbLine
 10
56.5956114789
 20
122.4416183217
 30
0.0
 11
56.7370328351
 21
122.5232679798
 31
0.0
  0
LINE
  5
550
330
341
100
AcDbEntity
  8
3-1MA
  6
Continuous
 62
     7
100
AcDbLine
 10
51.7370328351
 20
131.1835220176
 30
0.0
 11
51.5956114789
 21
131.1018723595
 31
0.0
  0
LINE
  5
551
330
341
100
AcDbEntity
  8
3-1MA
  6
Continuous
 62
     7
100
AcDbLine
 10
49.5539809185
 20
106.8771964688
 30
0.0
 11
49.6954022748
 21
106.9588461269
 31
0.0
  0
LINE
  5
552
330
341
100
AcDbEntity
  8
3-1MA
  6
Continuous
 62
     7
100
AcDbLine
 10
44.6954022748
 20
115.6191001647
 30
0.0
 11
44.5539809185
 21
115.5374505066
 31
0.0
  0
LINE
  5
553
330
341
100
AcDbEntity
  8
3-1MA
  6
Continuous
 62
     7
100
AcDbLine
 10
56.5956114789
 20
83.1818000168
 30
0.0
 11
56.7370328351
 21
83.2634496749
 31
0.0
  0
LINE
  5
554
330
341
100
AcDbEntity
  8
3-1MA
  6
Continuous
 62
     7
100
AcDbLine
 10
51.7370328351
 20
91.9237037127
 30
0.0
 11
51.5956114789
 21
91.8420540546
 31
0.0
  0
LINE
  5
555
330
341
100
AcDbEntity
  8
3-1MA
  6
Continuous
 62
     7
100
AcDbLine
 10
73.5956114789
 20
65.2358708415
 30
0.0
 11
73.7370328351
 21
65.3175204996
 31
0.0
  0
LINE
  5
556
330
341
100
AcDbEntity
  8
3-1MA
  6
Continuous
 62
     7
100
AcDbLine
 10
68.7370328351
 20
73.9777745374
 30
0.0
 11
68.5956114789
 21
73.8961248793
 31
0.0
  0
LINE
  5
557
330
341
100
AcDbEntity
  8
3-1MA
  6
Continuous
 62
     7
100
AcDbLine
 10
90.5956114789
 20
63.5518908643
 30
0.0
 11
90.7370328351
 21
63.6335405224
 31
0.0
  0
LINE
  5
558
330
341
100
AcDbEntity
  8
3-1MA
  6
Continuous
 62
     7
100
AcDbLine
 10
85.7370328351
 20
72.2937945603
 30
0.0
 11
85.5956114789
 21
72.2121449022
 31
0.0
  0
LINE
  5
559
330
341
100
AcDbEntity
  8
3-1MA
  6
Continuous
 62
     7
100
AcDbLine
 10
188.3590420655
 20
185.7969812955
 30
0.0
 11
188.3329957652
 21
185.8120191339
 31
0.0
  0
LINE
  5
55A
330
341
100
AcDbEntity
  8
3-1MA
  6
Continuous
 62
     7
100
AcDbLine
 10
183.3329957652
 20
177.1517650961
 30
0.0
 11
183.3590420655
 21
177.1367272576
 31
0.0
  0
SPLINE
  5
55B
330
341
100
AcDbEntity
  8
3-1MA
  6
Continuous
 62
     7
100
AcDbSpline
210
0.0
220
0.0
230
1.0
 70
     8
 71
     3
 72
    28
 73
    24
 74
     0
 42
0.0000000007551619
 43
0.0000000001
 40
0.0114088021811845
 40
0.0114088021811845
 40
0.0114088021811845
 40
0.0114088021811845
 40
0.0217911187656852
 40
0.0687198178897935
 40
0.1155777656396728
 40
0.1634070649560254
 40
0.2127120001479233
 40
0.2632183223578231
 40
0.3143029772906989
 40
0.3654376558740699
 40
0.4164516215138745
 40
0.4673503160479228
 40
0.5181926951450069
 40
0.569056170895662
 40
0.6200016678319217
 40
0.6711126261081298
 40
0.7224718749293206
 40
0.7741297408939782
 40
0.8260207075996473
 40
0.8776342731301218
 40
0.9281521304610265
 40
0.9769158027971995
 40
0.9941019049102042
 40
0.9941019049102042
 40
0.9941019049102042
 40
0.9941019049102042
 10
183.3643500978134
 20
177.1423356116722
 30
0.0
 10
183.3944765751519
 20
177.1216126213525
 30
0.0
 10
183.5587139065083
 20
177.0158543508414
 30
0.0
 10
183.9309173633665
 20
176.8961276671645
 30
0.0
 10
184.4462288816337
 20
176.8393198826466
 30
0.0
 10
184.9976551784954
 20
176.9010966230494
 30
0.0
 10
185.5692659285008
 20
177.0768383217726
 30
0.0
 10
186.152717375556
 20
177.3666807545381
 30
0.0
 10
186.7312484961061
 20
177.7639031718089
 30
0.0
 10
187.2881249503387
 20
178.2567221006273
 30
0.0
 10
187.8083196848487
 20
178.830397021802
 30
0.0
 10
188.2792773467328
 20
179.4694545953798
 30
0.0
 10
188.6899389767306
 20
180.1577969945663
 30
0.0
 10
189.0304061236316
 20
180.8786098700218
 30
0.0
 10
189.2920661869849
 20
181.6147027733962
 30
0.0
 10
189.4676415748926
 20
182.3489582848898
 30
0.0
 10
189.5510741880145
 20
183.0646715642143
 30
0.0
 10
189.5371623400141
 20
183.7457093139542
 30
0.0
 10
189.4217980832019
 20
184.3736581480268
 30
0.0
 10
189.2031273400943
 20
184.9317604870309
 30
0.0
 10
188.8873081874001
 20
185.3879222200923
 30
0.0
 10
188.5668313556844
 20
185.6856532123215
 30
0.0
 10
188.3665329206361
 20
185.7844703883871
 30
0.0
 10
188.308779191551
 20
185.8110217301958
 30
0.0
  0
LINE
  5
55C
330
341
100
AcDbEntity
  8
3-1MA
  6
Continuous
 62
     7
100
AcDbLine
 10
131.0833927893
 20
40.0523415999
 30
0.0
 11
131.0573464891
 21
40.0673794383
 31
0.0
  0
LINE
  5
55D
330
341
100
AcDbEntity
  8
3-1MA
  6
Continuous
 62
     7
100
AcDbLine
 10
126.0573464891
 20
31.4071254005
 30
0.0
 11
126.0833927893
 21
31.392087562
 31
0.0
  0
SPLINE
  5
55E
330
341
100
AcDbEntity
  8
3-1MA
  6
Continuous
 62
     7
100
AcDbSpline
210
0.0
220
0.0
230
1.0
 70
     8
 71
     3
 72
    28
 73
    24
 74
     0
 42
0.0000000007551619
 43
0.0000000001
 40
0.0114088021811692
 40
0.0114088021811692
 40
0.0114088021811692
 40
0.0114088021811692
 40
0.0217911187656619
 40
0.0687198178897774
 40
0.1155777656396549
 40
0.1634070649559853
 40
0.2127120001479221
 40
0.2632183223578345
 40
0.3143029772906876
 40
0.365437655874039
 40
0.4164516215138563
 40
0.467350316047892
 40
0.5181926951449699
 40
0.5690561708956472
 40
0.6200016678319032
 40
0.6711126261081055
 40
0.7224718749292868
 40
0.7741297408939639
 40
0.8260207075996431
 40
0.8776342731301109
 40
0.9281521304610175
 40
0.9769158027971829
 40
0.9941019049102072
 40
0.9941019049102072
 40
0.9941019049102072
 40
0.9941019049102072
 10
126.0887008217021
 20
31.39769591607047
 30
0.0
 10
126.1188272990405
 20
31.37697292575073
 30
0.0
 10
126.2830646303969
 20
31.27121465523956
 30
0.0
 10
126.655268087255
 20
31.15148797156258
 30
0.0
 10
127.1705796055222
 20
31.09468018704481
 30
0.0
 10
127.7220059023841
 20
31.15645692744706
 30
0.0
 10
128.2936166523897
 20
31.33219862617032
 30
0.0
 10
128.8770680994447
 20
31.62204105893607
 30
0.0
 10
129.4555992199948
 20
32.0192634762066
 30
0.0
 10
130.0124756742272
 20
32.51208240502551
 30
0.0
 10
130.5326704087373
 20
33.08575732619934
 30
0.0
 10
131.0036280706213
 20
33.72481489977774
 30
0.0
 10
131.4142897006191
 20
34.41315729896388
 30
0.0
 10
131.7547568475202
 20
35.13397017441944
 30
0.0
 10
132.0164169108738
 20
35.87006307779372
 30
0.0
 10
132.1919922987812
 20
36.60431858928747
 30
0.0
 10
132.2754249119035
 20
37.32003186861155
 30
0.0
 10
132.2615130639028
 20
38.00106961835242
 30
0.0
 10
132.1461488070908
 20
38.62901845242456
 30
0.0
 10
131.9274780639832
 20
39.18712079142905
 30
0.0
 10
131.6116589112892
 20
39.64328252448995
 30
0.0
 10
131.2911820795734
 20
39.94101351671952
 30
0.0
 10
131.0908836445251
 20
40.03983069278513
 30
0.0
 10
131.03312991544
 20
40.06638203459379
 30
0.0
  0
LINE
  5
55F
330
341
100
AcDbEntity
  8
3-1MA
  6
Continuous
 62
     7
100
AcDbLine
 10
131.0833927893
 20
152.7288697679
 30
0.0
 11
131.0573464891
 21
152.7439076064
 31
0.0
  0
LINE
  5
560
330
341
100
AcDbEntity
  8
3-1MA
  6
Continuous
 62
     7
100
AcDbLine
 10
126.0573464891
 20
144.0836535685
 30
0.0
 11
126.0833927893
 21
144.06861573
 31
0.0
  0
SPLINE
  5
561
330
341
100
AcDbEntity
  8
3-1MA
  6
Continuous
 62
     7
100
AcDbSpline
210
0.0
220
0.0
230
1.0
 70
     8
 71
     3
 72
    28
 73
    24
 74
     0
 42
0.0000000007551619
 43
0.0000000001
 40
0.011408802181175
 40
0.011408802181175
 40
0.011408802181175
 40
0.011408802181175
 40
0.0217911187656755
 40
0.0687198178897943
 40
0.1155777656396862
 40
0.1634070649560384
 40
0.2127120001479369
 40
0.263218322357849
 40
0.3143029772907144
 40
0.3654376558740786
 40
0.4164516215138849
 40
0.4673503160479219
 40
0.518192695145008
 40
0.569056170895655
 40
0.6200016678319098
 40
0.6711126261081152
 40
0.7224718749292962
 40
0.77412974089397
 40
0.8260207075996496
 40
0.8776342731301258
 40
0.9281521304610241
 40
0.9769158027971936
 40
0.9941019049102037
 40
0.9941019049102037
 40
0.9941019049102037
 40
0.9941019049102037
 10
126.0887008217022
 20
144.0742240841027
 30
0.0
 10
126.1188272990406
 20
144.053501093783
 30
0.0
 10
126.2830646303971
 20
143.9477428232718
 30
0.0
 10
126.6552680872553
 20
143.828016139595
 30
0.0
 10
127.1705796055227
 20
143.771208355077
 30
0.0
 10
127.7220059023844
 20
143.8329850954798
 30
0.0
 10
128.29361665239
 20
144.0087267942031
 30
0.0
 10
128.877068099445
 20
144.2985692269686
 30
0.0
 10
129.455599219995
 20
144.6957916442396
 30
0.0
 10
130.0124756742277
 20
145.1886105730579
 30
0.0
 10
130.5326704087376
 20
145.7622854942324
 30
0.0
 10
131.0036280706218
 20
146.4013430678103
 30
0.0
 10
131.4142897006193
 20
147.0896854669967
 30
0.0
 10
131.7547568475205
 20
147.8104983424521
 30
0.0
 10
132.0164169108737
 20
148.5465912458264
 30
0.0
 10
132.1919922987814
 20
149.2808467573198
 30
0.0
 10
132.2754249119034
 20
149.9965600366445
 30
0.0
 10
132.261513063903
 20
150.6775977863845
 30
0.0
 10
132.1461488070907
 20
151.3055466204572
 30
0.0
 10
131.927478063983
 20
151.8636489594614
 30
0.0
 10
131.611658911289
 20
152.3198106925227
 30
0.0
 10
131.2911820795733
 20
152.6175416847519
 30
0.0
 10
131.0908836445251
 20
152.7163588608176
 30
0.0
 10
131.03312991544
 20
152.7429102026262
 30
0.0
  0
SPLINE
  5
562
330
341
100
AcDbEntity
  8
3-1MA
  6
Continuous
 62
     7
100
AcDbSpline
210
0.0
220
0.0
230
1.0
 70
     8
 71
     3
 72
    28
 73
    24
 74
     0
 42
0.0000000007551619
 43
0.0000000001
 40
0.0114088021811862
 40
0.0114088021811862
 40
0.0114088021811862
 40
0.0114088021811862
 40
0.0217911187656823
 40
0.0687198178897993
 40
0.1155777656396795
 40
0.1634070649560316
 40
0.2127120001479404
 40
0.2632183223578731
 40
0.3143029772907475
 40
0.365437655874117
 40
0.4164516215139304
 40
0.467350316047964
 40
0.518192695145035
 40
0.5690561708957069
 40
0.6200016678319524
 40
0.6711126261081595
 40
0.7224718749293666
 40
0.7741297408940306
 40
0.8260207075997044
 40
0.8776342731301815
 40
0.9281521304610783
 40
0.9769158027972327
 40
0.9941019049102002
 40
0.9941019049102002
 40
0.9941019049102002
 40
0.9941019049102002
 10
183.3643500978134
 20
100.3916570044619
 30
0.0
 10
183.3944765751518
 20
100.3709340141422
 30
0.0
 10
183.5587139065082
 20
100.2651757436312
 30
0.0
 10
183.9309173633664
 20
100.1454490599542
 30
0.0
 10
184.4462288816337
 20
100.0886412754363
 30
0.0
 10
184.9976551784954
 20
100.1504180158392
 30
0.0
 10
185.5692659285012
 20
100.3261597145622
 30
0.0
 10
186.1527173755564
 20
100.6160021473278
 30
0.0
 10
186.7312484961066
 20
101.013224564599
 30
0.0
 10
187.2881249503392
 20
101.5060434934176
 30
0.0
 10
187.808319684849
 20
102.0797184145923
 30
0.0
 10
188.2792773467333
 20
102.71877598817
 30
0.0
 10
188.6899389767308
 20
103.4071183873567
 30
0.0
 10
189.0304061236316
 20
104.1279312628121
 30
0.0
 10
189.2920661869851
 20
104.8640241661863
 30
0.0
 10
189.4676415748926
 20
105.5982796776801
 30
0.0
 10
189.5510741880145
 20
106.3139929570046
 30
0.0
 10
189.5371623400138
 20
106.9950307067447
 30
0.0
 10
189.4217980832016
 20
107.6229795408172
 30
0.0
 10
189.2031273400939
 20
108.1810818798213
 30
0.0
 10
188.8873081873997
 20
108.6372436128824
 30
0.0
 10
188.566831355684
 20
108.9349746051114
 30
0.0
 10
188.366532920636
 20
109.0337917811769
 30
0.0
 10
188.308779191551
 20
109.0603431229854
 30
0.0
  0
LINE
  5
563
330
341
100
AcDbEntity
  8
3-1MA
  6
Continuous
 62
     7
100
AcDbLine
 10
188.3590420655
 20
109.0463026882
 30
0.0
 11
188.3329957652
 21
109.0613405267
 31
0.0
  0
LINE
  5
564
330
341
100
AcDbEntity
  8
3-1MA
  6
Continuous
 62
     7
100
AcDbLine
 10
183.3329957652
 20
100.4010864889
 30
0.0
 11
183.3590420655
 21
100.3860486504
 31
0.0
  0
LINE
  5
565
330
341
100
AcDbEntity
  8
3-1MA
  6
Continuous
 62
     7
100
AcDbLine
 10
188.3590420655
 20
149.8711317346
 30
0.0
 11
188.3329957652
 21
149.8861695731
 31
0.0
  0
LINE
  5
566
330
341
100
AcDbEntity
  8
3-1MA
  6
Continuous
 62
     7
100
AcDbLine
 10
183.3329957652
 20
141.2259155353
 30
0.0
 11
183.3590420655
 21
141.2108776968
 31
0.0
  0
SPLINE
  5
567
330
341
100
AcDbEntity
  8
3-1MA
  6
Continuous
 62
     7
100
AcDbSpline
210
0.0
220
0.0
230
1.0
 70
     8
 71
     3
 72
    28
 73
    24
 74
     0
 42
0.0000000007551619
 43
0.0000000001
 40
0.0114088021811862
 40
0.0114088021811862
 40
0.0114088021811862
 40
0.0114088021811862
 40
0.0217911187656865
 40
0.0687198178897946
 40
0.1155777656396738
 40
0.1634070649560263
 40
0.212712000147924
 40
0.2632183223578236
 40
0.3143029772906994
 40
0.3654376558740702
 40
0.4164516215138747
 40
0.4673503160479228
 40
0.5181926951450069
 40
0.5690561708956619
 40
0.6200016678319213
 40
0.6711126261081293
 40
0.72247187492932
 40
0.7741297408939775
 40
0.8260207075996464
 40
0.8776342731301208
 40
0.9281521304610254
 40
0.9769158027971983
 40
0.9941019049102016
 40
0.9941019049102016
 40
0.9941019049102016
 40
0.9941019049102016
 10
183.3643500978134
 20
141.2164860508502
 30
0.0
 10
183.3944765751519
 20
141.1957630605305
 30
0.0
 10
183.5587139065082
 20
141.0900047900194
 30
0.0
 10
183.9309173633664
 20
140.9702781063425
 30
0.0
 10
184.4462288816334
 20
140.9134703218246
 30
0.0
 10
184.9976551784956
 20
140.9752470622273
 30
0.0
 10
185.5692659285008
 20
141.1509887609507
 30
0.0
 10
186.1527173755561
 20
141.4408311937158
 30
0.0
 10
186.731248496106
 20
141.8380536109871
 30
0.0
 10
187.2881249503387
 20
142.3308725398054
 30
0.0
 10
187.8083196848486
 20
142.9045474609799
 30
0.0
 10
188.2792773467329
 20
143.5436050345579
 30
0.0
 10
188.6899389767304
 20
144.2319474337444
 30
0.0
 10
189.0304061236316
 20
144.9527603091998
 30
0.0
 10
189.2920661869848
 20
145.6888532125743
 30
0.0
 10
189.4676415748926
 20
146.4231087240677
 30
0.0
 10
189.5510741880144
 20
147.1388220033923
 30
0.0
 10
189.5371623400141
 20
147.8198597531324
 30
0.0
 10
189.4217980832018
 20
148.4478085872047
 30
0.0
 10
189.2031273400944
 20
149.005910926209
 30
0.0
 10
188.8873081873999
 20
149.4620726592703
 30
0.0
 10
188.5668313556843
 20
149.7598036514995
 30
0.0
 10
188.3665329206361
 20
149.8586208275651
 30
0.0
 10
188.308779191551
 20
149.8851721693738
 30
0.0
  0
LINE
  5
568
330
341
100
AcDbEntity
  8
3-1MA
  6
Continuous
 62
     7
100
AcDbLine
 10
131.0833927893
 20
75.9781911607
 30
0.0
 11
131.0573464891
 21
75.9932289992
 31
0.0
  0
LINE
  5
569
330
341
100
AcDbEntity
  8
3-1MA
  6
Continuous
 62
     7
100
AcDbLine
 10
126.0573464891
 20
67.3329749613
 30
0.0
 11
126.0833927893
 21
67.3179371228
 31
0.0
  0
SPLINE
  5
56A
330
341
100
AcDbEntity
  8
3-1MA
  6
Continuous
 62
     7
100
AcDbSpline
210
0.0
220
0.0
230
1.0
 70
     8
 71
     3
 72
    28
 73
    24
 74
     0
 42
0.0000000007551619
 43
0.0000000001
 40
0.0114088021811842
 40
0.0114088021811842
 40
0.0114088021811842
 40
0.0114088021811842
 40
0.0217911187656778
 40
0.0687198178898039
 40
0.1155777656396896
 40
0.1634070649560299
 40
0.2127120001479514
 40
0.2632183223578505
 40
0.3143029772907367
 40
0.3654376558741196
 40
0.4164516215139207
 40
0.4673503160479843
 40
0.5181926951450715
 40
0.5690561708957046
 40
0.6200016678319399
 40
0.671112626108147
 40
0.7224718749293285
 40
0.7741297408940019
 40
0.8260207075996823
 40
0.8776342731301544
 40
0.9281521304610516
 40
0.9769158027972191
 40
0.9941019049102021
 40
0.9941019049102021
 40
0.9941019049102021
 40
0.9941019049102021
 10
126.0887008217023
 20
67.32354547689242
 30
0.0
 10
126.1188272990407
 20
67.30282248657268
 30
0.0
 10
126.2830646303971
 20
67.19706421606165
 30
0.0
 10
126.6552680872553
 20
67.07733753238473
 30
0.0
 10
127.1705796055226
 20
67.0205297478667
 30
0.0
 10
127.7220059023845
 20
67.08230648826962
 30
0.0
 10
128.29361665239
 20
67.25804818699262
 30
0.0
 10
128.8770680994451
 20
67.54789061975855
 30
0.0
 10
129.4555992199953
 20
67.94511303702907
 30
0.0
 10
130.0124756742281
 20
68.43793196584829
 30
0.0
 10
130.532670408738
 20
69.01160688702262
 30
0.0
 10
131.0036280706223
 20
69.65066446060084
 30
0.0
 10
131.4142897006197
 20
70.33900685978736
 30
0.0
 10
131.7547568475208
 20
71.05981973524234
 30
0.0
 10
132.0164169108739
 20
71.79591263861678
 30
0.0
 10
132.1919922987814
 20
72.53016815010999
 30
0.0
 10
132.2754249119035
 20
73.24588142943472
 30
0.0
 10
132.2615130639029
 20
73.92691917917476
 30
0.0
 10
132.1461488070908
 20
74.55486801324709
 30
0.0
 10
131.9274780639828
 20
75.11297035225171
 30
0.0
 10
131.6116589112889
 20
75.56913208531252
 30
0.0
 10
131.2911820795731
 20
75.86686307754168
 30
0.0
 10
131.090883644525
 20
75.96568025360732
 30
0.0
 10
131.0331299154399
 20
75.9922315954159
 30
0.0
  0
LINE
  5
56B
330
341
100
AcDbEntity
  8
3-1MA
  6
Continuous
 62
     7
100
AcDbLine
 10
131.0833927893
 20
116.8030202071
 30
0.0
 11
131.0573464891
 21
116.8180580456
 31
0.0
  0
LINE
  5
56C
330
341
100
AcDbEntity
  8
3-1MA
  6
Continuous
 62
     7
100
AcDbLine
 10
126.0573464891
 20
108.1578040077
 30
0.0
 11
126.0833927893
 21
108.1427661692
 31
0.0
  0
SPLINE
  5
56D
330
341
100
AcDbEntity
  8
3-1MA
  6
Continuous
 62
     7
100
AcDbSpline
210
0.0
220
0.0
230
1.0
 70
     8
 71
     3
 72
    28
 73
    24
 74
     0
 42
0.0000000007551619
 43
0.0000000001
 40
0.011408802181175
 40
0.011408802181175
 40
0.011408802181175
 40
0.011408802181175
 40
0.0217911187656755
 40
0.0687198178897943
 40
0.1155777656396862
 40
0.1634070649560384
 40
0.2127120001479369
 40
0.263218322357849
 40
0.3143029772907144
 40
0.3654376558740786
 40
0.4164516215138849
 40
0.4673503160479219
 40
0.518192695145008
 40
0.569056170895655
 40
0.6200016678319098
 40
0.6711126261081152
 40
0.7224718749292962
 40
0.77412974089397
 40
0.8260207075996496
 40
0.8776342731301258
 40
0.9281521304610241
 40
0.9769158027971936
 40
0.9941019049102037
 40
0.9941019049102037
 40
0.9941019049102037
 40
0.9941019049102037
 10
126.0887008217022
 20
108.1483745232808
 30
0.0
 10
126.1188272990406
 20
108.127651532961
 30
0.0
 10
126.2830646303971
 20
108.0218932624498
 30
0.0
 10
126.6552680872553
 20
107.902166578773
 30
0.0
 10
127.1705796055227
 20
107.8453587942549
 30
0.0
 10
127.7220059023844
 20
107.9071355346581
 30
0.0
 10
128.29361665239
 20
108.0828772333809
 30
0.0
 10
128.877068099445
 20
108.3727196661467
 30
0.0
 10
129.455599219995
 20
108.7699420834176
 30
0.0
 10
130.0124756742277
 20
109.2627610122358
 30
0.0
 10
130.5326704087375
 20
109.8364359334106
 30
0.0
 10
131.0036280706218
 20
110.4754935069883
 30
0.0
 10
131.4142897006193
 20
111.1638359061747
 30
0.0
 10
131.7547568475205
 20
111.88464878163
 30
0.0
 10
132.0164169108737
 20
112.6207416850043
 30
0.0
 10
132.1919922987814
 20
113.3549971964979
 30
0.0
 10
132.2754249119034
 20
114.0707104758225
 30
0.0
 10
132.261513063903
 20
114.7517482255625
 30
0.0
 10
132.1461488070907
 20
115.3796970596351
 30
0.0
 10
131.9274780639831
 20
115.9377993986395
 30
0.0
 10
131.611658911289
 20
116.3939611317006
 30
0.0
 10
131.2911820795733
 20
116.69169212393
 30
0.0
 10
131.0908836445251
 20
116.7905092999956
 30
0.0
 10
131.03312991544
 20
116.8170606418042
 30
0.0
  0
ENDBLK
  5
56F
330
341
100
AcDbEntity
  8
0
100
AcDbBlockEnd
  0
ENDSEC
  0
SECTION
  2
ENTITIES
  0
INSERT
  5
41
330
1F
100
AcDbEntity
  8
Default
100
AcDbBlockReference
  2
SE
 10
0.0
 20
0.0
 30
0.0
  0
INSERT
  5
101
330
1F
100
AcDbEntity
  8
Default
100
AcDbBlockReference
  2
SE1
 10
0.0
 20
0.0
 30
0.0
  0
INSERT
  5
15E
330
1F
100
AcDbEntity
  8
Default
100
AcDbBlockReference
  2
SE2
 10
0.0
 20
0.0
 30
0.0
  0
INSERT
  5
1CC
330
1F
100
AcDbEntity
  8
Default
100
AcDbBlockReference
  2
SE3
 10
0.0
 20
0.0
 30
0.0
  0
INSERT
  5
232
330
1F
100
AcDbEntity
  8
Default
100
AcDbBlockReference
  2
SE4
 10
0.0
 20
0.0
 30
0.0
  0
INSERT
  5
342
330
1F
100
AcDbEntity
  8
Default
100
AcDbBlockReference
  2
SE5
 10
0.0
 20
0.0
 30
0.0
  0
ENDSEC
  0
SECTION
  2
OBJECTS
  0
DICTIONARY
  5
C
330
0
100
AcDbDictionary
281
     1
  3
ACAD_GROUP
350
D
  3
ACAD_LAYOUT
350
1A
  3
ACAD_MATERIAL
350
3B
  3
ACAD_MLEADERSTYLE
350
572
  3
ACAD_MLINESTYLE
350
17
  3
ACAD_PLOTSETTINGS
350
19
  3
ACAD_PLOTSTYLENAME
350
E
  3
ACAD_VISUALSTYLE
350
2A
  3
AcDbVariableDictionary
350
570
  0
DICTIONARY
  5
D
102
{ACAD_REACTORS
330
C
102
}
330
C
100
AcDbDictionary
281
     1
  0
DICTIONARY
  5
1A
102
{ACAD_REACTORS
330
C
102
}
330
C
100
AcDbDictionary
281
     1
  3
Layout1
350
1E
  3
Model
350
22
  0
DICTIONARY
  5
3B
102
{ACAD_REACTORS
330
C
102
}
330
C
100
AcDbDictionary
281
     1
  3
ByBlock
350
3D
  3
ByLayer
350
3C
  3
Global
350
3E
  0
DICTIONARY
  5
572
102
{ACAD_REACTORS
330
C
102
}
330
C
100
AcDbDictionary
281
     1
  0
DICTIONARY
  5
17
102
{ACAD_REACTORS
330
C
102
}
330
C
100
AcDbDictionary
281
     1
  3
Standard
350
18
  0
DICTIONARY
  5
19
102
{ACAD_REACTORS
330
C
102
}
330
C
100
AcDbDictionary
281
     1
  0
ACDBDICTIONARYWDFLT
  5
E
102
{ACAD_REACTORS
330
C
102
}
330
C
100
AcDbDictionary
281
     1
  3
Normal
350
F
100
AcDbDictionaryWithDefault
340
F
  0
DICTIONARY
  5
2A
102
{ACAD_REACTORS
330
C
102
}
330
C
100
AcDbDictionary
281
     1
  3
2dWireframe
350
2F
  3
3D Hidden
350
31
  3
3dWireframe
350
30
  3
Basic
350
32
  3
Brighten
350
36
  3
ColorChange
350
3A
  3
Conceptual
350
34
  3
Dim
350
35
  3
Facepattern
350
39
  3
Flat
350
2B
  3
FlatWithEdges
350
2C
  3
Gouraud
350
2D
  3
GouraudWithEdges
350
2E
  3
Linepattern
350
38
  3
Realistic
350
33
  3
Thicken
350
37
  0
DICTIONARY
  5
570
102
{ACAD_REACTORS
330
C
102
}
330
C
100
AcDbDictionary
281
     1
  3
DIMASSOC
350
575
  3
HIDETEXT
350
576
  3
PSOLHEIGHT
350
574
  3
PSOLWIDTH
350
573
  0
LAYOUT
  5
1E
102
{ACAD_REACTORS
330
1A
102
}
330
1A
100
AcDbPlotSettings
  1

  2
none_device
  4

  6

 40
0.0
 41
0.0
 42
0.0
 43
0.0
 44
0.0
 45
0.0
 46
0.0
 47
0.0
 48
0.0
 49
0.0
140
0.0
141
0.0
142
1.0
143
1.0
 70
   688
 72
     0
 73
     0
 74
     5
  7

 75
    16
147
1.0
148
0.0
149
0.0
100
AcDbLayout
  1
Layout1
 70
     1
 71
     1
 10
0.0
 20
0.0
 11
841.0
 21
594.0
 12
0.0
 22
0.0
 32
0.0
 14
0.0
 24
0.0
 34
0.0
 15
841.0
 25
594.0
 35
0.0
146
0.0
 13
0.0
 23
0.0
 33
0.0
 16
1.0
 26
0.0
 36
0.0
 17
0.0
 27
1.0
 37
0.0
 76
     0
330
1B
  0
LAYOUT
  5
22
102
{ACAD_REACTORS
330
1A
102
}
330
1A
100
AcDbPlotSettings
  1

  2
none_device
  4

  6

 40
0.0
 41
0.0
 42
0.0
 43
0.0
 44
0.0
 45
0.0
 46
0.0
 47
0.0
 48
0.0
 49
0.0
140
0.0
141
0.0
142
1.0
143
1.0
 70
  1712
 72
     0
 73
     0
 74
     0
  7

 75
     0
147
1.0
148
0.0
149
0.0
100
AcDbLayout
  1
Model
 70
     1
 71
     0
 10
0.0
 20
0.0
 11
841.0
 21
594.0
 12
0.0
 22
0.0
 32
0.0
 14
0.0
 24
0.0
 34
0.0
 15
841.0
 25
594.0
 35
0.0
146
0.0
 13
0.0
 23
0.0
 33
0.0
 16
1.0
 26
0.0
 36
0.0
 17
0.0
 27
1.0
 37
0.0
 76
     0
330
1F
331
29
  0
MATERIAL
  5
3D
102
{ACAD_REACTORS
330
3B
102
}
102
{ACAD_XDICTIONARY
360
599
102
}
330
3B
100
AcDbMaterial
  1
ByBlock
  0
MATERIAL
  5
3C
102
{ACAD_REACTORS
330
3B
102
}
102
{ACAD_XDICTIONARY
360
597
102
}
330
3B
100
AcDbMaterial
  1
ByLayer
  0
MATERIAL
  5
3E
102
{ACAD_REACTORS
330
3B
102
}
102
{ACAD_XDICTIONARY
360
59B
102
}
330
3B
100
AcDbMaterial
  1
Global
  0
MLINESTYLE
  5
18
102
{ACAD_REACTORS
330
17
102
}
330
17
100
AcDbMlineStyle
  2
Standard
 70
     0
  3

 62
   256
 51
90.0
 52
90.0
 71
     2
 49
0.5
 62
   256
  6
BYLAYER
 49
-0.5
 62
   256
  6
BYLAYER
  0
ACDBPLACEHOLDER
  5
F
102
{ACAD_REACTORS
330
E
102
}
330
E
  0
VISUALSTYLE
  5
2F
102
{ACAD_REACTORS
330
2A
102
}
102
{ACAD_XDICTIONARY
360
57F
102
}
330
2A
100
AcDbVisualStyle
  2
2dWireframe
 70
     4
 71
     0
 72
     2
 73
     0
 90
        0
 40
-0.6
 41
-30.0
 62
     5
 63
     7
 74
     1
 91
        4
 64
     7
 65
   257
 75
     1
175
     1
 42
1.0
 92
        0
 66
   257
 43
1.0
 76
     1
 77
     6
 78
     2
 67
     7
 79
     5
170
     0
171
     0
290
     0
174
     0
 93
        1
 44
0.0
173
     0
291
     0
 45
0.0
1001
ACAD
1000
AcDbSavedByObjectVersion
1070
     0
  0
VISUALSTYLE
  5
31
102
{ACAD_REACTORS
330
2A
102
}
102
{ACAD_XDICTIONARY
360
583
102
}
330
2A
100
AcDbVisualStyle
  2
3D Hidden
 70
     6
 71
     1
 72
     2
 73
     2
 90
        0
 40
-0.6
 41
-30.0
 62
     5
 63
     7
 74
     2
 91
        2
 64
     7
 65
   257
 75
     2
175
     1
 42
40.0
 92
        0
 66
   257
 43
1.0
 76
     1
 77
     6
 78
     2
 67
     7
 79
     3
170
     0
171
     0
290
     0
174
     0
 93
        1
 44
0.0
173
     0
291
     0
 45
0.0
1001
ACAD
1000
AcDbSavedByObjectVersion
1070
     0
  0
VISUALSTYLE
  5
30
102
{ACAD_REACTORS
330
2A
102
}
102
{ACAD_XDICTIONARY
360
581
102
}
330
2A
100
AcDbVisualStyle
  2
3dWireframe
 70
     5
 71
     0
 72
     2
 73
     0
 90
        0
 40
-0.6
 41
-30.0
 62
     5
 63
     7
 74
     1
 91
        4
 64
     7
 65
   257
 75
     1
175
     1
 42
1.0
 92
        0
 66
   257
 43
1.0
 76
     1
 77
     6
 78
     2
 67
     7
 79
     5
170
     0
171
     0
290
     0
174
     0
 93
        1
 44
0.0
173
     0
291
     0
 45
0.0
1001
ACAD
1000
AcDbSavedByObjectVersion
1070
     0
  0
VISUALSTYLE
  5
32
102
{ACAD_REACTORS
330
2A
102
}
102
{ACAD_XDICTIONARY
360
585
102
}
330
2A
100
AcDbVisualStyle
  2
Basic
 70
     7
 71
     1
 72
     0
 73
     1
 90
        0
 40
-0.6
 41
-30.0
 62
     5
 63
     7
 74
     0
 91
        4
 64
     7
 65
   257
 75
     1
175
     1
 42
1.0
 92
        8
 66
     7
 43
1.0
 76
     1
 77
     6
 78
     2
 67
     7
 79
     5
170
     0
171
     0
290
     0
174
     0
 93
        1
 44
0.0
173
     0
291
     1
 45
0.0
1001
ACAD
1000
AcDbSavedByObjectVersion
1070
     0
  0
VISUALSTYLE
  5
36
102
{ACAD_REACTORS
330
2A
102
}
102
{ACAD_XDICTIONARY
360
58D
102
}
330
2A
100
AcDbVisualStyle
  2
Brighten
 70
    12
 71
     2
 72
     2
 73
     0
 90
        0
 40
-0.6
 41
-30.0
 62
     5
 63
     7
 74
     1
 91
        4
 64
     7
 65
   257
 75
     1
175
     1
 42
1.0
 92
        8
 66
     7
 43
1.0
 76
     1
 77
     6
 78
     2
 67
     7
 79
     5
170
     0
171
     0
290
     0
174
     0
 93
        1
 44
50.0
173
     0
291
     1
 45
0.0
1001
ACAD
1000
AcDbSavedByObjectVersion
1070
     0
  0
VISUALSTYLE
  5
3A
102
{ACAD_REACTORS
330
2A
102
}
102
{ACAD_XDICTIONARY
360
595
102
}
330
2A
100
AcDbVisualStyle
  2
ColorChange
 70
    16
 71
     2
 72
     2
 73
     3
 90
        0
 40
-0.6
 41
-30.0
 62
     5
 63
     8
 74
     1
 91
        4
 64
     7
 65
   257
 75
     1
175
     1
 42
1.0
 92
        8
 66
     8
 43
1.0
 76
     1
 77
     6
 78
     2
 67
     7
 79
     5
170
     0
171
     0
290
     0
174
     0
 93
        1
 44
0.0
173
     0
291
     1
 45
0.0
1001
ACAD
1000
AcDbSavedByObjectVersion
1070
     0
  0
VISUALSTYLE
  5
34
102
{ACAD_REACTORS
330
2A
102
}
102
{ACAD_XDICTIONARY
360
589
102
}
330
2A
100
AcDbVisualStyle
  2
Conceptual
 70
     9
 71
     3
 72
     2
 73
     0
 90
        0
 40
-0.6
 41
-30.0
 62
     5
 63
     7
 74
     2
 91
        2
 64
     7
 65
   257
 75
     1
175
     1
 42
40.0
 92
        8
 66
     7
 43
1.0
 76
     1
 77
     6
 78
     2
 67
     7
 79
     3
170
     0
171
     0
290
     0
174
     0
 93
        1
 44
0.0
173
     0
291
     0
 45
0.0
1001
ACAD
1000
AcDbSavedByObjectVersion
1070
     0
  0
VISUALSTYLE
  5
35
102
{ACAD_REACTORS
330
2A
102
}
102
{ACAD_XDICTIONARY
360
58B
102
}
330
2A
100
AcDbVisualStyle
  2
Dim
 70
    11
 71
     2
 72
     2
 73
     0
 90
        0
 40
-0.6
 41
-30.0
 62
     5
 63
     7
 74
     1
 91
        4
 64
     7
 65
   257
 75
     1
175
     1
 42
1.0
 92
        8
 66
     7
 43
1.0
 76
     1
 77
     6
 78
     2
 67
     7
 79
     5
170
     0
171
     0
290
     0
174
     0
 93
        1
 44
-50.0
173
     0
291
     1
 45
0.0
1001
ACAD
1000
AcDbSavedByObjectVersion
1070
     0
  0
VISUALSTYLE
  5
39
102
{ACAD_REACTORS
330
2A
102
}
102
{ACAD_XDICTIONARY
360
593
102
}
330
2A
100
AcDbVisualStyle
  2
Facepattern
 70
    15
 71
     2
 72
     2
 73
     0
 90
        0
 40
-0.6
 41
-30.0
 62
     5
 63
     7
 74
     1
 91
        4
 64
     7
 65
   257
 75
     1
175
     1
 42
1.0
 92
        8
 66
     7
 43
1.0
 76
     1
 77
     6
 78
     2
 67
     7
 79
     5
170
     0
171
     0
290
     0
174
     0
 93
        1
 44
0.0
173
     0
291
     1
 45
0.0
1001
ACAD
1000
AcDbSavedByObjectVersion
1070
     0
  0
VISUALSTYLE
  5
2B
102
{ACAD_REACTORS
330
2A
102
}
102
{ACAD_XDICTIONARY
360
577
102
}
330
2A
100
AcDbVisualStyle
  2
Flat
 70
     0
 71
     2
 72
     1
 73
     1
 90
        2
 40
-0.6
 41
30.0
 62
     5
 63
     7
 74
     0
 91
        4
 64
     7
 65
   257
 75
     1
175
     1
 42
1.0
 92
        8
 66
     7
 43
1.0
 76
     1
 77
     6
 78
     2
 67
     7
 79
     5
170
     0
171
     0
290
     0
174
     0
 93
       13
 44
0.0
173
     0
291
     1
 45
0.0
1001
ACAD
1000
AcDbSavedByObjectVersion
1070
     0
  0
VISUALSTYLE
  5
2C
102
{ACAD_REACTORS
330
2A
102
}
102
{ACAD_XDICTIONARY
360
579
102
}
330
2A
100
AcDbVisualStyle
  2
FlatWithEdges
 70
     1
 71
     2
 72
     1
 73
     1
 90
        2
 40
-0.6
 41
30.0
 62
     5
 63
     7
 74
     1
 91
        4
 64
     7
 65
   257
 75
     1
175
     1
 42
1.0
 92
        0
 66
   257
 43
1.0
 76
     1
 77
     6
 78
     2
 67
     7
 79
     5
170
     0
171
     0
290
     0
174
     0
 93
       13
 44
0.0
173
     0
291
     1
 45
0.0
1001
ACAD
1000
AcDbSavedByObjectVersion
1070
     0
  0
VISUALSTYLE
  5
2D
102
{ACAD_REACTORS
330
2A
102
}
102
{ACAD_XDICTIONARY
360
57B
102
}
330
2A
100
AcDbVisualStyle
  2
Gouraud
 70
     2
 71
     2
 72
     2
 73
     1
 90
        2
 40
-0.6
 41
30.0
 62
     5
 63
     7
 74
     0
 91
        4
 64
     7
 65
   257
 75
     1
175
     1
 42
1.0
 92
        0
 66
     7
 43
1.0
 76
     1
 77
     6
 78
     2
 67
     7
 79
     5
170
     0
171
     0
290
     0
174
     0
 93
       13
 44
0.0
173
     0
291
     1
 45
0.0
1001
ACAD
1000
AcDbSavedByObjectVersion
1070
     0
  0
VISUALSTYLE
  5
2E
102
{ACAD_REACTORS
330
2A
102
}
102
{ACAD_XDICTIONARY
360
57D
102
}
330
2A
100
AcDbVisualStyle
  2
GouraudWithEdges
 70
     3
 71
     2
 72
     2
 73
     1
 90
        2
 40
-0.6
 41
30.0
 62
     5
 63
     7
 74
     1
 91
        4
 64
     7
 65
   257
 75
     1
175
     1
 42
1.0
 92
        0
 66
   257
 43
1.0
 76
     1
 77
     6
 78
     2
 67
     7
 79
     5
170
     0
171
     0
290
     0
174
     0
 93
       13
 44
0.0
173
     0
291
     1
 45
0.0
1001
ACAD
1000
AcDbSavedByObjectVersion
1070
     0
  0
VISUALSTYLE
  5
38
102
{ACAD_REACTORS
330
2A
102
}
102
{ACAD_XDICTIONARY
360
591
102
}
330
2A
100
AcDbVisualStyle
  2
Linepattern
 70
    14
 71
     2
 72
     2
 73
     0
 90
        0
 40
-0.6
 41
-30.0
 62
     5
 63
     7
 74
     1
 91
        4
 64
     7
 65
   257
 75
     7
175
     7
 42
1.0
 92
        8
 66
     7
 43
1.0
 76
     1
 77
     6
 78
     2
 67
     7
 79
     5
170
     0
171
     0
290
     0
174
     0
 93
        1
 44
0.0
173
     0
291
     1
 45
0.0
1001
ACAD
1000
AcDbSavedByObjectVersion
1070
     0
  0
VISUALSTYLE
  5
33
102
{ACAD_REACTORS
330
2A
102
}
102
{ACAD_XDICTIONARY
360
587
102
}
330
2A
100
AcDbVisualStyle
  2
Realistic
 70
     8
 71
     2
 72
     2
 73
     0
 90
        0
 40
-0.6
 41
-30.0
 62
     5
 63
     7
 74
     1
 91
        0
 64
     7
 65
   257
 75
     1
175
     1
 42
1.0
 92
        8
 66
     8
 43
1.0
 76
     1
 77
     6
 78
     2
 67
     7
 79
     5
170
     0
171
     0
290
     0
174
     0
 93
       13
 44
0.0
173
     0
291
     0
 45
0.0
1001
ACAD
1000
AcDbSavedByObjectVersion
1070
     0
  0
VISUALSTYLE
  5
37
102
{ACAD_REACTORS
330
2A
102
}
102
{ACAD_XDICTIONARY
360
58F
102
}
330
2A
100
AcDbVisualStyle
  2
Thicken
 70
    13
 71
     2
 72
     2
 73
     0
 90
        0
 40
-0.6
 41
-30.0
 62
     5
 63
     7
 74
     1
 91
        4
 64
     7
 65
   257
 75
     1
175
     1
 42
1.0
 92
       12
 66
     7
 43
1.0
 76
     1
 77
     6
 78
     2
 67
     7
 79
     5
170
     0
171
     0
290
     0
174
     0
 93
        1
 44
0.0
173
     0
291
     1
 45
0.0
1001
ACAD
1000
AcDbSavedByObjectVersion
1070
     0
  0
DICTIONARYVAR
  5
575
102
{ACAD_REACTORS
330
570
102
}
330
570
100
DictionaryVariables
280
     0
  1
2
  0
DICTIONARYVAR
  5
576
102
{ACAD_REACTORS
330
570
102
}
330
570
100
DictionaryVariables
280
     0
  1
1
  0
DICTIONARYVAR
  5
574
102
{ACAD_REACTORS
330
570
102
}
330
570
100
DictionaryVariables
280
     0
  1
80.000000
  0
DICTIONARYVAR
  5
573
102
{ACAD_REACTORS
330
570
102
}
330
570
100
DictionaryVariables
280
     0
  1
5.000000
  0
DICTIONARY
  5
599
330
3D
100
AcDbDictionary
280
     1
281
     1
  3
ACAD_XREC_ROUNDTRIP
360
59A
  0
DICTIONARY
  5
597
330
3C
100
AcDbDictionary
280
     1
281
     1
  3
ACAD_XREC_ROUNDTRIP
360
598
  0
DICTIONARY
  5
59B
330
3E
100
AcDbDictionary
280
     1
281
     1
  3
ACAD_XREC_ROUNDTRIP
360
59C
  0
DICTIONARY
  5
57F
330
2F
100
AcDbDictionary
280
     1
281
     1
  3
ACAD_XREC_ROUNDTRIP
360
580
  0
DICTIONARY
  5
583
330
31
100
AcDbDictionary
280
     1
281
     1
  3
ACAD_XREC_ROUNDTRIP
360
584
  0
DICTIONARY
  5
581
330
30
100
AcDbDictionary
280
     1
281
     1
  3
ACAD_XREC_ROUNDTRIP
360
582
  0
DICTIONARY
  5
585
330
32
100
AcDbDictionary
280
     1
281
     1
  3
ACAD_XREC_ROUNDTRIP
360
586
  0
DICTIONARY
  5
58D
330
36
100
AcDbDictionary
280
     1
281
     1
  3
ACAD_XREC_ROUNDTRIP
360
58E
  0
DICTIONARY
  5
595
330
3A
100
AcDbDictionary
280
     1
281
     1
  3
ACAD_XREC_ROUNDTRIP
360
596
  0
DICTIONARY
  5
589
330
34
100
AcDbDictionary
280
     1
281
     1
  3
ACAD_XREC_ROUNDTRIP
360
58A
  0
DICTIONARY
  5
58B
330
35
100
AcDbDictionary
280
     1
281
     1
  3
ACAD_XREC_ROUNDTRIP
360
58C
  0
DICTIONARY
  5
593
330
39
100
AcDbDictionary
280
     1
281
     1
  3
ACAD_XREC_ROUNDTRIP
360
594
  0
DICTIONARY
  5
577
330
2B
100
AcDbDictionary
280
     1
281
     1
  3
ACAD_XREC_ROUNDTRIP
360
578
  0
DICTIONARY
  5
579
330
2C
100
AcDbDictionary
280
     1
281
     1
  3
ACAD_XREC_ROUNDTRIP
360
57A
  0
DICTIONARY
  5
57B
330
2D
100
AcDbDictionary
280
     1
281
     1
  3
ACAD_XREC_ROUNDTRIP
360
57C
  0
DICTIONARY
  5
57D
330
2E
100
AcDbDictionary
280
     1
281
     1
  3
ACAD_XREC_ROUNDTRIP
360
57E
  0
DICTIONARY
  5
591
330
38
100
AcDbDictionary
280
     1
281
     1
  3
ACAD_XREC_ROUNDTRIP
360
592
  0
DICTIONARY
  5
587
330
33
100
AcDbDictionary
280
     1
281
     1
  3
ACAD_XREC_ROUNDTRIP
360
588
  0
DICTIONARY
  5
58F
330
37
100
AcDbDictionary
280
     1
281
     1
  3
ACAD_XREC_ROUNDTRIP
360
590
  0
XRECORD
  5
59A
102
{ACAD_REACTORS
330
599
102
}
330
599
100
AcDbXrecord
280
     1
102
MATERIAL
148
0.0
149
0.0
149
0.0
 93
        0
 94
      127
282
     0
 72
     1
 77
     1
171
     1
175
     1
179
     1
273
     0
  0
XRECORD
  5
598
102
{ACAD_REACTORS
330
597
102
}
330
597
100
AcDbXrecord
280
     1
102
MATERIAL
148
0.0
149
0.0
149
0.0
 93
        0
 94
      127
282
     0
 72
     1
 77
     1
171
     1
175
     1
179
     1
273
     0
  0
XRECORD
  5
59C
102
{ACAD_REACTORS
330
59B
102
}
330
59B
100
AcDbXrecord
280
     1
102
MATERIAL
148
0.0
149
0.0
149
0.0
 93
        0
 94
      127
282
     0
 72
     1
 77
     1
171
     1
175
     1
179
     1
273
     0
  0
XRECORD
  5
580
102
{ACAD_REACTORS
330
57F
102
}
330
57F
100
AcDbXrecord
280
     1
102
RTVSPropertyOp0
 70
     1
102
RTVSPropertyOp1
 70
     1
102
RTVSPropertyOp2
 70
     1
102
RTVSPropertyOp3
 70
     1
102
RTVSPropertyOp4
 70
     1
102
RTVSPropertyOp5
 70
     1
102
RTVSPropertyOp6
 70
     1
102
RTVSPropertyOp7
 70
     1
102
RTVSPropertyOp8
 70
     1
102
RTVSPropertyOp9
 70
     1
102
RTVSPropertyOp10
 70
     1
102
RTVSPropertyOp11
 70
     1
102
RTVSPropertyOp12
 70
     1
102
RTVSPropertyOp13
 70
     1
102
RTVSPropertyOp14
 70
     1
102
RTVSPropertyOp15
 70
     1
102
RTVSPropertyOp16
 70
     1
102
RTVSPropertyOp17
 70
     1
102
RTVSPropertyOp18
 70
     1
102
RTVSPropertyOp19
 70
     1
102
RTVSPropertyOp20
 70
     1
102
RTVSPropertyOp21
 70
     1
102
RTVSPropertyOp22
 70
     1
102
RTVSPropertyOp23
 70
     1
102
RTVSPropertyOp24
 70
     1
102
RTVSPropertyOp25
 70
     1
102
RTVSPropertyOp26
 70
     1
102
RTVSPropertyOp27
 70
     1
  0
XRECORD
  5
584
102
{ACAD_REACTORS
330
583
102
}
330
583
100
AcDbXrecord
280
     1
102
RTVSPropertyOp0
 70
     1
102
RTVSPropertyOp1
 70
     1
102
RTVSPropertyOp2
 70
     1
102
RTVSPropertyOp3
 70
     1
102
RTVSPropertyOp4
 70
     1
102
RTVSPropertyOp5
 70
     1
102
RTVSPropertyOp6
 70
     1
102
RTVSPropertyOp7
 70
     1
102
RTVSPropertyOp8
 70
     1
102
RTVSPropertyOp9
 70
     1
102
RTVSPropertyOp10
 70
     1
102
RTVSPropertyOp11
 70
     1
102
RTVSPropertyOp12
 70
     1
102
RTVSPropertyOp13
 70
     1
102
RTVSPropertyOp14
 70
     1
102
RTVSPropertyOp15
 70
     1
102
RTVSPropertyOp16
 70
     1
102
RTVSPropertyOp17
 70
     1
102
RTVSPropertyOp18
 70
     1
102
RTVSPropertyOp19
 70
     1
102
RTVSPropertyOp20
 70
     1
102
RTVSPropertyOp21
 70
     1
102
RTVSPropertyOp22
 70
     1
102
RTVSPropertyOp23
 70
     1
102
RTVSPropertyOp24
 70
     1
102
RTVSPropertyOp25
 70
     1
102
RTVSPropertyOp26
 70
     1
102
RTVSPropertyOp27
 70
     1
  0
XRECORD
  5
582
102
{ACAD_REACTORS
330
581
102
}
330
581
100
AcDbXrecord
280
     1
102
RTVSPropertyOp0
 70
     1
102
RTVSPropertyOp1
 70
     1
102
RTVSPropertyOp2
 70
     1
102
RTVSPropertyOp3
 70
     1
102
RTVSPropertyOp4
 70
     1
102
RTVSPropertyOp5
 70
     1
102
RTVSPropertyOp6
 70
     1
102
RTVSPropertyOp7
 70
     1
102
RTVSPropertyOp8
 70
     1
102
RTVSPropertyOp9
 70
     1
102
RTVSPropertyOp10
 70
     1
102
RTVSPropertyOp11
 70
     1
102
RTVSPropertyOp12
 70
     1
102
RTVSPropertyOp13
 70
     1
102
RTVSPropertyOp14
 70
     1
102
RTVSPropertyOp15
 70
     1
102
RTVSPropertyOp16
 70
     1
102
RTVSPropertyOp17
 70
     1
102
RTVSPropertyOp18
 70
     1
102
RTVSPropertyOp19
 70
     1
102
RTVSPropertyOp20
 70
     1
102
RTVSPropertyOp21
 70
     1
102
RTVSPropertyOp22
 70
     1
102
RTVSPropertyOp23
 70
     1
102
RTVSPropertyOp24
 70
     1
102
RTVSPropertyOp25
 70
     1
102
RTVSPropertyOp26
 70
     1
102
RTVSPropertyOp27
 70
     1
  0
XRECORD
  5
586
102
{ACAD_REACTORS
330
585
102
}
330
585
100
AcDbXrecord
280
     1
102
RTVSPropertyOp0
 70
     1
102
RTVSPropertyOp1
 70
     1
102
RTVSPropertyOp2
 70
     1
102
RTVSPropertyOp3
 70
     1
102
RTVSPropertyOp4
 70
     1
102
RTVSPropertyOp5
 70
     1
102
RTVSPropertyOp6
 70
     1
102
RTVSPropertyOp7
 70
     1
102
RTVSPropertyOp8
 70
     1
102
RTVSPropertyOp9
 70
     1
102
RTVSPropertyOp10
 70
     1
102
RTVSPropertyOp11
 70
     1
102
RTVSPropertyOp12
 70
     1
102
RTVSPropertyOp13
 70
     1
102
RTVSPropertyOp14
 70
     1
102
RTVSPropertyOp15
 70
     1
102
RTVSPropertyOp16
 70
     1
102
RTVSPropertyOp17
 70
     1
102
RTVSPropertyOp18
 70
     1
102
RTVSPropertyOp19
 70
     1
102
RTVSPropertyOp20
 70
     1
102
RTVSPropertyOp21
 70
     1
102
RTVSPropertyOp22
 70
     1
102
RTVSPropertyOp23
 70
     1
102
RTVSPropertyOp24
 70
     1
102
RTVSPropertyOp25
 70
     1
102
RTVSPropertyOp26
 70
     1
102
RTVSPropertyOp27
 70
     1
  0
XRECORD
  5
58E
102
{ACAD_REACTORS
330
58D
102
}
330
58D
100
AcDbXrecord
280
     1
102
RTVSPropertyOp0
 70
     1
102
RTVSPropertyOp1
 70
     1
102
RTVSPropertyOp2
 70
     1
102
RTVSPropertyOp3
 70
     1
102
RTVSPropertyOp4
 70
     1
102
RTVSPropertyOp5
 70
     1
102
RTVSPropertyOp6
 70
     1
102
RTVSPropertyOp7
 70
     1
102
RTVSPropertyOp8
 70
     1
102
RTVSPropertyOp9
 70
     1
102
RTVSPropertyOp10
 70
     1
102
RTVSPropertyOp11
 70
     1
102
RTVSPropertyOp12
 70
     1
102
RTVSPropertyOp13
 70
     1
102
RTVSPropertyOp14
 70
     1
102
RTVSPropertyOp15
 70
     1
102
RTVSPropertyOp16
 70
     1
102
RTVSPropertyOp17
 70
     1
102
RTVSPropertyOp18
 70
     1
102
RTVSPropertyOp19
 70
     1
102
RTVSPropertyOp20
 70
     1
102
RTVSPropertyOp21
 70
     1
102
RTVSPropertyOp22
 70
     1
102
RTVSPropertyOp23
 70
     1
102
RTVSPropertyOp24
 70
     1
102
RTVSPropertyOp25
 70
     1
102
RTVSPropertyOp26
 70
     1
102
RTVSPropertyOp27
 70
     1
  0
XRECORD
  5
596
102
{ACAD_REACTORS
330
595
102
}
330
595
100
AcDbXrecord
280
     1
102
RTVSPropertyOp0
 70
     1
102
RTVSPropertyOp1
 70
     1
102
RTVSPropertyOp2
 70
     1
102
RTVSPropertyOp3
 70
     1
102
RTVSPropertyOp4
 70
     1
102
RTVSPropertyOp5
 70
     1
102
RTVSPropertyOp6
 70
     1
102
RTVSPropertyOp7
 70
     1
102
RTVSPropertyOp8
 70
     1
102
RTVSPropertyOp9
 70
     1
102
RTVSPropertyOp10
 70
     1
102
RTVSPropertyOp11
 70
     1
102
RTVSPropertyOp12
 70
     1
102
RTVSPropertyOp13
 70
     1
102
RTVSPropertyOp14
 70
     1
102
RTVSPropertyOp15
 70
     1
102
RTVSPropertyOp16
 70
     1
102
RTVSPropertyOp17
 70
     1
102
RTVSPropertyOp18
 70
     1
102
RTVSPropertyOp19
 70
     1
102
RTVSPropertyOp20
 70
     1
102
RTVSPropertyOp21
 70
     1
102
RTVSPropertyOp22
 70
     1
102
RTVSPropertyOp23
 70
     1
102
RTVSPropertyOp24
 70
     1
102
RTVSPropertyOp25
 70
     1
102
RTVSPropertyOp26
 70
     1
102
RTVSPropertyOp27
 70
     1
  0
XRECORD
  5
58A
102
{ACAD_REACTORS
330
589
102
}
330
589
100
AcDbXrecord
280
     1
102
RTVSPropertyOp0
 70
     1
102
RTVSPropertyOp1
 70
     1
102
RTVSPropertyOp2
 70
     1
102
RTVSPropertyOp3
 70
     1
102
RTVSPropertyOp4
 70
     1
102
RTVSPropertyOp5
 70
     1
102
RTVSPropertyOp6
 70
     1
102
RTVSPropertyOp7
 70
     1
102
RTVSPropertyOp8
 70
     1
102
RTVSPropertyOp9
 70
     1
102
RTVSPropertyOp10
 70
     1
102
RTVSPropertyOp11
 70
     1
102
RTVSPropertyOp12
 70
     1
102
RTVSPropertyOp13
 70
     1
102
RTVSPropertyOp14
 70
     1
102
RTVSPropertyOp15
 70
     1
102
RTVSPropertyOp16
 70
     1
102
RTVSPropertyOp17
 70
     1
102
RTVSPropertyOp18
 70
     1
102
RTVSPropertyOp19
 70
     1
102
RTVSPropertyOp20
 70
     1
102
RTVSPropertyOp21
 70
     1
102
RTVSPropertyOp22
 70
     1
102
RTVSPropertyOp23
 70
     1
102
RTVSPropertyOp24
 70
     1
102
RTVSPropertyOp25
 70
     1
102
RTVSPropertyOp26
 70
     1
102
RTVSPropertyOp27
 70
     1
  0
XRECORD
  5
58C
102
{ACAD_REACTORS
330
58B
102
}
330
58B
100
AcDbXrecord
280
     1
102
RTVSPropertyOp0
 70
     1
102
RTVSPropertyOp1
 70
     1
102
RTVSPropertyOp2
 70
     1
102
RTVSPropertyOp3
 70
     1
102
RTVSPropertyOp4
 70
     1
102
RTVSPropertyOp5
 70
     1
102
RTVSPropertyOp6
 70
     1
102
RTVSPropertyOp7
 70
     1
102
RTVSPropertyOp8
 70
     1
102
RTVSPropertyOp9
 70
     1
102
RTVSPropertyOp10
 70
     1
102
RTVSPropertyOp11
 70
     1
102
RTVSPropertyOp12
 70
     1
102
RTVSPropertyOp13
 70
     1
102
RTVSPropertyOp14
 70
     1
102
RTVSPropertyOp15
 70
     1
102
RTVSPropertyOp16
 70
     1
102
RTVSPropertyOp17
 70
     1
102
RTVSPropertyOp18
 70
     1
102
RTVSPropertyOp19
 70
     1
102
RTVSPropertyOp20
 70
     1
102
RTVSPropertyOp21
 70
     1
102
RTVSPropertyOp22
 70
     1
102
RTVSPropertyOp23
 70
     1
102
RTVSPropertyOp24
 70
     1
102
RTVSPropertyOp25
 70
     1
102
RTVSPropertyOp26
 70
     1
102
RTVSPropertyOp27
 70
     1
  0
XRECORD
  5
594
102
{ACAD_REACTORS
330
593
102
}
330
593
100
AcDbXrecord
280
     1
102
RTVSPropertyOp0
 70
     1
102
RTVSPropertyOp1
 70
     1
102
RTVSPropertyOp2
 70
     1
102
RTVSPropertyOp3
 70
     1
102
RTVSPropertyOp4
 70
     1
102
RTVSPropertyOp5
 70
     1
102
RTVSPropertyOp6
 70
     1
102
RTVSPropertyOp7
 70
     1
102
RTVSPropertyOp8
 70
     1
102
RTVSPropertyOp9
 70
     1
102
RTVSPropertyOp10
 70
     1
102
RTVSPropertyOp11
 70
     1
102
RTVSPropertyOp12
 70
     1
102
RTVSPropertyOp13
 70
     1
102
RTVSPropertyOp14
 70
     1
102
RTVSPropertyOp15
 70
     1
102
RTVSPropertyOp16
 70
     1
102
RTVSPropertyOp17
 70
     1
102
RTVSPropertyOp18
 70
     1
102
RTVSPropertyOp19
 70
     1
102
RTVSPropertyOp20
 70
     1
102
RTVSPropertyOp21
 70
     1
102
RTVSPropertyOp22
 70
     1
102
RTVSPropertyOp23
 70
     1
102
RTVSPropertyOp24
 70
     1
102
RTVSPropertyOp25
 70
     1
102
RTVSPropertyOp26
 70
     1
102
RTVSPropertyOp27
 70
     1
  0
XRECORD
  5
578
102
{ACAD_REACTORS
330
577
102
}
330
577
100
AcDbXrecord
280
     1
102
RTVSPropertyOp0
 70
     1
102
RTVSPropertyOp1
 70
     1
102
RTVSPropertyOp2
 70
     1
102
RTVSPropertyOp3
 70
     1
102
RTVSPropertyOp4
 70
     1
102
RTVSPropertyOp5
 70
     1
102
RTVSPropertyOp6
 70
     1
102
RTVSPropertyOp7
 70
     1
102
RTVSPropertyOp8
 70
     1
102
RTVSPropertyOp9
 70
     1
102
RTVSPropertyOp10
 70
     1
102
RTVSPropertyOp11
 70
     1
102
RTVSPropertyOp12
 70
     1
102
RTVSPropertyOp13
 70
     1
102
RTVSPropertyOp14
 70
     1
102
RTVSPropertyOp15
 70
     1
102
RTVSPropertyOp16
 70
     1
102
RTVSPropertyOp17
 70
     1
102
RTVSPropertyOp18
 70
     1
102
RTVSPropertyOp19
 70
     1
102
RTVSPropertyOp20
 70
     1
102
RTVSPropertyOp21
 70
     1
102
RTVSPropertyOp22
 70
     1
102
RTVSPropertyOp23
 70
     1
102
RTVSPropertyOp24
 70
     1
102
RTVSPropertyOp25
 70
     1
102
RTVSPropertyOp26
 70
     1
102
RTVSPropertyOp27
 70
     1
  0
XRECORD
  5
57A
102
{ACAD_REACTORS
330
579
102
}
330
579
100
AcDbXrecord
280
     1
102
RTVSPropertyOp0
 70
     1
102
RTVSPropertyOp1
 70
     1
102
RTVSPropertyOp2
 70
     1
102
RTVSPropertyOp3
 70
     1
102
RTVSPropertyOp4
 70
     1
102
RTVSPropertyOp5
 70
     1
102
RTVSPropertyOp6
 70
     1
102
RTVSPropertyOp7
 70
     1
102
RTVSPropertyOp8
 70
     1
102
RTVSPropertyOp9
 70
     1
102
RTVSPropertyOp10
 70
     1
102
RTVSPropertyOp11
 70
     1
102
RTVSPropertyOp12
 70
     1
102
RTVSPropertyOp13
 70
     1
102
RTVSPropertyOp14
 70
     1
102
RTVSPropertyOp15
 70
     1
102
RTVSPropertyOp16
 70
     1
102
RTVSPropertyOp17
 70
     1
102
RTVSPropertyOp18
 70
     1
102
RTVSPropertyOp19
 70
     1
102
RTVSPropertyOp20
 70
     1
102
RTVSPropertyOp21
 70
     1
102
RTVSPropertyOp22
 70
     1
102
RTVSPropertyOp23
 70
     1
102
RTVSPropertyOp24
 70
     1
102
RTVSPropertyOp25
 70
     1
102
RTVSPropertyOp26
 70
     1
102
RTVSPropertyOp27
 70
     1
  0
XRECORD
  5
57C
102
{ACAD_REACTORS
330
57B
102
}
330
57B
100
AcDbXrecord
280
     1
102
RTVSPropertyOp0
 70
     1
102
RTVSPropertyOp1
 70
     1
102
RTVSPropertyOp2
 70
     1
102
RTVSPropertyOp3
 70
     1
102
RTVSPropertyOp4
 70
     1
102
RTVSPropertyOp5
 70
     1
102
RTVSPropertyOp6
 70
     1
102
RTVSPropertyOp7
 70
     1
102
RTVSPropertyOp8
 70
     1
102
RTVSPropertyOp9
 70
     1
102
RTVSPropertyOp10
 70
     1
102
RTVSPropertyOp11
 70
     1
102
RTVSPropertyOp12
 70
     1
102
RTVSPropertyOp13
 70
     1
102
RTVSPropertyOp14
 70
     1
102
RTVSPropertyOp15
 70
     1
102
RTVSPropertyOp16
 70
     1
102
RTVSPropertyOp17
 70
     1
102
RTVSPropertyOp18
 70
     1
102
RTVSPropertyOp19
 70
     1
102
RTVSPropertyOp20
 70
     1
102
RTVSPropertyOp21
 70
     1
102
RTVSPropertyOp22
 70
     1
102
RTVSPropertyOp23
 70
     1
102
RTVSPropertyOp24
 70
     1
102
RTVSPropertyOp25
 70
     1
102
RTVSPropertyOp26
 70
     1
102
RTVSPropertyOp27
 70
     1
  0
XRECORD
  5
57E
102
{ACAD_REACTORS
330
57D
102
}
330
57D
100
AcDbXrecord
280
     1
102
RTVSPropertyOp0
 70
     1
102
RTVSPropertyOp1
 70
     1
102
RTVSPropertyOp2
 70
     1
102
RTVSPropertyOp3
 70
     1
102
RTVSPropertyOp4
 70
     1
102
RTVSPropertyOp5
 70
     1
102
RTVSPropertyOp6
 70
     1
102
RTVSPropertyOp7
 70
     1
102
RTVSPropertyOp8
 70
     1
102
RTVSPropertyOp9
 70
     1
102
RTVSPropertyOp10
 70
     1
102
RTVSPropertyOp11
 70
     1
102
RTVSPropertyOp12
 70
     1
102
RTVSPropertyOp13
 70
     1
102
RTVSPropertyOp14
 70
     1
102
RTVSPropertyOp15
 70
     1
102
RTVSPropertyOp16
 70
     1
102
RTVSPropertyOp17
 70
     1
102
RTVSPropertyOp18
 70
     1
102
RTVSPropertyOp19
 70
     1
102
RTVSPropertyOp20
 70
     1
102
RTVSPropertyOp21
 70
     1
102
RTVSPropertyOp22
 70
     1
102
RTVSPropertyOp23
 70
     1
102
RTVSPropertyOp24
 70
     1
102
RTVSPropertyOp25
 70
     1
102
RTVSPropertyOp26
 70
     1
102
RTVSPropertyOp27
 70
     1
  0
XRECORD
  5
592
102
{ACAD_REACTORS
330
591
102
}
330
591
100
AcDbXrecord
280
     1
102
RTVSPropertyOp0
 70
     1
102
RTVSPropertyOp1
 70
     1
102
RTVSPropertyOp2
 70
     1
102
RTVSPropertyOp3
 70
     1
102
RTVSPropertyOp4
 70
     1
102
RTVSPropertyOp5
 70
     1
102
RTVSPropertyOp6
 70
     1
102
RTVSPropertyOp7
 70
     1
102
RTVSPropertyOp8
 70
     1
102
RTVSPropertyOp9
 70
     1
102
RTVSPropertyOp10
 70
     1
102
RTVSPropertyOp11
 70
     1
102
RTVSPropertyOp12
 70
     1
102
RTVSPropertyOp13
 70
     1
102
RTVSPropertyOp14
 70
     1
102
RTVSPropertyOp15
 70
     1
102
RTVSPropertyOp16
 70
     1
102
RTVSPropertyOp17
 70
     1
102
RTVSPropertyOp18
 70
     1
102
RTVSPropertyOp19
 70
     1
102
RTVSPropertyOp20
 70
     1
102
RTVSPropertyOp21
 70
     1
102
RTVSPropertyOp22
 70
     1
102
RTVSPropertyOp23
 70
     1
102
RTVSPropertyOp24
 70
     1
102
RTVSPropertyOp25
 70
     1
102
RTVSPropertyOp26
 70
     1
102
RTVSPropertyOp27
 70
     1
  0
XRECORD
  5
588
102
{ACAD_REACTORS
330
587
102
}
330
587
100
AcDbXrecord
280
     1
102
RTVSPropertyOp0
 70
     1
102
RTVSPropertyOp1
 70
     1
102
RTVSPropertyOp2
 70
     1
102
RTVSPropertyOp3
 70
     1
102
RTVSPropertyOp4
 70
     1
102
RTVSPropertyOp5
 70
     1
102
RTVSPropertyOp6
 70
     1
102
RTVSPropertyOp7
 70
     1
102
RTVSPropertyOp8
 70
     1
102
RTVSPropertyOp9
 70
     1
102
RTVSPropertyOp10
 70
     1
102
RTVSPropertyOp11
 70
     1
102
RTVSPropertyOp12
 70
     1
102
RTVSPropertyOp13
 70
     1
102
RTVSPropertyOp14
 70
     1
102
RTVSPropertyOp15
 70
     1
102
RTVSPropertyOp16
 70
     1
102
RTVSPropertyOp17
 70
     1
102
RTVSPropertyOp18
 70
     1
102
RTVSPropertyOp19
 70
     1
102
RTVSPropertyOp20
 70
     1
102
RTVSPropertyOp21
 70
     1
102
RTVSPropertyOp22
 70
     1
102
RTVSPropertyOp23
 70
     1
102
RTVSPropertyOp24
 70
     1
102
RTVSPropertyOp25
 70
     1
102
RTVSPropertyOp26
 70
     1
102
RTVSPropertyOp27
 70
     1
  0
XRECORD
  5
590
102
{ACAD_REACTORS
330
58F
102
}
330
58F
100
AcDbXrecord
280
     1
102
RTVSPropertyOp0
 70
     1
102
RTVSPropertyOp1
 70
     1
102
RTVSPropertyOp2
 70
     1
102
RTVSPropertyOp3
 70
     1
102
RTVSPropertyOp4
 70
     1
102
RTVSPropertyOp5
 70
     1
102
RTVSPropertyOp6
 70
     1
102
RTVSPropertyOp7
 70
     1
102
RTVSPropertyOp8
 70
     1
102
RTVSPropertyOp9
 70
     1
102
RTVSPropertyOp10
 70
     1
102
RTVSPropertyOp11
 70
     1
102
RTVSPropertyOp12
 70
     1
102
RTVSPropertyOp13
 70
     1
102
RTVSPropertyOp14
 70
     1
102
RTVSPropertyOp15
 70
     1
102
RTVSPropertyOp16
 70
     1
102
RTVSPropertyOp17
 70
     1
102
RTVSPropertyOp18
 70
     1
102
RTVSPropertyOp19
 70
     1
102
RTVSPropertyOp20
 70
     1
102
RTVSPropertyOp21
 70
     1
102
RTVSPropertyOp22
 70
     1
102
RTVSPropertyOp23
 70
     1
102
RTVSPropertyOp24
 70
     1
102
RTVSPropertyOp25
 70
     1
102
RTVSPropertyOp26
 70
     1
102
RTVSPropertyOp27
 70
     1
  0
ENDSEC
  0
EOF
